  0
SECTION
  2
HEADER
  9
$ACADVER
  1
AC1009
  9
$INSBASE
 10
0.0
 20
0.0
 30
0.0
  9
$EXTMIN
 10
183.287562
 20
251.209639
 30
0.0
  9
$EXTMAX
 10
192.624117
 20
262.852683
 30
0.0
  9
$LIMMIN
 10
183.287562
 20
251.209639
  9
$LIMMAX
 10
192.624117
 20
262.852683
  9
$ORTHOMODE
 70
     0
  9
$REGENMODE
 70
     1
  9
$FILLMODE
 70
     1
  9
$QTEXTMODE
 70
     0
  9
$MIRRTEXT
 70
     1
  9
$DRAGMODE
 70
     2
  9
$LTSCALE
 40
1.0
  9
$OSMODE
 70
     0
  9
$ATTMODE
 70
     1
  9
$TEXTSIZE
 40
3.5
  9
$TRACEWID
 40
0.5
  9
$TEXTSTYLE
  7
STANDARD
  9
$CLAYER
  8
0
  9
$CELTYPE
  6
BYLAYER
  9
$CECOLOR
 62
   256
  9
$DIMSCALE
 40
1.0
  9
$DIMASZ
 40
0.18
  9
$DIMEXO
 40
0.0625
  9
$DIMDLI
 40
0.38
  9
$DIMRND
 40
0.0
  9
$DIMDLE
 40
0.0
  9
$DIMEXE
 40
0.18
  9
$DIMTP
 40
0.0
  9
$DIMTM
 40
0.0
  9
$DIMTXT
 40
0.18
  9
$DIMCEN
 40
0.09
  9
$DIMTSZ
 40
0.0
  9
$DIMTOL
 70
     0
  9
$DIMLIM
 70
     0
  9
$DIMTIH
 70
     1
  9
$DIMTOH
 70
     1
  9
$DIMSE1
 70
     0
  9
$DIMSE2
 70
     0
  9
$DIMTAD
 70
     0
  9
$DIMZIN
 70
     0
  9
$DIMBLK
  1

  9
$DIMASO
 70
     1
  9
$DIMSHO
 70
     1
  9
$DIMPOST
  1

  9
$DIMAPOST
  1

  9
$DIMALT
 70
     0
  9
$DIMALTD
 70
     2
  9
$DIMALTF
 40
25.4
  9
$DIMLFAC
 40
1.0
  9
$DIMTOFL
 70
     0
  9
$DIMTVP
 40
0.0
  9
$DIMTIX
 70
     0
  9
$DIMSOXD
 70
     0
  9
$DIMSAH
 70
     0
  9
$DIMBLK1
  1

  9
$DIMBLK2
  1

  9
$DIMSTYLE
  2
*UNNAMED
  9
$DIMCLRD
 70
     0
  9
$DIMCLRE
 70
     0
  9
$DIMCLRT
 70
     0
  9
$DIMTFAC
 40
1.0
  9
$DIMGAP
 40
0.09
  9
$LUNITS
 70
     2
  9
$LUPREC
 70
     4
  9
$SKETCHINC
 40
0.1
  9
$FILLETRAD
 40
2.0
  9
$AUNITS
 70
     0
  9
$AUPREC
 70
     0
  9
$MENU
  1
ACAD
  9
$ELEVATION
 40
0.0
  9
$PELEVATION
 40
0.0
  9
$THICKNESS
 40
0.0
  9
$LIMCHECK
 70
     0
  9
$BLIPMODE
 70
     1
  9
$CHAMFERA
 40
0.0
  9
$CHAMFERB
 40
0.0
  9
$SKPOLY
 70
     0
  9
$TDCREATE
 40
2450948.663605440
  9
$TDUPDATE
 40
2450948.663803819
  9
$TDINDWG
 40
0.0001017361
  9
$TDUSRTIMER
 40
0.0001017361
  9
$USRTIMER
 70
     1
  9
$ANGBASE
 50
0.0
  9
$ANGDIR
 70
     0
  9
$PDMODE
 70
     0
  9
$PDSIZE
 40
0.0
  9
$PLINEWID
 40
0.0
  9
$COORDS
 70
     2
  9
$SPLFRAME
 70
     0
  9
$SPLINETYPE
 70
     6
  9
$SPLINESEGS
 70
     8
  9
$ATTDIA
 70
     0
  9
$ATTREQ
 70
     1
  9
$HANDLING
 70
     0
  9
$HANDSEED
  5
0
  9
$SURFTAB1
 70
     6
  9
$SURFTAB2
 70
     6
  9
$SURFTYPE
 70
     6
  9
$SURFU
 70
     6
  9
$SURFV
 70
     6
  9
$UCSNAME
  2

  9
$UCSORG
 10
0.0
 20
0.0
 30
0.0
  9
$UCSXDIR
 10
1.0
 20
0.0
 30
0.0
  9
$UCSYDIR
 10
0.0
 20
1.0
 30
0.0
  9
$PUCSNAME
  2

  9
$PUCSORG
 10
0.0
 20
0.0
 30
0.0
  9
$PUCSXDIR
 10
1.0
 20
0.0
 30
0.0
  9
$PUCSYDIR
 10
0.0
 20
1.0
 30
0.0
  9
$USERI1
 70
     0
  9
$USERI2
 70
     0
  9
$USERI3
 70
     0
  9
$USERI4
 70
     0
  9
$USERI5
 70
     0
  9
$USERR1
 40
0.0
  9
$USERR2
 40
0.0
  9
$USERR3
 40
0.0
  9
$USERR4
 40
0.0
  9
$USERR5
 40
0.0
  9
$WORLDVIEW
 70
     1
  9
$SHADEDGE
 70
     3
  9
$SHADEDIF
 70
    70
  9
$TILEMODE
 70
     1
  9
$MAXACTVP
 70
    16
  9
$PINSBASE
 10
0.0
 20
0.0
 30
0.0
  9
$PLIMCHECK
 70
     0
  9
$PEXTMIN
 10
1.000000E+20
 20
1.000000E+20
 30
1.000000E+20
  9
$PEXTMAX
 10
-1.000000E+20
 20
-1.000000E+20
 30
-1.000000E+20
  9
$PLIMMIN
 10
0.0
 20
0.0
  9
$PLIMMAX
 10
420.0
 20
297.0
  9
$UNITMODE
 70
     0
  9
$VISRETAIN
 70
     0
  9
$PLINEGEN
 70
     0
  9
$PSLTSCALE
 70
     1
  9
$TREEDEPTH
 70
  3020
  9
$DWGCODEPAGE
  3
iso8859-1
  0
ENDSEC
  0
SECTION
  2
TABLES
  0
TABLE
  2
VPORT
 70
     2
  0
VPORT
  2
*ACTIVE
 70
     0
 10
0.0
 20
0.0
 11
1.0
 21
1.0
 12
192.376018
 22
256.725807
 13
0.0
 23
0.0
 14
1.0
 24
1.0
 15
0.0
 25
0.0
 16
0.0
 26
0.0
 36
1.0
 17
0.0
 27
0.0
 37
0.0
 40
16.193199
 41
1.748359
 42
50.0
 43
0.0
 44
0.0
 50
0.0
 51
0.0
 71
     0
 72
   100
 73
     1
 74
     0
 75
     0
 76
     0
 77
     0
 78
     0
  0
ENDTAB
  0
TABLE
  2
LTYPE
 70
     1
  0
LTYPE
  2
CONTINUOUS
 70
    64
  3
Solid line
 72
    65
 73
     0
 40
0.0
  0
ENDTAB
  0
TABLE
  2
LAYER
 70
     1
  0
LAYER
  2
0
 70
    64
 62
     7
  6
CONTINUOUS
  0
ENDTAB
  0
TABLE
  2
STYLE
 70
     1
  0
STYLE
  2
STANDARD
 70
     0
 40
0.0
 41
1.0
 50
0.0
 71
     0
 42
3.5
  3
txt
  4

  0
ENDTAB
  0
TABLE
  2
VIEW
 70
     0
  0
ENDTAB
  0
TABLE
  2
UCS
 70
     0
  0
ENDTAB
  0
TABLE
  2
APPID
 70
     1
  0
APPID
  2
ACAD
 70
    64
  0
ENDTAB
  0
TABLE
  2
DIMSTYLE
 70
     0
  0
ENDTAB
  0
ENDSEC
  0
SECTION
  2
BLOCKS
  0
ENDSEC
  0
SECTION
  2
ENTITIES
  0
LINE
  8
0
 10
183.678878
 20
251.22153
 30
0.0
 11
192.623481
 21
257.869075
 31
0.0
  0
LINE
  8
0
 10
192.624117
 20
257.870339
 30
0.0
 11
192.624117
 21
262.722855
 31
0.0
  0
LINE
  8
0
 10
190.597768
 20
261.669924
 30
0.0
 11
190.597768
 21
261.554916
 31
0.0
  0
LINE
  8
0
 10
190.717833
 20
261.686643
 30
0.0
 11
190.660202
 21
261.711899
 31
0.0
  0
LINE
  8
0
 10
190.717833
 20
261.605963
 30
0.0
 11
190.717833
 21
261.686643
 31
0.0
  0
LINE
  8
0
 10
191.202383
 20
262.046757
 30
0.0
 11
190.717833
 21
261.686643
 31
0.0
  0
LINE
  8
0
 10
190.660202
 20
261.711899
 30
0.0
 11
191.137216
 21
262.066411
 31
0.0
  0
LINE
  8
0
 10
190.660202
 20
261.711899
 30
0.0
 11
190.597768
 21
261.669924
 31
0.0
  0
LINE
  8
0
 10
190.597768
 20
261.669924
 30
0.0
 11
191.066618
 21
262.018369
 31
0.0
  0
LINE
  8
0
 10
191.202383
 20
261.966077
 30
0.0
 11
191.202383
 21
262.046757
 31
0.0
  0
LINE
  8
0
 10
191.202383
 20
262.046757
 30
0.0
 11
191.137216
 21
262.066411
 31
0.0
  0
LINE
  8
0
 10
191.137216
 20
262.066411
 30
0.0
 11
191.066618
 21
262.018369
 31
0.0
  0
LINE
  8
0
 10
192.612783
 20
257.882256
 30
0.0
 11
183.717347
 21
251.271251
 31
0.0
  0
LINE
  8
0
 10
183.717347
 20
251.271251
 30
0.0
 11
183.717347
 21
256.062509
 31
0.0
  0
LINE
  8
0
 10
192.292717
 20
261.272036
 30
0.0
 11
184.037412
 21
255.13677
 31
0.0
  0
LINE
  8
0
 10
187.754335
 20
259.552286
 30
0.0
 11
187.683737
 21
259.504244
 31
0.0
  0
LINE
  8
0
 10
190.360052
 20
258.35297
 30
0.0
 11
190.360052
 21
258.246285
 31
0.0
  0
LINE
  8
0
 10
190.772817
 20
258.659733
 30
0.0
 11
190.890499
 21
258.614553
 31
0.0
  0
LINE
  8
0
 10
191.105855
 20
258.774604
 30
0.0
 11
190.988173
 21
258.819783
 31
0.0
  0
LINE
  8
0
 10
191.303265
 20
258.921317
 30
0.0
 11
191.105855
 21
258.774604
 31
0.0
  0
LINE
  8
0
 10
190.280325
 20
258.161077
 30
0.0
 11
190.188856
 21
258.196193
 31
0.0
  0
LINE
  8
0
 10
190.477734
 20
258.30779
 30
0.0
 11
190.280325
 21
258.161077
 31
0.0
  0
LINE
  8
0
 10
190.360052
 20
258.35297
 30
0.0
 11
190.477734
 21
258.30779
 31
0.0
  0
LINE
  8
0
 10
190.575408
 20
258.51302
 30
0.0
 11
190.360052
 21
258.35297
 31
0.0
  0
LINE
  8
0
 10
190.69309
 20
258.46784
 30
0.0
 11
190.575408
 21
258.51302
 31
0.0
  0
LINE
  8
0
 10
190.890499
 20
258.614553
 30
0.0
 11
190.69309
 21
258.46784
 31
0.0
  0
LINE
  8
0
 10
191.185583
 20
258.966496
 30
0.0
 11
191.303265
 21
258.921317
 31
0.0
  0
LINE
  8
0
 10
190.988173
 20
258.819783
 30
0.0
 11
190.772817
 21
258.659733
 31
0.0
  0
LINE
  8
0
 10
190.772817
 20
258.659733
 30
0.0
 11
190.772817
 21
258.553048
 31
0.0
  0
LINE
  8
0
 10
187.878901
 20
259.649288
 30
0.0
 11
187.878901
 21
259.53428
 31
0.0
  0
LINE
  8
0
 10
184.037412
 20
252.672729
 30
0.0
 11
184.037412
 21
255.13677
 31
0.0
  0
LINE
  8
0
 10
185.406869
 20
254.565125
 30
0.0
 11
185.406869
 21
254.67181
 31
0.0
  0
LINE
  8
0
 10
186.232399
 20
255.178652
 30
0.0
 11
186.232399
 21
255.285337
 31
0.0
  0
LINE
  8
0
 10
187.998966
 20
259.666007
 30
0.0
 11
187.941335
 21
259.691262
 31
0.0
  0
LINE
  8
0
 10
192.292717
 20
258.807995
 30
0.0
 11
184.037412
 21
252.672729
 31
0.0
  0
LINE
  8
0
 10
192.292717
 20
258.807995
 30
0.0
 11
192.292717
 21
261.272036
 31
0.0
  0
LINE
  8
0
 10
192.292717
 20
258.807995
 30
0.0
 11
191.816226
 21
258.98443
 31
0.0
  0
LINE
  8
0
 10
191.816226
 20
259.071867
 30
0.0
 11
191.489932
 21
259.192686
 31
0.0
  0
LINE
  8
0
 10
186.64369
 20
255.458364
 30
0.0
 11
186.64369
 21
257.073645
 31
0.0
  0
LINE
  8
0
 10
184.992628
 20
254.231311
 30
0.0
 11
184.992628
 21
255.846592
 31
0.0
  0
LINE
  8
0
 10
186.978202
 20
255.706971
 30
0.0
 11
187.175612
 21
255.853684
 31
0.0
  0
LINE
  8
0
 10
187.470695
 20
256.205627
 30
0.0
 11
187.588377
 21
256.160447
 31
0.0
  0
LINE
  8
0
 10
187.390968
 20
256.013734
 30
0.0
 11
187.588377
 21
256.160447
 31
0.0
  0
LINE
  8
0
 10
187.273286
 20
256.058914
 30
0.0
 11
187.390968
 21
256.013734
 31
0.0
  0
LINE
  8
0
 10
187.05793
 20
255.898863
 30
0.0
 11
187.273286
 21
256.058914
 31
0.0
  0
LINE
  8
0
 10
187.05793
 20
255.792179
 30
0.0
 11
187.05793
 21
255.898863
 31
0.0
  0
LINE
  8
0
 10
187.175612
 20
255.853684
 30
0.0
 11
187.05793
 21
255.898863
 31
0.0
  0
LINE
  8
0
 10
186.886734
 20
255.742087
 30
0.0
 11
186.978202
 21
255.706971
 31
0.0
  0
LINE
  8
0
 10
187.686051
 20
256.365677
 30
0.0
 11
187.470695
 21
256.205627
 31
0.0
  0
LINE
  8
0
 10
187.470695
 20
256.205627
 30
0.0
 11
187.470695
 21
256.098942
 31
0.0
  0
LINE
  8
0
 10
187.803733
 20
256.320497
 30
0.0
 11
187.686051
 21
256.365677
 31
0.0
  0
LINE
  8
0
 10
188.001142
 20
256.46721
 30
0.0
 11
187.803733
 21
256.320497
 31
0.0
  0
LINE
  8
0
 10
187.88346
 20
256.51239
 30
0.0
 11
188.001142
 21
256.46721
 31
0.0
  0
LINE
  8
0
 10
188.098816
 20
256.67244
 30
0.0
 11
187.88346
 21
256.51239
 31
0.0
  0
LINE
  8
0
 10
187.88346
 20
256.51239
 30
0.0
 11
187.88346
 21
256.405705
 31
0.0
  0
LINE
  8
0
 10
188.216498
 20
256.627261
 30
0.0
 11
188.098816
 21
256.67244
 31
0.0
  0
LINE
  8
0
 10
188.501921
 20
256.608706
 30
0.0
 11
188.294751
 21
256.685417
 31
0.0
  0
LINE
  8
0
 10
188.294751
 20
256.685417
 30
0.0
 11
188.294751
 21
258.300698
 31
0.0
  0
LINE
  8
0
 10
188.294751
 20
256.685417
 30
0.0
 11
188.216498
 21
256.627261
 31
0.0
  0
LINE
  8
0
 10
189.534521
 20
257.739443
 30
0.0
 11
189.534521
 21
257.632758
 31
0.0
  0
LINE
  8
0
 10
188.629263
 20
256.934024
 30
0.0
 11
188.537795
 21
256.96914
 31
0.0
  0
LINE
  8
0
 10
188.826673
 20
257.080737
 30
0.0
 11
188.629263
 21
256.934024
 31
0.0
  0
LINE
  8
0
 10
188.708991
 20
257.125916
 30
0.0
 11
188.826673
 21
257.080737
 31
0.0
  0
LINE
  8
0
 10
189.042029
 20
257.240787
 30
0.0
 11
188.924347
 21
257.285967
 31
0.0
  0
LINE
  8
0
 10
189.239438
 20
257.3875
 30
0.0
 11
189.042029
 21
257.240787
 31
0.0
  0
LINE
  8
0
 10
189.454794
 20
257.547551
 30
0.0
 11
189.337112
 21
257.59273
 31
0.0
  0
LINE
  8
0
 10
189.652203
 20
257.694263
 30
0.0
 11
189.454794
 21
257.547551
 31
0.0
  0
LINE
  8
0
 10
189.534521
 20
257.739443
 30
0.0
 11
189.652203
 21
257.694263
 31
0.0
  0
LINE
  8
0
 10
189.749877
 20
257.899493
 30
0.0
 11
189.534521
 21
257.739443
 31
0.0
  0
LINE
  8
0
 10
189.867559
 20
257.854314
 30
0.0
 11
189.749877
 21
257.899493
 31
0.0
  0
LINE
  8
0
 10
189.945812
 20
257.91247
 30
0.0
 11
189.867559
 21
257.854314
 31
0.0
  0
LINE
  8
0
 10
189.945812
 20
257.91247
 30
0.0
 11
189.945812
 21
259.527751
 31
0.0
  0
LINE
  8
0
 10
190.152982
 20
257.83576
 30
0.0
 11
189.945812
 21
257.91247
 31
0.0
  0
LINE
  8
0
 10
189.337112
 20
257.59273
 30
0.0
 11
189.121756
 21
257.43268
 31
0.0
  0
LINE
  8
0
 10
189.121756
 20
257.43268
 30
0.0
 11
189.239438
 21
257.3875
 31
0.0
  0
LINE
  8
0
 10
189.121756
 20
257.43268
 30
0.0
 11
189.121756
 21
257.325995
 31
0.0
  0
LINE
  8
0
 10
188.924347
 20
257.285967
 30
0.0
 11
188.708991
 21
257.125916
 31
0.0
  0
LINE
  8
0
 10
188.708991
 20
257.125916
 30
0.0
 11
188.708991
 21
257.019232
 31
0.0
  0
LINE
  8
0
 10
186.886753
 20
255.408328
 30
0.0
 11
186.886753
 21
257.254313
 31
0.0
  0
LINE
  8
0
 10
186.886753
 20
255.408328
 30
0.0
 11
188.501921
 21
256.608706
 31
0.0
  0
LINE
  8
0
 10
188.501921
 20
256.608706
 30
0.0
 11
188.501921
 21
258.454691
 31
0.0
  0
LINE
  8
0
 10
186.85086
 20
255.381653
 30
0.0
 11
186.85086
 21
257.227638
 31
0.0
  0
LINE
  8
0
 10
185.235692
 20
254.181275
 30
0.0
 11
185.235692
 21
256.02726
 31
0.0
  0
LINE
  8
0
 10
191.816226
 20
259.071867
 30
0.0
 11
190.188875
 21
257.862435
 31
0.0
  0
LINE
  8
0
 10
191.816226
 20
258.98443
 30
0.0
 11
191.816226
 21
259.071867
 31
0.0
  0
LINE
  8
0
 10
191.816226
 20
258.98443
 30
0.0
 11
184.037382
 21
253.203266
 31
0.0
  0
LINE
  8
0
 10
185.199799
 20
254.1546
 30
0.0
 11
185.199799
 21
256.000585
 31
0.0
  0
LINE
  8
0
 10
190.152982
 20
257.83576
 30
0.0
 11
188.537814
 21
256.635381
 31
0.0
  0
LINE
  8
0
 10
190.152982
 20
257.83576
 30
0.0
 11
190.152982
 21
259.681744
 31
0.0
  0
LINE
  8
0
 10
188.537814
 20
256.635381
 30
0.0
 11
188.537814
 21
258.481366
 31
0.0
  0
LINE
  8
0
 10
190.188875
 20
257.862435
 30
0.0
 11
190.188875
 21
259.708419
 31
0.0
  0
LINE
  8
0
 10
185.819634
 20
254.871889
 30
0.0
 11
185.819634
 21
254.978573
 31
0.0
  0
LINE
  8
0
 10
186.64369
 20
255.458364
 30
0.0
 11
186.85086
 21
255.381653
 31
0.0
  0
LINE
  8
0
 10
185.235692
 20
254.181275
 30
0.0
 11
186.85086
 21
255.381653
 31
0.0
  0
LINE
  8
0
 10
185.235673
 20
254.515034
 30
0.0
 11
185.327141
 21
254.479918
 31
0.0
  0
LINE
  8
0
 10
185.327141
 20
254.479918
 30
0.0
 11
185.524551
 21
254.626631
 31
0.0
  0
LINE
  8
0
 10
185.524551
 20
254.626631
 30
0.0
 11
185.406869
 21
254.67181
 31
0.0
  0
LINE
  8
0
 10
185.406869
 20
254.67181
 30
0.0
 11
185.622225
 21
254.831861
 31
0.0
  0
LINE
  8
0
 10
185.622225
 20
254.831861
 30
0.0
 11
185.739907
 21
254.786681
 31
0.0
  0
LINE
  8
0
 10
185.739907
 20
254.786681
 30
0.0
 11
185.937316
 21
254.933394
 31
0.0
  0
LINE
  8
0
 10
185.937316
 20
254.933394
 30
0.0
 11
185.819634
 21
254.978573
 31
0.0
  0
LINE
  8
0
 10
185.819634
 20
254.978573
 30
0.0
 11
186.03499
 21
255.138624
 31
0.0
  0
LINE
  8
0
 10
186.03499
 20
255.138624
 30
0.0
 11
186.152672
 21
255.093444
 31
0.0
  0
LINE
  8
0
 10
186.152672
 20
255.093444
 30
0.0
 11
186.350081
 21
255.240157
 31
0.0
  0
LINE
  8
0
 10
186.350081
 20
255.240157
 30
0.0
 11
186.232399
 21
255.285337
 31
0.0
  0
LINE
  8
0
 10
186.232399
 20
255.285337
 30
0.0
 11
186.447755
 21
255.445387
 31
0.0
  0
LINE
  8
0
 10
186.447755
 20
255.445387
 30
0.0
 11
186.565437
 21
255.400208
 31
0.0
  0
LINE
  8
0
 10
186.565437
 20
255.400208
 30
0.0
 11
186.64369
 21
255.458364
 31
0.0
  0
LINE
  8
0
 10
184.581338
 20
253.951599
 30
0.0
 11
184.581338
 21
254.058284
 31
0.0
  0
LINE
  8
0
 10
184.383929
 20
253.911571
 30
0.0
 11
184.501611
 21
253.866391
 31
0.0
  0
LINE
  8
0
 10
184.501611
 20
253.866391
 30
0.0
 11
184.69902
 21
254.013104
 31
0.0
  0
LINE
  8
0
 10
184.69902
 20
254.013104
 30
0.0
 11
184.581338
 21
254.058284
 31
0.0
  0
LINE
  8
0
 10
184.581338
 20
254.058284
 30
0.0
 11
184.796694
 21
254.218334
 31
0.0
  0
LINE
  8
0
 10
184.796694
 20
254.218334
 30
0.0
 11
184.914376
 21
254.173154
 31
0.0
  0
LINE
  8
0
 10
184.914376
 20
254.173154
 30
0.0
 11
184.992628
 21
254.231311
 31
0.0
  0
LINE
  8
0
 10
184.992628
 20
254.231311
 30
0.0
 11
185.199799
 21
254.1546
 31
0.0
  0
LINE
  8
0
 10
184.037382
 20
253.290703
 30
0.0
 11
185.199799
 21
254.1546
 31
0.0
  0
LINE
  8
0
 10
184.168573
 20
253.75152
 30
0.0
 11
184.383929
 21
253.911571
 31
0.0
  0
LINE
  8
0
 10
184.168573
 20
253.644836
 30
0.0
 11
184.168573
 21
253.75152
 31
0.0
  0
LINE
  8
0
 10
184.286255
 20
253.706341
 30
0.0
 11
184.168573
 21
253.75152
 31
0.0
  0
LINE
  8
0
 10
184.088846
 20
253.559628
 30
0.0
 11
184.286255
 21
253.706341
 31
0.0
  0
LINE
  8
0
 10
184.037366
 20
253.579392
 30
0.0
 11
184.088846
 21
253.559628
 31
0.0
  0
LINE
  8
0
 10
183.307417
 20
252.695053
 30
0.0
 11
183.287562
 21
252.747991
 31
0.0
  0
LINE
  8
0
 10
183.307417
 20
252.386247
 30
0.0
 11
183.287562
 21
252.451316
 31
0.0
  0
LINE
  8
0
 10
187.18759
 20
259.131086
 30
0.0
 11
187.754335
 21
259.552286
 31
0.0
  0
LINE
  8
0
 10
187.819503
 20
259.532632
 30
0.0
 11
187.754335
 21
259.552286
 31
0.0
  0
LINE
  8
0
 10
187.245221
 20
259.10583
 30
0.0
 11
187.819503
 21
259.532632
 31
0.0
  0
LINE
  8
0
 10
187.819503
 20
259.451952
 30
0.0
 11
187.819503
 21
259.532632
 31
0.0
  0
LINE
  8
0
 10
183.287562
 20
252.747991
 30
0.0
 11
183.364959
 21
252.805512
 31
0.0
  0
LINE
  8
0
 10
183.287562
 20
252.451316
 30
0.0
 11
183.287562
 21
252.747991
 31
0.0
  0
LINE
  8
0
 10
191.489932
 20
260.675312
 30
0.0
 11
191.489932
 21
259.192686
 31
0.0
  0
LINE
  8
0
 10
191.489932
 20
259.192686
 30
0.0
 11
191.185583
 21
258.966496
 31
0.0
  0
LINE
  8
0
 10
191.185583
 20
258.966496
 30
0.0
 11
191.185583
 21
258.859812
 31
0.0
  0
LINE
  8
0
 10
183.368816
 20
252.358193
 30
0.0
 11
183.307417
 21
252.386247
 31
0.0
  0
LINE
  8
0
 10
183.307417
 20
252.386247
 30
0.0
 11
183.307417
 21
252.695053
 31
0.0
  0
LINE
  8
0
 10
183.368816
 20
252.678198
 30
0.0
 11
183.307417
 21
252.695053
 31
0.0
  0
LINE
  8
0
 10
187.080969
 20
255.783334
 30
0.0
 11
187.05793
 21
255.792179
 31
0.0
  0
LINE
  8
0
 10
186.255438
 20
255.169807
 30
0.0
 11
186.232399
 21
255.178652
 31
0.0
  0
LINE
  8
0
 10
185.842673
 20
254.863044
 30
0.0
 11
185.819634
 21
254.871889
 31
0.0
  0
LINE
  8
0
 10
185.429908
 20
254.556281
 30
0.0
 11
185.406869
 21
254.565125
 31
0.0
  0
LINE
  8
0
 10
184.604377
 20
253.942754
 30
0.0
 11
184.581338
 21
253.951599
 31
0.0
  0
LINE
  8
0
 10
184.191612
 20
253.635991
 30
0.0
 11
184.168573
 21
253.644836
 31
0.0
  0
LINE
  8
0
 10
191.185583
 20
258.859812
 30
0.0
 11
191.208621
 21
258.850967
 31
0.0
  0
LINE
  8
0
 10
190.772817
 20
258.553048
 30
0.0
 11
190.795856
 21
258.544203
 31
0.0
  0
LINE
  8
0
 10
190.360052
 20
258.246285
 30
0.0
 11
190.383091
 21
258.23744
 31
0.0
  0
LINE
  8
0
 10
189.534521
 20
257.632758
 30
0.0
 11
189.55756
 21
257.623913
 31
0.0
  0
LINE
  8
0
 10
189.121756
 20
257.325995
 30
0.0
 11
189.144795
 21
257.31715
 31
0.0
  0
LINE
  8
0
 10
188.708991
 20
257.019232
 30
0.0
 11
188.73203
 21
257.010387
 31
0.0
  0
LINE
  8
0
 10
187.88346
 20
256.405705
 30
0.0
 11
187.906499
 21
256.39686
 31
0.0
  0
LINE
  8
0
 10
187.470695
 20
256.098942
 30
0.0
 11
187.493734
 21
256.090097
 31
0.0
  0
LINE
  8
0
 10
187.998966
 20
259.585327
 30
0.0
 11
187.998966
 21
259.666007
 31
0.0
  0
LINE
  8
0
 10
188.573248
 20
260.092808
 30
0.0
 11
187.998966
 21
259.666007
 31
0.0
  0
LINE
  8
0
 10
184.616085
 20
257.071202
 30
0.0
 11
185.100636
 21
257.431315
 31
0.0
  0
LINE
  8
0
 10
187.245221
 20
259.02515
 30
0.0
 11
185.100636
 21
257.431315
 31
0.0
  0
LINE
  8
0
 10
187.245221
 20
259.02515
 30
0.0
 11
187.819503
 21
259.451952
 31
0.0
  0
LINE
  8
0
 10
188.573248
 20
260.012128
 30
0.0
 11
187.998966
 21
259.585327
 31
0.0
  0
LINE
  8
0
 10
188.573248
 20
260.012128
 30
0.0
 11
190.717833
 21
261.605963
 31
0.0
  0
LINE
  8
0
 10
191.202383
 20
261.966077
 30
0.0
 11
190.717833
 21
261.605963
 31
0.0
  0
LINE
  8
0
 10
191.202383
 20
261.966077
 30
0.0
 11
192.395357
 21
262.852683
 31
0.0
  0
LINE
  8
0
 10
192.598397
 20
262.771897
 30
0.0
 11
192.395357
 21
262.852683
 31
0.0
  0
LINE
  8
0
 10
192.598397
 20
262.771897
 30
0.0
 11
183.631186
 21
256.10755
 31
0.0
  0
LINE
  8
0
 10
192.612783
 20
262.673514
 30
0.0
 11
183.717347
 21
256.062509
 31
0.0
  0
LINE
  8
0
 10
183.368816
 20
252.358193
 30
0.0
 11
183.423112
 21
252.398545
 31
0.0
  0
LINE
  8
0
 10
183.368816
 20
252.358193
 30
0.0
 11
183.368816
 21
252.678198
 31
0.0
  0
LINE
  8
0
 10
183.368816
 20
252.678198
 30
0.0
 11
183.423112
 21
252.71855
 31
0.0
  0
LINE
  8
0
 10
183.631186
 20
251.209639
 30
0.0
 11
183.631186
 21
256.10755
 31
0.0
  0
LINE
  8
0
 10
183.631186
 20
251.209639
 30
0.0
 11
183.423112
 21
251.279205
 31
0.0
  0
LINE
  8
0
 10
183.423112
 20
251.279205
 30
0.0
 11
183.423112
 21
252.398545
 31
0.0
  0
LINE
  8
0
 10
183.423112
 20
252.71855
 30
0.0
 11
183.423112
 21
252.398545
 31
0.0
  0
LINE
  8
0
 10
183.631186
 20
256.10755
 30
0.0
 11
183.423112
 21
256.184595
 31
0.0
  0
LINE
  8
0
 10
183.423112
 20
252.71855
 30
0.0
 11
183.423112
 21
254.74525
 31
0.0
  0
LINE
  8
0
 10
184.616085
 20
257.151882
 30
0.0
 11
185.100636
 21
257.511995
 31
0.0
  0
LINE
  8
0
 10
185.035468
 20
257.531649
 30
0.0
 11
184.558454
 21
257.177137
 31
0.0
  0
LINE
  8
0
 10
184.558454
 20
257.177137
 30
0.0
 11
184.496021
 21
257.135162
 31
0.0
  0
LINE
  8
0
 10
184.616085
 20
257.151882
 30
0.0
 11
184.558454
 21
257.177137
 31
0.0
  0
LINE
  8
0
 10
184.616085
 20
257.071202
 30
0.0
 11
184.616085
 21
257.151882
 31
0.0
  0
LINE
  8
0
 10
184.496021
 20
257.135162
 30
0.0
 11
184.496021
 21
257.020155
 31
0.0
  0
LINE
  8
0
 10
184.96487
 20
257.483607
 30
0.0
 11
184.496021
 21
257.135162
 31
0.0
  0
LINE
  8
0
 10
185.100636
 20
257.431315
 30
0.0
 11
185.100636
 21
257.511995
 31
0.0
  0
LINE
  8
0
 10
185.100636
 20
257.511995
 30
0.0
 11
185.035468
 21
257.531649
 31
0.0
  0
LINE
  8
0
 10
185.035468
 20
257.531649
 30
0.0
 11
184.96487
 21
257.483607
 31
0.0
  0
LINE
  8
0
 10
183.423112
 20
256.184595
 30
0.0
 11
183.423112
 21
255.065255
 31
0.0
  0
LINE
  8
0
 10
184.616085
 20
257.071202
 30
0.0
 11
183.423112
 21
256.184595
 31
0.0
  0
LINE
  8
0
 10
183.368816
 20
254.704898
 30
0.0
 11
183.423112
 21
254.74525
 31
0.0
  0
LINE
  8
0
 10
183.368816
 20
255.024903
 30
0.0
 11
183.423112
 21
255.065255
 31
0.0
  0
LINE
  8
0
 10
183.423112
 20
254.74525
 30
0.0
 11
183.423112
 21
255.065255
 31
0.0
  0
LINE
  8
0
 10
183.307417
 20
255.041759
 30
0.0
 11
183.287562
 21
255.094696
 31
0.0
  0
LINE
  8
0
 10
183.307417
 20
254.732952
 30
0.0
 11
183.287562
 21
254.798022
 31
0.0
  0
LINE
  8
0
 10
183.287562
 20
255.094696
 30
0.0
 11
183.364959
 21
255.152217
 31
0.0
  0
LINE
  8
0
 10
183.287562
 20
255.094696
 30
0.0
 11
183.287562
 21
254.798022
 31
0.0
  0
LINE
  8
0
 10
183.368816
 20
254.704898
 30
0.0
 11
183.307417
 21
254.732952
 31
0.0
  0
LINE
  8
0
 10
183.307417
 20
255.041759
 30
0.0
 11
183.307417
 21
254.732952
 31
0.0
  0
LINE
  8
0
 10
183.368816
 20
255.024903
 30
0.0
 11
183.307417
 21
255.041759
 31
0.0
  0
LINE
  8
0
 10
183.368816
 20
255.024903
 30
0.0
 11
183.368816
 21
254.704898
 31
0.0
  0
LINE
  8
0
 10
187.819503
 20
259.451952
 30
0.0
 11
187.998966
 21
259.585327
 31
0.0
  0
LINE
  8
0
 10
188.437482
 20
260.06442
 30
0.0
 11
187.878901
 21
259.649288
 31
0.0
  0
LINE
  8
0
 10
188.508081
 20
260.112462
 30
0.0
 11
187.941335
 21
259.691262
 31
0.0
  0
LINE
  8
0
 10
187.941335
 20
259.691262
 30
0.0
 11
187.878901
 21
259.649288
 31
0.0
  0
LINE
  8
0
 10
188.573248
 20
260.012128
 30
0.0
 11
188.573248
 21
260.092808
 31
0.0
  0
LINE
  8
0
 10
188.573248
 20
260.092808
 30
0.0
 11
188.508081
 21
260.112462
 31
0.0
  0
LINE
  8
0
 10
188.508081
 20
260.112462
 30
0.0
 11
188.437482
 21
260.06442
 31
0.0
  0
LINE
  8
0
 10
187.125156
 20
259.089111
 30
0.0
 11
187.683737
 21
259.504244
 31
0.0
  0
LINE
  8
0
 10
187.18759
 20
259.131086
 30
0.0
 11
187.125156
 21
259.089111
 31
0.0
  0
LINE
  8
0
 10
187.245221
 20
259.10583
 30
0.0
 11
187.18759
 21
259.131086
 31
0.0
  0
LINE
  8
0
 10
187.245221
 20
259.02515
 30
0.0
 11
187.245221
 21
259.10583
 31
0.0
  0
LINE
  8
0
 10
187.125156
 20
259.089111
 30
0.0
 11
187.125156
 21
258.974103
 31
0.0
  0
LINE
  8
0
 10
192.612783
 20
257.882256
 30
0.0
 11
192.612783
 21
262.673514
 31
0.0
  0
LINE
  8
0
 10
183.423306
 20
252.811254
 30
0.0
 11
183.393568
 21
252.811818
 31
0.0
  0
LINE
  8
0
 10
183.393568
 20
252.811818
 30
0.0
 11
183.364959
 21
252.805512
 31
0.0
  0
LINE
  8
0
 10
183.717347
 20
251.271251
 30
0.0
 11
183.677517
 21
251.220537
 31
0.0
  0
LINE
  8
0
 10
183.677517
 20
251.220537
 30
0.0
 11
183.631186
 21
251.209639
 31
0.0
  0
LINE
  8
0
 10
183.423306
 20
255.157959
 30
0.0
 11
183.393568
 21
255.158523
 31
0.0
  0
LINE
  8
0
 10
183.393568
 20
255.158523
 30
0.0
 11
183.364959
 21
255.152217
 31
0.0
  0
LINE
  8
0
 10
183.717347
 20
256.062509
 30
0.0
 11
183.677517
 21
256.08656
 31
0.0
  0
LINE
  8
0
 10
183.677517
 20
256.08656
 30
0.0
 11
183.631186
 21
256.10755
 31
0.0
  0
LINE
  8
0
 10
184.510422
 20
256.992623
 30
0.0
 11
184.502012
 21
257.005907
 31
0.0
  0
LINE
  8
0
 10
184.502012
 20
257.005907
 30
0.0
 11
184.496021
 21
257.020155
 31
0.0
  0
LINE
  8
0
 10
187.139557
 20
258.946572
 30
0.0
 11
187.131147
 21
258.959855
 31
0.0
  0
LINE
  8
0
 10
187.131147
 20
258.959855
 30
0.0
 11
187.125156
 21
258.974103
 31
0.0
  0
LINE
  8
0
 10
187.893302
 20
259.506748
 30
0.0
 11
187.884893
 21
259.520032
 31
0.0
  0
LINE
  8
0
 10
187.884893
 20
259.520032
 30
0.0
 11
187.878901
 21
259.53428
 31
0.0
  0
LINE
  8
0
 10
190.612169
 20
261.527385
 30
0.0
 11
190.60376
 21
261.540668
 31
0.0
  0
LINE
  8
0
 10
190.60376
 20
261.540668
 30
0.0
 11
190.597768
 21
261.554916
 31
0.0
  0
LINE
  8
0
 10
192.612783
 20
257.882256
 30
0.0
 11
192.622406
 21
257.873752
 31
0.0
  0
LINE
  8
0
 10
192.622406
 20
257.873752
 30
0.0
 11
192.623481
 21
257.869075
 31
0.0
  0
LINE
  8
0
 10
192.612783
 20
262.673514
 30
0.0
 11
192.623269
 21
262.734959
 31
0.0
  0
LINE
  8
0
 10
192.623269
 20
262.734959
 30
0.0
 11
192.598397
 21
262.771897
 31
0.0
  0
ENDSEC
  0
EOF
