  0
SECTION
  2
HEADER
  9
$ACADVER
  1
AC1009
  9
$INSBASE
 10
0.0
 20
0.0
 30
0.0
  9
$EXTMIN
 10
158.972006
 20
250.702999
 30
0.0
  9
$EXTMAX
 10
168.308561
 20
262.346043
 30
0.0
  9
$LIMMIN
 10
158.972006
 20
250.702999
  9
$LIMMAX
 10
168.308561
 20
262.346043
  9
$ORTHOMODE
 70
     0
  9
$REGENMODE
 70
     1
  9
$FILLMODE
 70
     1
  9
$QTEXTMODE
 70
     0
  9
$MIRRTEXT
 70
     1
  9
$DRAGMODE
 70
     2
  9
$LTSCALE
 40
1.0
  9
$OSMODE
 70
     0
  9
$ATTMODE
 70
     1
  9
$TEXTSIZE
 40
3.5
  9
$TRACEWID
 40
0.5
  9
$TEXTSTYLE
  7
STANDARD
  9
$CLAYER
  8
0
  9
$CELTYPE
  6
BYLAYER
  9
$CECOLOR
 62
   256
  9
$DIMSCALE
 40
1.0
  9
$DIMASZ
 40
0.18
  9
$DIMEXO
 40
0.0625
  9
$DIMDLI
 40
0.38
  9
$DIMRND
 40
0.0
  9
$DIMDLE
 40
0.0
  9
$DIMEXE
 40
0.18
  9
$DIMTP
 40
0.0
  9
$DIMTM
 40
0.0
  9
$DIMTXT
 40
0.18
  9
$DIMCEN
 40
0.09
  9
$DIMTSZ
 40
0.0
  9
$DIMTOL
 70
     0
  9
$DIMLIM
 70
     0
  9
$DIMTIH
 70
     1
  9
$DIMTOH
 70
     1
  9
$DIMSE1
 70
     0
  9
$DIMSE2
 70
     0
  9
$DIMTAD
 70
     0
  9
$DIMZIN
 70
     0
  9
$DIMBLK
  1

  9
$DIMASO
 70
     1
  9
$DIMSHO
 70
     1
  9
$DIMPOST
  1

  9
$DIMAPOST
  1

  9
$DIMALT
 70
     0
  9
$DIMALTD
 70
     2
  9
$DIMALTF
 40
25.4
  9
$DIMLFAC
 40
1.0
  9
$DIMTOFL
 70
     0
  9
$DIMTVP
 40
0.0
  9
$DIMTIX
 70
     0
  9
$DIMSOXD
 70
     0
  9
$DIMSAH
 70
     0
  9
$DIMBLK1
  1

  9
$DIMBLK2
  1

  9
$DIMSTYLE
  2
*UNNAMED
  9
$DIMCLRD
 70
     0
  9
$DIMCLRE
 70
     0
  9
$DIMCLRT
 70
     0
  9
$DIMTFAC
 40
1.0
  9
$DIMGAP
 40
0.09
  9
$LUNITS
 70
     2
  9
$LUPREC
 70
     4
  9
$SKETCHINC
 40
0.1
  9
$FILLETRAD
 40
2.0
  9
$AUNITS
 70
     0
  9
$AUPREC
 70
     0
  9
$MENU
  1
ACAD
  9
$ELEVATION
 40
0.0
  9
$PELEVATION
 40
0.0
  9
$THICKNESS
 40
0.0
  9
$LIMCHECK
 70
     0
  9
$BLIPMODE
 70
     1
  9
$CHAMFERA
 40
0.0
  9
$CHAMFERB
 40
0.0
  9
$SKPOLY
 70
     0
  9
$TDCREATE
 40
2450948.660941782
  9
$TDUPDATE
 40
2450948.661114120
  9
$TDINDWG
 40
0.0000947917
  9
$TDUSRTIMER
 40
0.0000947917
  9
$USRTIMER
 70
     1
  9
$ANGBASE
 50
0.0
  9
$ANGDIR
 70
     0
  9
$PDMODE
 70
     0
  9
$PDSIZE
 40
0.0
  9
$PLINEWID
 40
0.0
  9
$COORDS
 70
     2
  9
$SPLFRAME
 70
     0
  9
$SPLINETYPE
 70
     6
  9
$SPLINESEGS
 70
     8
  9
$ATTDIA
 70
     0
  9
$ATTREQ
 70
     1
  9
$HANDLING
 70
     0
  9
$HANDSEED
  5
0
  9
$SURFTAB1
 70
     6
  9
$SURFTAB2
 70
     6
  9
$SURFTYPE
 70
     6
  9
$SURFU
 70
     6
  9
$SURFV
 70
     6
  9
$UCSNAME
  2

  9
$UCSORG
 10
0.0
 20
0.0
 30
0.0
  9
$UCSXDIR
 10
1.0
 20
0.0
 30
0.0
  9
$UCSYDIR
 10
0.0
 20
1.0
 30
0.0
  9
$PUCSNAME
  2

  9
$PUCSORG
 10
0.0
 20
0.0
 30
0.0
  9
$PUCSXDIR
 10
1.0
 20
0.0
 30
0.0
  9
$PUCSYDIR
 10
0.0
 20
1.0
 30
0.0
  9
$USERI1
 70
     0
  9
$USERI2
 70
     0
  9
$USERI3
 70
     0
  9
$USERI4
 70
     0
  9
$USERI5
 70
     0
  9
$USERR1
 40
0.0
  9
$USERR2
 40
0.0
  9
$USERR3
 40
0.0
  9
$USERR4
 40
0.0
  9
$USERR5
 40
0.0
  9
$WORLDVIEW
 70
     1
  9
$SHADEDGE
 70
     3
  9
$SHADEDIF
 70
    70
  9
$TILEMODE
 70
     1
  9
$MAXACTVP
 70
    16
  9
$PINSBASE
 10
0.0
 20
0.0
 30
0.0
  9
$PLIMCHECK
 70
     0
  9
$PEXTMIN
 10
1.000000E+20
 20
1.000000E+20
 30
1.000000E+20
  9
$PEXTMAX
 10
-1.000000E+20
 20
-1.000000E+20
 30
-1.000000E+20
  9
$PLIMMIN
 10
0.0
 20
0.0
  9
$PLIMMAX
 10
420.0
 20
297.0
  9
$UNITMODE
 70
     0
  9
$VISRETAIN
 70
     0
  9
$PLINEGEN
 70
     0
  9
$PSLTSCALE
 70
     1
  9
$TREEDEPTH
 70
  3020
  9
$DWGCODEPAGE
  3
iso8859-1
  0
ENDSEC
  0
SECTION
  2
TABLES
  0
TABLE
  2
VPORT
 70
     2
  0
VPORT
  2
*ACTIVE
 70
     0
 10
0.0
 20
0.0
 11
1.0
 21
1.0
 12
167.613222
 22
257.151503
 13
0.0
 23
0.0
 14
1.0
 24
1.0
 15
0.0
 25
0.0
 16
0.0
 26
0.0
 36
1.0
 17
0.0
 27
0.0
 37
0.0
 40
16.683902
 41
1.748359
 42
50.0
 43
0.0
 44
0.0
 50
0.0
 51
0.0
 71
     0
 72
   100
 73
     1
 74
     0
 75
     0
 76
     0
 77
     0
 78
     0
  0
ENDTAB
  0
TABLE
  2
LTYPE
 70
     1
  0
LTYPE
  2
CONTINUOUS
 70
    64
  3
Solid line
 72
    65
 73
     0
 40
0.0
  0
ENDTAB
  0
TABLE
  2
LAYER
 70
     1
  0
LAYER
  2
0
 70
    64
 62
     7
  6
CONTINUOUS
  0
ENDTAB
  0
TABLE
  2
STYLE
 70
     1
  0
STYLE
  2
STANDARD
 70
     0
 40
0.0
 41
1.0
 50
0.0
 71
     0
 42
3.5
  3
txt
  4

  0
ENDTAB
  0
TABLE
  2
VIEW
 70
     0
  0
ENDTAB
  0
TABLE
  2
UCS
 70
     0
  0
ENDTAB
  0
TABLE
  2
APPID
 70
     1
  0
APPID
  2
ACAD
 70
    64
  0
ENDTAB
  0
TABLE
  2
DIMSTYLE
 70
     0
  0
ENDTAB
  0
ENDSEC
  0
SECTION
  2
BLOCKS
  0
ENDSEC
  0
SECTION
  2
ENTITIES
  0
LINE
  8
0
 10
168.308561
 20
257.363699
 30
0.0
 11
168.308561
 21
262.216215
 31
0.0
  0
LINE
  8
0
 10
159.363323
 20
250.714889
 30
0.0
 11
168.307925
 21
257.362434
 31
0.0
  0
LINE
  8
0
 10
160.616817
 20
253.735044
 30
0.0
 11
160.652309
 21
253.721419
 31
0.0
  0
LINE
  8
0
 10
160.606763
 20
253.749387
 30
0.0
 11
160.606763
 21
253.802915
 31
0.0
  0
LINE
  8
0
 10
161.029582
 20
254.041808
 30
0.0
 11
161.065074
 21
254.028182
 31
0.0
  0
LINE
  8
0
 10
161.019528
 20
254.05615
 30
0.0
 11
161.019528
 21
254.109678
 31
0.0
  0
LINE
  8
0
 10
160.471981
 20
253.346248
 30
0.0
 11
161.638222
 21
254.212987
 31
0.0
  0
LINE
  8
0
 10
162.123075
 20
253.950652
 30
0.0
 11
161.631045
 21
254.13284
 31
0.0
  0
LINE
  8
0
 10
160.471981
 20
253.271434
 30
0.0
 11
161.631045
 21
254.13284
 31
0.0
  0
LINE
  8
0
 10
162.130252
 20
253.966651
 30
0.0
 11
161.638222
 21
254.148839
 31
0.0
  0
LINE
  8
0
 10
161.638222
 20
254.148839
 30
0.0
 11
161.638222
 21
254.212987
 31
0.0
  0
LINE
  8
0
 10
161.327467
 20
254.338536
 30
0.0
 11
161.327467
 21
255.823303
 31
0.0
  0
LINE
  8
0
 10
162.130252
 20
256.409361
 30
0.0
 11
162.120355
 21
256.41267
 31
0.0
  0
LINE
  8
0
 10
160.471981
 20
253.368062
 30
0.0
 11
161.628045
 21
254.227238
 31
0.0
  0
LINE
  8
0
 10
160.606763
 20
253.802915
 30
0.0
 11
160.709095
 21
253.763629
 31
0.0
  0
LINE
  8
0
 10
160.606763
 20
253.802915
 30
0.0
 11
160.822118
 21
253.962966
 31
0.0
  0
LINE
  8
0
 10
160.924451
 20
253.923679
 30
0.0
 11
160.822118
 21
253.962966
 31
0.0
  0
LINE
  8
0
 10
161.12186
 20
254.070392
 30
0.0
 11
160.924451
 21
253.923679
 31
0.0
  0
LINE
  8
0
 10
161.019528
 20
254.109678
 30
0.0
 11
161.12186
 21
254.070392
 31
0.0
  0
LINE
  8
0
 10
161.019528
 20
254.109678
 30
0.0
 11
161.327467
 21
254.338536
 31
0.0
  0
LINE
  8
0
 10
161.628045
 20
254.227238
 30
0.0
 11
161.327467
 21
254.338536
 31
0.0
  0
LINE
  8
0
 10
160.471966
 20
253.632165
 30
0.0
 11
160.511685
 21
253.616916
 31
0.0
  0
LINE
  8
0
 10
160.709095
 20
253.763629
 30
0.0
 11
160.511685
 21
253.616916
 31
0.0
  0
LINE
  8
0
 10
162.130252
 20
253.966651
 30
0.0
 11
162.130252
 21
256.409361
 31
0.0
  0
LINE
  8
0
 10
162.123075
 20
256.414692
 30
0.0
 11
160.47919
 21
255.192972
 31
0.0
  0
LINE
  8
0
 10
160.472012
 20
252.734263
 30
0.0
 11
160.472012
 21
255.176973
 31
0.0
  0
LINE
  8
0
 10
162.123075
 20
253.950652
 30
0.0
 11
160.47919
 21
252.728932
 31
0.0
  0
LINE
  8
0
 10
163.155139
 20
255.643317
 30
0.0
 11
163.155139
 21
255.696845
 31
0.0
  0
LINE
  8
0
 10
163.567905
 20
255.95008
 30
0.0
 11
163.567905
 21
256.003608
 31
0.0
  0
LINE
  8
0
 10
163.020358
 20
255.240178
 30
0.0
 11
164.186599
 21
256.106917
 31
0.0
  0
LINE
  8
0
 10
164.671451
 20
255.844582
 30
0.0
 11
164.179422
 21
256.02677
 31
0.0
  0
LINE
  8
0
 10
164.671451
 20
255.844582
 30
0.0
 11
163.027567
 21
254.622862
 31
0.0
  0
LINE
  8
0
 10
163.027567
 20
254.622862
 30
0.0
 11
163.02065
 21
254.625614
 31
0.0
  0
LINE
  8
0
 10
163.020358
 20
255.165364
 30
0.0
 11
164.179422
 21
256.02677
 31
0.0
  0
LINE
  8
0
 10
164.678629
 20
255.860581
 30
0.0
 11
164.678629
 21
258.303291
 31
0.0
  0
LINE
  8
0
 10
164.678629
 20
255.860581
 30
0.0
 11
164.186599
 21
256.042769
 31
0.0
  0
LINE
  8
0
 10
164.186599
 20
256.042769
 30
0.0
 11
164.186599
 21
256.106917
 31
0.0
  0
LINE
  8
0
 10
163.875844
 20
256.232466
 30
0.0
 11
163.875844
 21
257.717233
 31
0.0
  0
LINE
  8
0
 10
164.678629
 20
258.303291
 30
0.0
 11
164.668732
 21
258.3066
 31
0.0
  0
LINE
  8
0
 10
163.020357
 20
255.261992
 30
0.0
 11
164.176421
 21
256.121168
 31
0.0
  0
LINE
  8
0
 10
163.155139
 20
255.696845
 30
0.0
 11
163.257472
 21
255.657558
 31
0.0
  0
LINE
  8
0
 10
163.155139
 20
255.696845
 30
0.0
 11
163.370495
 21
255.856895
 31
0.0
  0
LINE
  8
0
 10
163.472827
 20
255.817609
 30
0.0
 11
163.370495
 21
255.856895
 31
0.0
  0
LINE
  8
0
 10
163.670237
 20
255.964322
 30
0.0
 11
163.472827
 21
255.817609
 31
0.0
  0
LINE
  8
0
 10
163.567905
 20
256.003608
 30
0.0
 11
163.670237
 21
255.964322
 31
0.0
  0
LINE
  8
0
 10
163.567905
 20
256.003608
 30
0.0
 11
163.875844
 21
256.232466
 31
0.0
  0
LINE
  8
0
 10
164.176421
 20
256.121168
 30
0.0
 11
163.875844
 21
256.232466
 31
0.0
  0
LINE
  8
0
 10
163.020342
 20
255.526094
 30
0.0
 11
163.060062
 21
255.510846
 31
0.0
  0
LINE
  8
0
 10
163.257472
 20
255.657558
 30
0.0
 11
163.060062
 21
255.510846
 31
0.0
  0
LINE
  8
0
 10
164.671451
 20
258.308622
 30
0.0
 11
163.027567
 21
257.086902
 31
0.0
  0
LINE
  8
0
 10
163.020389
 20
254.628193
 30
0.0
 11
163.020389
 21
257.070903
 31
0.0
  0
LINE
  8
0
 10
165.713571
 20
257.522904
 30
0.0
 11
165.749063
 21
257.509278
 31
0.0
  0
LINE
  8
0
 10
165.703516
 20
257.537246
 30
0.0
 11
165.703516
 21
257.590775
 31
0.0
  0
LINE
  8
0
 10
166.126336
 20
257.829667
 30
0.0
 11
166.161828
 21
257.816042
 31
0.0
  0
LINE
  8
0
 10
166.116282
 20
257.84401
 30
0.0
 11
166.116282
 21
257.897538
 31
0.0
  0
LINE
  8
0
 10
167.227006
 20
257.754511
 30
0.0
 11
167.227006
 21
260.197221
 31
0.0
  0
LINE
  8
0
 10
167.227006
 20
257.754511
 30
0.0
 11
166.734976
 21
257.936699
 31
0.0
  0
LINE
  8
0
 10
166.42422
 20
258.126396
 30
0.0
 11
166.42422
 21
259.611163
 31
0.0
  0
LINE
  8
0
 10
167.227006
 20
260.197221
 30
0.0
 11
167.217109
 21
260.20053
 31
0.0
  0
LINE
  8
0
 10
167.219828
 20
260.202552
 30
0.0
 11
165.575944
 21
258.980832
 31
0.0
  0
LINE
  8
0
 10
165.568766
 20
256.522123
 30
0.0
 11
165.568766
 21
258.964833
 31
0.0
  0
LINE
  8
0
 10
165.568735
 20
257.134108
 30
0.0
 11
166.734976
 21
258.000847
 31
0.0
  0
LINE
  8
0
 10
166.734976
 20
257.936699
 30
0.0
 11
166.734976
 21
258.000847
 31
0.0
  0
LINE
  8
0
 10
165.568734
 20
257.155922
 30
0.0
 11
166.724798
 21
258.015098
 31
0.0
  0
LINE
  8
0
 10
165.703516
 20
257.590775
 30
0.0
 11
165.805848
 21
257.551488
 31
0.0
  0
LINE
  8
0
 10
165.703516
 20
257.590775
 30
0.0
 11
165.918872
 21
257.750825
 31
0.0
  0
LINE
  8
0
 10
166.021204
 20
257.711539
 30
0.0
 11
165.918872
 21
257.750825
 31
0.0
  0
LINE
  8
0
 10
166.218614
 20
257.858252
 30
0.0
 11
166.021204
 21
257.711539
 31
0.0
  0
LINE
  8
0
 10
166.116282
 20
257.897538
 30
0.0
 11
166.218614
 21
257.858252
 31
0.0
  0
LINE
  8
0
 10
166.116282
 20
257.897538
 30
0.0
 11
166.42422
 21
258.126396
 31
0.0
  0
LINE
  8
0
 10
166.724798
 20
258.015098
 30
0.0
 11
166.42422
 21
258.126396
 31
0.0
  0
LINE
  8
0
 10
165.568719
 20
257.420024
 30
0.0
 11
165.608439
 21
257.404775
 31
0.0
  0
LINE
  8
0
 10
165.805848
 20
257.551488
 30
0.0
 11
165.608439
 21
257.404775
 31
0.0
  0
LINE
  8
0
 10
159.401791
 20
255.555868
 30
0.0
 11
168.297227
 21
262.166873
 31
0.0
  0
LINE
  8
0
 10
159.401791
 20
250.76461
 30
0.0
 11
159.401791
 21
255.555868
 31
0.0
  0
LINE
  8
0
 10
168.297227
 20
262.166873
 30
0.0
 11
168.297227
 21
257.375616
 31
0.0
  0
LINE
  8
0
 10
159.049403
 20
254.645577
 30
0.0
 11
158.972006
 21
254.588056
 31
0.0
  0
LINE
  8
0
 10
158.972006
 20
254.588056
 30
0.0
 11
158.972006
 21
254.303227
 31
0.0
  0
LINE
  8
0
 10
158.972006
 20
254.588056
 30
0.0
 11
158.991861
 21
254.535118
 31
0.0
  0
LINE
  8
0
 10
158.991861
 20
254.535118
 30
0.0
 11
158.991861
 21
254.231998
 31
0.0
  0
LINE
  8
0
 10
158.991861
 20
254.535118
 30
0.0
 11
159.053261
 21
254.518263
 31
0.0
  0
LINE
  8
0
 10
162.872034
 20
258.624445
 30
0.0
 11
163.438779
 21
259.045645
 31
0.0
  0
LINE
  8
0
 10
162.8096
 20
258.582471
 30
0.0
 11
163.368181
 21
258.997603
 31
0.0
  0
LINE
  8
0
 10
162.929665
 20
258.59919
 30
0.0
 11
163.503947
 21
259.025991
 31
0.0
  0
LINE
  8
0
 10
162.8096
 20
258.467463
 30
0.0
 11
162.8096
 21
258.582471
 31
0.0
  0
LINE
  8
0
 10
162.8096
 20
258.582471
 30
0.0
 11
162.872034
 21
258.624445
 31
0.0
  0
LINE
  8
0
 10
162.872034
 20
258.624445
 30
0.0
 11
162.929665
 21
258.59919
 31
0.0
  0
LINE
  8
0
 10
162.929665
 20
258.59919
 30
0.0
 11
162.929665
 21
258.51851
 31
0.0
  0
LINE
  8
0
 10
163.503947
 20
259.025991
 30
0.0
 11
163.503947
 21
258.945311
 31
0.0
  0
LINE
  8
0
 10
163.438779
 20
259.045645
 30
0.0
 11
163.503947
 21
259.025991
 31
0.0
  0
LINE
  8
0
 10
163.368181
 20
258.997603
 30
0.0
 11
163.438779
 21
259.045645
 31
0.0
  0
LINE
  8
0
 10
164.257692
 20
259.586168
 30
0.0
 11
163.68341
 21
259.159367
 31
0.0
  0
LINE
  8
0
 10
166.344646
 20
261.205258
 30
0.0
 11
166.282212
 21
261.163284
 31
0.0
  0
LINE
  8
0
 10
166.402277
 20
261.180003
 30
0.0
 11
166.344646
 21
261.205258
 31
0.0
  0
LINE
  8
0
 10
166.344646
 20
261.205258
 30
0.0
 11
166.82166
 21
261.559771
 31
0.0
  0
LINE
  8
0
 10
166.282212
 20
261.163284
 30
0.0
 11
166.751062
 21
261.511728
 31
0.0
  0
LINE
  8
0
 10
166.282212
 20
261.163284
 30
0.0
 11
166.282212
 21
261.048276
 31
0.0
  0
LINE
  8
0
 10
166.402277
 20
261.099323
 30
0.0
 11
166.402277
 21
261.180003
 31
0.0
  0
LINE
  8
0
 10
166.886828
 20
261.540116
 30
0.0
 11
166.402277
 21
261.180003
 31
0.0
  0
LINE
  8
0
 10
164.121927
 20
259.55778
 30
0.0
 11
163.563345
 21
259.142647
 31
0.0
  0
LINE
  8
0
 10
164.192525
 20
259.605822
 30
0.0
 11
163.625779
 21
259.184622
 31
0.0
  0
LINE
  8
0
 10
162.929665
 20
258.51851
 30
0.0
 11
160.78508
 21
256.924675
 31
0.0
  0
LINE
  8
0
 10
162.929665
 20
258.51851
 30
0.0
 11
163.503947
 21
258.945311
 31
0.0
  0
LINE
  8
0
 10
163.503947
 20
258.945311
 30
0.0
 11
163.68341
 21
259.078687
 31
0.0
  0
LINE
  8
0
 10
164.257692
 20
259.505488
 30
0.0
 11
163.68341
 21
259.078687
 31
0.0
  0
LINE
  8
0
 10
164.257692
 20
259.505488
 30
0.0
 11
166.402277
 21
261.099323
 31
0.0
  0
LINE
  8
0
 10
166.886828
 20
261.459436
 30
0.0
 11
166.402277
 21
261.099323
 31
0.0
  0
LINE
  8
0
 10
166.886828
 20
261.459436
 30
0.0
 11
168.079801
 21
262.346043
 31
0.0
  0
LINE
  8
0
 10
159.315631
 20
255.600909
 30
0.0
 11
168.282841
 21
262.265256
 31
0.0
  0
LINE
  8
0
 10
164.257692
 20
259.505488
 30
0.0
 11
164.257692
 21
259.586168
 31
0.0
  0
LINE
  8
0
 10
164.257692
 20
259.586168
 30
0.0
 11
164.192525
 21
259.605822
 31
0.0
  0
LINE
  8
0
 10
164.192525
 20
259.605822
 30
0.0
 11
164.121927
 21
259.55778
 31
0.0
  0
LINE
  8
0
 10
160.242899
 20
256.670497
 30
0.0
 11
160.30053
 21
256.645241
 31
0.0
  0
LINE
  8
0
 10
160.719913
 20
257.025009
 30
0.0
 11
160.78508
 21
257.005355
 31
0.0
  0
LINE
  8
0
 10
160.180465
 20
256.513514
 30
0.0
 11
160.180465
 21
256.628522
 31
0.0
  0
LINE
  8
0
 10
166.886828
 20
261.459436
 30
0.0
 11
166.886828
 21
261.540116
 31
0.0
  0
LINE
  8
0
 10
166.886828
 20
261.540116
 30
0.0
 11
166.82166
 21
261.559771
 31
0.0
  0
LINE
  8
0
 10
166.82166
 20
261.559771
 30
0.0
 11
166.751062
 21
261.511728
 31
0.0
  0
LINE
  8
0
 10
160.649314
 20
256.976967
 30
0.0
 11
160.180465
 21
256.628522
 31
0.0
  0
LINE
  8
0
 10
160.649314
 20
256.976967
 30
0.0
 11
160.719913
 21
257.025009
 31
0.0
  0
LINE
  8
0
 10
160.719913
 20
257.025009
 30
0.0
 11
160.242899
 21
256.670497
 31
0.0
  0
LINE
  8
0
 10
160.180465
 20
256.628522
 30
0.0
 11
160.242899
 21
256.670497
 31
0.0
  0
LINE
  8
0
 10
160.30053
 20
256.645241
 30
0.0
 11
160.30053
 21
256.564561
 31
0.0
  0
LINE
  8
0
 10
160.30053
 20
256.645241
 30
0.0
 11
160.78508
 21
257.005355
 31
0.0
  0
LINE
  8
0
 10
160.78508
 20
257.005355
 30
0.0
 11
160.78508
 21
256.924675
 31
0.0
  0
LINE
  8
0
 10
160.30053
 20
256.564561
 30
0.0
 11
160.78508
 21
256.924675
 31
0.0
  0
LINE
  8
0
 10
159.053261
 20
254.518263
 30
0.0
 11
159.053261
 21
254.198258
 31
0.0
  0
LINE
  8
0
 10
159.053261
 20
254.518263
 30
0.0
 11
159.107556
 21
254.558615
 31
0.0
  0
LINE
  8
0
 10
158.972006
 20
254.303227
 30
0.0
 11
158.991861
 21
254.231998
 31
0.0
  0
LINE
  8
0
 10
158.991861
 20
254.231998
 30
0.0
 11
159.053261
 21
254.198258
 31
0.0
  0
LINE
  8
0
 10
159.053261
 20
254.198258
 30
0.0
 11
159.107556
 21
254.23861
 31
0.0
  0
LINE
  8
0
 10
159.315631
 20
250.702999
 30
0.0
 11
159.107556
 21
250.772564
 31
0.0
  0
LINE
  8
0
 10
159.107556
 20
250.772564
 30
0.0
 11
159.107556
 21
251.891904
 31
0.0
  0
LINE
  8
0
 10
159.107556
 20
252.21191
 30
0.0
 11
159.107556
 21
254.23861
 31
0.0
  0
LINE
  8
0
 10
159.107556
 20
254.23861
 30
0.0
 11
159.107556
 21
254.558615
 31
0.0
  0
LINE
  8
0
 10
159.107556
 20
255.677955
 30
0.0
 11
159.315631
 21
255.600909
 31
0.0
  0
LINE
  8
0
 10
159.315631
 20
250.702999
 30
0.0
 11
159.315631
 21
255.600909
 31
0.0
  0
LINE
  8
0
 10
158.972006
 20
252.241351
 30
0.0
 11
159.049403
 21
252.298872
 31
0.0
  0
LINE
  8
0
 10
158.972006
 20
251.944676
 30
0.0
 11
158.972006
 21
252.241351
 31
0.0
  0
LINE
  8
0
 10
158.991861
 20
252.188413
 30
0.0
 11
158.972006
 21
252.241351
 31
0.0
  0
LINE
  8
0
 10
158.991861
 20
251.879606
 30
0.0
 11
158.991861
 21
252.188413
 31
0.0
  0
LINE
  8
0
 10
159.053261
 20
252.171557
 30
0.0
 11
158.991861
 21
252.188413
 31
0.0
  0
LINE
  8
0
 10
159.107556
 20
252.21191
 30
0.0
 11
159.107556
 21
251.891904
 31
0.0
  0
LINE
  8
0
 10
159.053261
 20
251.851552
 30
0.0
 11
159.053261
 21
252.171557
 31
0.0
  0
LINE
  8
0
 10
159.053261
 20
252.171557
 30
0.0
 11
159.107556
 21
252.21191
 31
0.0
  0
LINE
  8
0
 10
158.991861
 20
251.879606
 30
0.0
 11
158.972006
 21
251.944676
 31
0.0
  0
LINE
  8
0
 10
159.053261
 20
251.851552
 30
0.0
 11
158.991861
 21
251.879606
 31
0.0
  0
LINE
  8
0
 10
159.053261
 20
251.851552
 30
0.0
 11
159.107556
 21
251.891904
 31
0.0
  0
LINE
  8
0
 10
163.563345
 20
259.142647
 30
0.0
 11
163.563345
 21
259.027639
 31
0.0
  0
LINE
  8
0
 10
163.625779
 20
259.184622
 30
0.0
 11
163.563345
 21
259.142647
 31
0.0
  0
LINE
  8
0
 10
163.68341
 20
259.159367
 30
0.0
 11
163.625779
 21
259.184622
 31
0.0
  0
LINE
  8
0
 10
163.68341
 20
259.078687
 30
0.0
 11
163.68341
 21
259.159367
 31
0.0
  0
LINE
  8
0
 10
160.47919
 20
252.728932
 30
0.0
 11
160.472273
 21
252.731684
 31
0.0
  0
LINE
  8
0
 10
163.577959
 20
255.935737
 30
0.0
 11
163.613451
 21
255.922112
 31
0.0
  0
LINE
  8
0
 10
163.165194
 20
255.628974
 30
0.0
 11
163.200686
 21
255.615348
 31
0.0
  0
LINE
  8
0
 10
168.282841
 20
262.265256
 30
0.0
 11
168.079801
 21
262.346043
 31
0.0
  0
LINE
  8
0
 10
159.107556
 20
255.677955
 30
0.0
 11
159.107556
 21
254.558615
 31
0.0
  0
LINE
  8
0
 10
160.30053
 20
256.564561
 30
0.0
 11
159.107556
 21
255.677955
 31
0.0
  0
LINE
  8
0
 10
168.297227
 20
257.375616
 30
0.0
 11
159.401791
 21
250.76461
 31
0.0
  0
LINE
  8
0
 10
167.219828
 20
257.738511
 30
0.0
 11
166.727799
 21
257.9207
 31
0.0
  0
LINE
  8
0
 10
167.219828
 20
257.738511
 30
0.0
 11
165.575944
 21
256.516792
 31
0.0
  0
LINE
  8
0
 10
165.575944
 20
256.516792
 30
0.0
 11
165.569026
 21
256.519544
 31
0.0
  0
LINE
  8
0
 10
165.568735
 20
257.059294
 30
0.0
 11
166.727799
 21
257.9207
 31
0.0
  0
LINE
  8
0
 10
159.10775
 20
252.304613
 30
0.0
 11
159.078012
 21
252.305177
 31
0.0
  0
LINE
  8
0
 10
159.078012
 20
252.305177
 30
0.0
 11
159.049403
 21
252.298872
 31
0.0
  0
LINE
  8
0
 10
159.401791
 20
250.76461
 30
0.0
 11
159.361962
 21
250.713897
 31
0.0
  0
LINE
  8
0
 10
159.361962
 20
250.713897
 30
0.0
 11
159.315631
 21
250.702999
 31
0.0
  0
LINE
  8
0
 10
160.47919
 20
252.728932
 30
0.0
 11
160.474115
 21
252.728283
 31
0.0
  0
LINE
  8
0
 10
160.474115
 20
252.728283
 30
0.0
 11
160.472012
 21
252.734263
 31
0.0
  0
LINE
  8
0
 10
159.10775
 20
254.651319
 30
0.0
 11
159.078012
 21
254.651883
 31
0.0
  0
LINE
  8
0
 10
159.078012
 20
254.651883
 30
0.0
 11
159.049403
 21
254.645577
 31
0.0
  0
LINE
  8
0
 10
160.616817
 20
253.735044
 30
0.0
 11
160.609697
 21
253.740837
 31
0.0
  0
LINE
  8
0
 10
160.609697
 20
253.740837
 30
0.0
 11
160.606763
 21
253.749387
 31
0.0
  0
LINE
  8
0
 10
159.401791
 20
255.555868
 30
0.0
 11
159.361962
 21
255.57992
 31
0.0
  0
LINE
  8
0
 10
159.361962
 20
255.57992
 30
0.0
 11
159.315631
 21
255.600909
 31
0.0
  0
LINE
  8
0
 10
160.47919
 20
255.192972
 30
0.0
 11
160.474115
 21
255.186077
 31
0.0
  0
LINE
  8
0
 10
160.474115
 20
255.186077
 30
0.0
 11
160.472012
 21
255.176973
 31
0.0
  0
LINE
  8
0
 10
160.194866
 20
256.485982
 30
0.0
 11
160.186456
 21
256.499266
 31
0.0
  0
LINE
  8
0
 10
160.186456
 20
256.499266
 30
0.0
 11
160.180465
 21
256.513514
 31
0.0
  0
LINE
  8
0
 10
161.029582
 20
254.041808
 30
0.0
 11
161.025772
 21
254.044134
 31
0.0
  0
LINE
  8
0
 10
161.025772
 20
254.044134
 30
0.0
 11
161.02257
 21
254.047668
 31
0.0
  0
LINE
  8
0
 10
161.02257
 20
254.047668
 30
0.0
 11
161.020357
 21
254.051858
 31
0.0
  0
LINE
  8
0
 10
161.020357
 20
254.051858
 30
0.0
 11
161.019528
 21
254.05615
 31
0.0
  0
LINE
  8
0
 10
161.628045
 20
254.227238
 30
0.0
 11
161.635252
 21
254.22151
 31
0.0
  0
LINE
  8
0
 10
161.635252
 20
254.22151
 30
0.0
 11
161.638222
 21
254.212987
 31
0.0
  0
LINE
  8
0
 10
161.631045
 20
254.13284
 30
0.0
 11
161.63612
 21
254.139735
 31
0.0
  0
LINE
  8
0
 10
161.63612
 20
254.139735
 30
0.0
 11
161.638222
 21
254.148839
 31
0.0
  0
LINE
  8
0
 10
162.123075
 20
253.950652
 30
0.0
 11
162.12815
 21
253.957547
 31
0.0
  0
LINE
  8
0
 10
162.12815
 20
253.957547
 30
0.0
 11
162.130252
 21
253.966651
 31
0.0
  0
LINE
  8
0
 10
162.123075
 20
256.414692
 30
0.0
 11
162.12815
 21
256.415341
 31
0.0
  0
LINE
  8
0
 10
162.12815
 20
256.415341
 30
0.0
 11
162.130252
 21
256.409361
 31
0.0
  0
LINE
  8
0
 10
163.027567
 20
254.622862
 30
0.0
 11
163.022491
 21
254.622213
 31
0.0
  0
LINE
  8
0
 10
163.022491
 20
254.622213
 30
0.0
 11
163.020389
 21
254.628193
 31
0.0
  0
LINE
  8
0
 10
163.165194
 20
255.628974
 30
0.0
 11
163.158074
 21
255.634767
 31
0.0
  0
LINE
  8
0
 10
163.158074
 20
255.634767
 30
0.0
 11
163.155139
 21
255.643317
 31
0.0
  0
LINE
  8
0
 10
163.577959
 20
255.935737
 30
0.0
 11
163.574149
 21
255.938064
 31
0.0
  0
LINE
  8
0
 10
163.574149
 20
255.938064
 30
0.0
 11
163.570947
 21
255.941598
 31
0.0
  0
LINE
  8
0
 10
163.570947
 20
255.941598
 30
0.0
 11
163.568733
 21
255.945787
 31
0.0
  0
LINE
  8
0
 10
163.568733
 20
255.945787
 30
0.0
 11
163.567905
 21
255.95008
 31
0.0
  0
LINE
  8
0
 10
163.027567
 20
257.086902
 30
0.0
 11
163.022491
 21
257.080007
 31
0.0
  0
LINE
  8
0
 10
163.022491
 20
257.080007
 30
0.0
 11
163.020389
 21
257.070903
 31
0.0
  0
LINE
  8
0
 10
162.824001
 20
258.439931
 30
0.0
 11
162.815592
 21
258.453215
 31
0.0
  0
LINE
  8
0
 10
162.815592
 20
258.453215
 30
0.0
 11
162.8096
 21
258.467463
 31
0.0
  0
LINE
  8
0
 10
163.577747
 20
259.000108
 30
0.0
 11
163.569337
 21
259.013392
 31
0.0
  0
LINE
  8
0
 10
163.569337
 20
259.013392
 30
0.0
 11
163.563345
 21
259.027639
 31
0.0
  0
LINE
  8
0
 10
164.179422
 20
256.02677
 30
0.0
 11
164.184497
 21
256.033665
 31
0.0
  0
LINE
  8
0
 10
164.184497
 20
256.033665
 30
0.0
 11
164.186599
 21
256.042769
 31
0.0
  0
LINE
  8
0
 10
164.176421
 20
256.121168
 30
0.0
 11
164.183629
 21
256.11544
 31
0.0
  0
LINE
  8
0
 10
164.183629
 20
256.11544
 30
0.0
 11
164.186599
 21
256.106917
 31
0.0
  0
LINE
  8
0
 10
164.671451
 20
255.844582
 30
0.0
 11
164.676527
 21
255.851477
 31
0.0
  0
LINE
  8
0
 10
164.676527
 20
255.851477
 30
0.0
 11
164.678629
 21
255.860581
 31
0.0
  0
LINE
  8
0
 10
165.575944
 20
256.516792
 30
0.0
 11
165.570868
 21
256.516143
 31
0.0
  0
LINE
  8
0
 10
165.570868
 20
256.516143
 30
0.0
 11
165.568766
 21
256.522123
 31
0.0
  0
LINE
  8
0
 10
164.671451
 20
258.308622
 30
0.0
 11
164.676527
 21
258.309271
 31
0.0
  0
LINE
  8
0
 10
164.676527
 20
258.309271
 30
0.0
 11
164.678629
 21
258.303291
 31
0.0
  0
LINE
  8
0
 10
165.713571
 20
257.522904
 30
0.0
 11
165.706451
 21
257.528697
 31
0.0
  0
LINE
  8
0
 10
165.706451
 20
257.528697
 30
0.0
 11
165.703516
 21
257.537246
 31
0.0
  0
LINE
  8
0
 10
166.126336
 20
257.829667
 30
0.0
 11
166.122526
 21
257.831993
 31
0.0
  0
LINE
  8
0
 10
166.122526
 20
257.831993
 30
0.0
 11
166.119324
 21
257.835527
 31
0.0
  0
LINE
  8
0
 10
166.119324
 20
257.835527
 30
0.0
 11
166.11711
 21
257.839717
 31
0.0
  0
LINE
  8
0
 10
166.11711
 20
257.839717
 30
0.0
 11
166.116282
 21
257.84401
 31
0.0
  0
LINE
  8
0
 10
165.575944
 20
258.980832
 30
0.0
 11
165.570868
 21
258.973937
 31
0.0
  0
LINE
  8
0
 10
165.570868
 20
258.973937
 30
0.0
 11
165.568766
 21
258.964833
 31
0.0
  0
LINE
  8
0
 10
166.296613
 20
261.020744
 30
0.0
 11
166.288204
 21
261.034028
 31
0.0
  0
LINE
  8
0
 10
166.288204
 20
261.034028
 30
0.0
 11
166.282212
 21
261.048276
 31
0.0
  0
LINE
  8
0
 10
166.727799
 20
257.9207
 30
0.0
 11
166.732874
 21
257.927595
 31
0.0
  0
LINE
  8
0
 10
166.732874
 20
257.927595
 30
0.0
 11
166.734976
 21
257.936699
 31
0.0
  0
LINE
  8
0
 10
166.724798
 20
258.015098
 30
0.0
 11
166.732006
 21
258.00937
 31
0.0
  0
LINE
  8
0
 10
166.732006
 20
258.00937
 30
0.0
 11
166.734976
 21
258.000847
 31
0.0
  0
LINE
  8
0
 10
167.219828
 20
257.738511
 30
0.0
 11
167.224904
 21
257.745407
 31
0.0
  0
LINE
  8
0
 10
167.224904
 20
257.745407
 30
0.0
 11
167.227006
 21
257.754511
 31
0.0
  0
LINE
  8
0
 10
168.297227
 20
257.375616
 30
0.0
 11
168.306849
 21
257.367113
 31
0.0
  0
LINE
  8
0
 10
168.306849
 20
257.367113
 30
0.0
 11
168.307927
 21
257.362436
 31
0.0
  0
LINE
  8
0
 10
167.219828
 20
260.202552
 30
0.0
 11
167.224904
 21
260.2032
 31
0.0
  0
LINE
  8
0
 10
167.224904
 20
260.2032
 30
0.0
 11
167.227006
 21
260.197221
 31
0.0
  0
LINE
  8
0
 10
168.297227
 20
262.166873
 30
0.0
 11
168.307713
 21
262.228318
 31
0.0
  0
LINE
  8
0
 10
168.307713
 20
262.228318
 30
0.0
 11
168.282841
 21
262.265256
 31
0.0
  0
ENDSEC
  0
EOF
