  0
SECTION
  2
HEADER
  9
$ACADVER
  1
AC1009
  9
$INSBASE
 10
0.0
 20
0.0
 30
0.0
  9
$EXTMIN
 10
133.999322
 20
250.929731
 30
0.0
  9
$EXTMAX
 10
143.335878
 20
262.572775
 30
0.0
  9
$LIMMIN
 10
133.999322
 20
250.929731
  9
$LIMMAX
 10
143.335878
 20
262.572775
  9
$ORTHOMODE
 70
     0
  9
$REGENMODE
 70
     1
  9
$FILLMODE
 70
     1
  9
$QTEXTMODE
 70
     0
  9
$MIRRTEXT
 70
     1
  9
$DRAGMODE
 70
     2
  9
$LTSCALE
 40
1.0
  9
$OSMODE
 70
     0
  9
$ATTMODE
 70
     1
  9
$TEXTSIZE
 40
3.5
  9
$TRACEWID
 40
0.5
  9
$TEXTSTYLE
  7
STANDARD
  9
$CLAYER
  8
0
  9
$CELTYPE
  6
BYLAYER
  9
$CECOLOR
 62
   256
  9
$DIMSCALE
 40
1.0
  9
$DIMASZ
 40
0.18
  9
$DIMEXO
 40
0.0625
  9
$DIMDLI
 40
0.38
  9
$DIMRND
 40
0.0
  9
$DIMDLE
 40
0.0
  9
$DIMEXE
 40
0.18
  9
$DIMTP
 40
0.0
  9
$DIMTM
 40
0.0
  9
$DIMTXT
 40
0.18
  9
$DIMCEN
 40
0.09
  9
$DIMTSZ
 40
0.0
  9
$DIMTOL
 70
     0
  9
$DIMLIM
 70
     0
  9
$DIMTIH
 70
     1
  9
$DIMTOH
 70
     1
  9
$DIMSE1
 70
     0
  9
$DIMSE2
 70
     0
  9
$DIMTAD
 70
     0
  9
$DIMZIN
 70
     0
  9
$DIMBLK
  1

  9
$DIMASO
 70
     1
  9
$DIMSHO
 70
     1
  9
$DIMPOST
  1

  9
$DIMAPOST
  1

  9
$DIMALT
 70
     0
  9
$DIMALTD
 70
     2
  9
$DIMALTF
 40
25.4
  9
$DIMLFAC
 40
1.0
  9
$DIMTOFL
 70
     0
  9
$DIMTVP
 40
0.0
  9
$DIMTIX
 70
     0
  9
$DIMSOXD
 70
     0
  9
$DIMSAH
 70
     0
  9
$DIMBLK1
  1

  9
$DIMBLK2
  1

  9
$DIMSTYLE
  2
*UNNAMED
  9
$DIMCLRD
 70
     0
  9
$DIMCLRE
 70
     0
  9
$DIMCLRT
 70
     0
  9
$DIMTFAC
 40
1.0
  9
$DIMGAP
 40
0.09
  9
$LUNITS
 70
     2
  9
$LUPREC
 70
     4
  9
$SKETCHINC
 40
0.1
  9
$FILLETRAD
 40
2.0
  9
$AUNITS
 70
     0
  9
$AUPREC
 70
     0
  9
$MENU
  1
ACAD
  9
$ELEVATION
 40
0.0
  9
$PELEVATION
 40
0.0
  9
$THICKNESS
 40
0.0
  9
$LIMCHECK
 70
     0
  9
$BLIPMODE
 70
     1
  9
$CHAMFERA
 40
0.0
  9
$CHAMFERB
 40
0.0
  9
$SKPOLY
 70
     0
  9
$TDCREATE
 40
2450948.659616319
  9
$TDUPDATE
 40
2450948.659816551
  9
$TDINDWG
 40
0.0000953704
  9
$TDUSRTIMER
 40
0.0000953704
  9
$USRTIMER
 70
     1
  9
$ANGBASE
 50
0.0
  9
$ANGDIR
 70
     0
  9
$PDMODE
 70
     0
  9
$PDSIZE
 40
0.0
  9
$PLINEWID
 40
0.0
  9
$COORDS
 70
     2
  9
$SPLFRAME
 70
     0
  9
$SPLINETYPE
 70
     6
  9
$SPLINESEGS
 70
     8
  9
$ATTDIA
 70
     0
  9
$ATTREQ
 70
     1
  9
$HANDLING
 70
     0
  9
$HANDSEED
  5
0
  9
$SURFTAB1
 70
     6
  9
$SURFTAB2
 70
     6
  9
$SURFTYPE
 70
     6
  9
$SURFU
 70
     6
  9
$SURFV
 70
     6
  9
$UCSNAME
  2

  9
$UCSORG
 10
0.0
 20
0.0
 30
0.0
  9
$UCSXDIR
 10
1.0
 20
0.0
 30
0.0
  9
$UCSYDIR
 10
0.0
 20
1.0
 30
0.0
  9
$PUCSNAME
  2

  9
$PUCSORG
 10
0.0
 20
0.0
 30
0.0
  9
$PUCSXDIR
 10
1.0
 20
0.0
 30
0.0
  9
$PUCSYDIR
 10
0.0
 20
1.0
 30
0.0
  9
$USERI1
 70
     0
  9
$USERI2
 70
     0
  9
$USERI3
 70
     0
  9
$USERI4
 70
     0
  9
$USERI5
 70
     0
  9
$USERR1
 40
0.0
  9
$USERR2
 40
0.0
  9
$USERR3
 40
0.0
  9
$USERR4
 40
0.0
  9
$USERR5
 40
0.0
  9
$WORLDVIEW
 70
     1
  9
$SHADEDGE
 70
     3
  9
$SHADEDIF
 70
    70
  9
$TILEMODE
 70
     1
  9
$MAXACTVP
 70
    16
  9
$PINSBASE
 10
0.0
 20
0.0
 30
0.0
  9
$PLIMCHECK
 70
     0
  9
$PEXTMIN
 10
1.000000E+20
 20
1.000000E+20
 30
1.000000E+20
  9
$PEXTMAX
 10
-1.000000E+20
 20
-1.000000E+20
 30
-1.000000E+20
  9
$PLIMMIN
 10
0.0
 20
0.0
  9
$PLIMMAX
 10
420.0
 20
297.0
  9
$UNITMODE
 70
     0
  9
$VISRETAIN
 70
     0
  9
$PLINEGEN
 70
     0
  9
$PSLTSCALE
 70
     1
  9
$TREEDEPTH
 70
  3020
  9
$DWGCODEPAGE
  3
iso8859-1
  0
ENDSEC
  0
SECTION
  2
TABLES
  0
TABLE
  2
VPORT
 70
     2
  0
VPORT
  2
*ACTIVE
 70
     0
 10
0.0
 20
0.0
 11
1.0
 21
1.0
 12
144.536553
 22
256.004267
 13
0.0
 23
0.0
 14
1.0
 24
1.0
 15
0.0
 25
0.0
 16
0.0
 26
0.0
 36
1.0
 17
0.0
 27
0.0
 37
0.0
 40
16.29134
 41
1.748359
 42
50.0
 43
0.0
 44
0.0
 50
0.0
 51
0.0
 71
     0
 72
   100
 73
     1
 74
     0
 75
     0
 76
     0
 77
     0
 78
     0
  0
ENDTAB
  0
TABLE
  2
LTYPE
 70
     1
  0
LTYPE
  2
CONTINUOUS
 70
    64
  3
Solid line
 72
    65
 73
     0
 40
0.0
  0
ENDTAB
  0
TABLE
  2
LAYER
 70
     1
  0
LAYER
  2
0
 70
    64
 62
     7
  6
CONTINUOUS
  0
ENDTAB
  0
TABLE
  2
STYLE
 70
     1
  0
STYLE
  2
STANDARD
 70
     0
 40
0.0
 41
1.0
 50
0.0
 71
     0
 42
3.5
  3
txt
  4

  0
ENDTAB
  0
TABLE
  2
VIEW
 70
     0
  0
ENDTAB
  0
TABLE
  2
UCS
 70
     0
  0
ENDTAB
  0
TABLE
  2
APPID
 70
     1
  0
APPID
  2
ACAD
 70
    64
  0
ENDTAB
  0
TABLE
  2
DIMSTYLE
 70
     0
  0
ENDTAB
  0
ENDSEC
  0
SECTION
  2
BLOCKS
  0
ENDSEC
  0
SECTION
  2
ENTITIES
  0
LINE
  8
0
 10
143.335878
 20
257.590431
 30
0.0
 11
143.335878
 21
262.442947
 31
0.0
  0
LINE
  8
0
 10
134.390639
 20
250.941622
 30
0.0
 11
143.335242
 21
257.589167
 31
0.0
  0
LINE
  8
0
 10
136.918322
 20
254.908741
 30
0.0
 11
136.953814
 21
254.895116
 31
0.0
  0
LINE
  8
0
 10
136.908268
 20
254.923084
 30
0.0
 11
136.908268
 21
254.976612
 31
0.0
  0
LINE
  8
0
 10
137.331087
 20
255.215505
 30
0.0
 11
137.366579
 21
255.201879
 31
0.0
  0
LINE
  8
0
 10
137.321033
 20
255.229847
 30
0.0
 11
137.321033
 21
255.283376
 31
0.0
  0
LINE
  8
0
 10
136.773486
 20
254.519945
 30
0.0
 11
137.939727
 21
255.386685
 31
0.0
  0
LINE
  8
0
 10
138.42458
 20
255.124349
 30
0.0
 11
137.93255
 21
255.306537
 31
0.0
  0
LINE
  8
0
 10
136.773486
 20
254.445132
 30
0.0
 11
137.93255
 21
255.306537
 31
0.0
  0
LINE
  8
0
 10
138.431757
 20
255.140348
 30
0.0
 11
137.939727
 21
255.322536
 31
0.0
  0
LINE
  8
0
 10
137.939727
 20
255.322536
 30
0.0
 11
137.939727
 21
255.386685
 31
0.0
  0
LINE
  8
0
 10
137.628972
 20
255.512233
 30
0.0
 11
137.628972
 21
256.997
 31
0.0
  0
LINE
  8
0
 10
138.431757
 20
257.583058
 30
0.0
 11
138.42186
 21
257.586367
 31
0.0
  0
LINE
  8
0
 10
136.773486
 20
254.541759
 30
0.0
 11
137.92955
 21
255.400935
 31
0.0
  0
LINE
  8
0
 10
136.908268
 20
254.976612
 30
0.0
 11
137.0106
 21
254.937326
 31
0.0
  0
LINE
  8
0
 10
136.908268
 20
254.976612
 30
0.0
 11
137.123623
 21
255.136663
 31
0.0
  0
LINE
  8
0
 10
137.225956
 20
255.097376
 30
0.0
 11
137.123623
 21
255.136663
 31
0.0
  0
LINE
  8
0
 10
137.423365
 20
255.244089
 30
0.0
 11
137.225956
 21
255.097376
 31
0.0
  0
LINE
  8
0
 10
137.321033
 20
255.283376
 30
0.0
 11
137.423365
 21
255.244089
 31
0.0
  0
LINE
  8
0
 10
137.321033
 20
255.283376
 30
0.0
 11
137.628972
 21
255.512233
 31
0.0
  0
LINE
  8
0
 10
137.92955
 20
255.400935
 30
0.0
 11
137.628972
 21
255.512233
 31
0.0
  0
LINE
  8
0
 10
136.773471
 20
254.805862
 30
0.0
 11
136.81319
 21
254.790613
 31
0.0
  0
LINE
  8
0
 10
137.0106
 20
254.937326
 30
0.0
 11
136.81319
 21
254.790613
 31
0.0
  0
LINE
  8
0
 10
138.431757
 20
255.140348
 30
0.0
 11
138.431757
 21
257.583058
 31
0.0
  0
LINE
  8
0
 10
138.42458
 20
257.588389
 30
0.0
 11
136.780695
 21
256.36667
 31
0.0
  0
LINE
  8
0
 10
136.773517
 20
253.90796
 30
0.0
 11
136.773517
 21
256.35067
 31
0.0
  0
LINE
  8
0
 10
138.42458
 20
255.124349
 30
0.0
 11
136.780695
 21
253.902629
 31
0.0
  0
LINE
  8
0
 10
139.456644
 20
256.817014
 30
0.0
 11
139.456644
 21
256.870542
 31
0.0
  0
LINE
  8
0
 10
136.780695
 20
253.902629
 30
0.0
 11
136.773778
 21
253.905381
 31
0.0
  0
LINE
  8
0
 10
139.86941
 20
257.123777
 30
0.0
 11
139.86941
 21
257.177306
 31
0.0
  0
LINE
  8
0
 10
139.321863
 20
256.413875
 30
0.0
 11
140.488104
 21
257.280614
 31
0.0
  0
LINE
  8
0
 10
140.972956
 20
257.018279
 30
0.0
 11
140.480927
 21
257.200467
 31
0.0
  0
LINE
  8
0
 10
140.972956
 20
257.018279
 30
0.0
 11
139.329072
 21
255.796559
 31
0.0
  0
LINE
  8
0
 10
139.321863
 20
256.339062
 30
0.0
 11
140.480927
 21
257.200467
 31
0.0
  0
LINE
  8
0
 10
140.980134
 20
257.034278
 30
0.0
 11
140.980134
 21
259.476988
 31
0.0
  0
LINE
  8
0
 10
140.980134
 20
257.034278
 30
0.0
 11
140.488104
 21
257.216466
 31
0.0
  0
LINE
  8
0
 10
140.488104
 20
257.216466
 30
0.0
 11
140.488104
 21
257.280614
 31
0.0
  0
LINE
  8
0
 10
140.177349
 20
257.406163
 30
0.0
 11
140.177349
 21
258.89093
 31
0.0
  0
LINE
  8
0
 10
140.980134
 20
259.476988
 30
0.0
 11
140.970237
 21
259.480297
 31
0.0
  0
LINE
  8
0
 10
139.321862
 20
256.435689
 30
0.0
 11
140.477926
 21
257.294865
 31
0.0
  0
LINE
  8
0
 10
139.456644
 20
256.870542
 30
0.0
 11
139.558977
 21
256.831256
 31
0.0
  0
LINE
  8
0
 10
139.456644
 20
256.870542
 30
0.0
 11
139.672
 21
257.030593
 31
0.0
  0
LINE
  8
0
 10
139.774332
 20
256.991306
 30
0.0
 11
139.672
 21
257.030593
 31
0.0
  0
LINE
  8
0
 10
139.971742
 20
257.138019
 30
0.0
 11
139.774332
 21
256.991306
 31
0.0
  0
LINE
  8
0
 10
139.86941
 20
257.177306
 30
0.0
 11
139.971742
 21
257.138019
 31
0.0
  0
LINE
  8
0
 10
139.86941
 20
257.177306
 30
0.0
 11
140.177349
 21
257.406163
 31
0.0
  0
LINE
  8
0
 10
140.477926
 20
257.294865
 30
0.0
 11
140.177349
 21
257.406163
 31
0.0
  0
LINE
  8
0
 10
139.321847
 20
256.699792
 30
0.0
 11
139.361567
 21
256.684543
 31
0.0
  0
LINE
  8
0
 10
139.558977
 20
256.831256
 30
0.0
 11
139.361567
 21
256.684543
 31
0.0
  0
LINE
  8
0
 10
140.972956
 20
259.482319
 30
0.0
 11
139.329072
 21
258.2606
 31
0.0
  0
LINE
  8
0
 10
139.321894
 20
255.80189
 30
0.0
 11
139.321894
 21
258.2446
 31
0.0
  0
LINE
  8
0
 10
134.429108
 20
255.782601
 30
0.0
 11
143.324544
 21
262.393606
 31
0.0
  0
LINE
  8
0
 10
134.429108
 20
250.991343
 30
0.0
 11
134.429108
 21
255.782601
 31
0.0
  0
LINE
  8
0
 10
143.324544
 20
262.393606
 30
0.0
 11
143.324544
 21
257.602348
 31
0.0
  0
LINE
  8
0
 10
134.07672
 20
254.872309
 30
0.0
 11
133.999322
 21
254.814788
 31
0.0
  0
LINE
  8
0
 10
133.999322
 20
254.814788
 30
0.0
 11
133.999322
 21
254.529959
 31
0.0
  0
LINE
  8
0
 10
133.999322
 20
254.814788
 30
0.0
 11
134.019178
 21
254.761851
 31
0.0
  0
LINE
  8
0
 10
134.019178
 20
254.761851
 30
0.0
 11
134.019178
 21
254.45873
 31
0.0
  0
LINE
  8
0
 10
134.019178
 20
254.761851
 30
0.0
 11
134.080577
 21
254.744995
 31
0.0
  0
LINE
  8
0
 10
137.89935
 20
258.851178
 30
0.0
 11
138.466096
 21
259.272378
 31
0.0
  0
LINE
  8
0
 10
137.836917
 20
258.809203
 30
0.0
 11
138.395498
 21
259.224335
 31
0.0
  0
LINE
  8
0
 10
137.956982
 20
258.825922
 30
0.0
 11
138.531264
 21
259.252723
 31
0.0
  0
LINE
  8
0
 10
137.836917
 20
258.694195
 30
0.0
 11
137.836917
 21
258.809203
 31
0.0
  0
LINE
  8
0
 10
137.836917
 20
258.809203
 30
0.0
 11
137.89935
 21
258.851178
 31
0.0
  0
LINE
  8
0
 10
137.89935
 20
258.851178
 30
0.0
 11
137.956982
 21
258.825922
 31
0.0
  0
LINE
  8
0
 10
137.956982
 20
258.825922
 30
0.0
 11
137.956982
 21
258.745242
 31
0.0
  0
LINE
  8
0
 10
138.531264
 20
259.252723
 30
0.0
 11
138.531264
 21
259.172043
 31
0.0
  0
LINE
  8
0
 10
138.466096
 20
259.272378
 30
0.0
 11
138.531264
 21
259.252723
 31
0.0
  0
LINE
  8
0
 10
138.395498
 20
259.224335
 30
0.0
 11
138.466096
 21
259.272378
 31
0.0
  0
LINE
  8
0
 10
139.285009
 20
259.8129
 30
0.0
 11
138.710727
 21
259.386099
 31
0.0
  0
LINE
  8
0
 10
141.371963
 20
261.431991
 30
0.0
 11
141.309529
 21
261.390016
 31
0.0
  0
LINE
  8
0
 10
141.429594
 20
261.406735
 30
0.0
 11
141.371963
 21
261.431991
 31
0.0
  0
LINE
  8
0
 10
141.371963
 20
261.431991
 30
0.0
 11
141.848977
 21
261.786503
 31
0.0
  0
LINE
  8
0
 10
141.309529
 20
261.390016
 30
0.0
 11
141.778378
 21
261.738461
 31
0.0
  0
LINE
  8
0
 10
141.309529
 20
261.390016
 30
0.0
 11
141.309529
 21
261.275008
 31
0.0
  0
LINE
  8
0
 10
141.429594
 20
261.326055
 30
0.0
 11
141.429594
 21
261.406735
 31
0.0
  0
LINE
  8
0
 10
141.914144
 20
261.766849
 30
0.0
 11
141.429594
 21
261.406735
 31
0.0
  0
LINE
  8
0
 10
139.149243
 20
259.784512
 30
0.0
 11
138.590662
 21
259.36938
 31
0.0
  0
LINE
  8
0
 10
139.219841
 20
259.832554
 30
0.0
 11
138.653096
 21
259.411354
 31
0.0
  0
LINE
  8
0
 10
137.956982
 20
258.745242
 30
0.0
 11
135.812397
 21
257.151407
 31
0.0
  0
LINE
  8
0
 10
137.956982
 20
258.745242
 30
0.0
 11
138.531264
 21
259.172043
 31
0.0
  0
LINE
  8
0
 10
138.531264
 20
259.172043
 30
0.0
 11
138.710727
 21
259.305419
 31
0.0
  0
LINE
  8
0
 10
139.285009
 20
259.73222
 30
0.0
 11
138.710727
 21
259.305419
 31
0.0
  0
LINE
  8
0
 10
139.285009
 20
259.73222
 30
0.0
 11
141.429594
 21
261.326055
 31
0.0
  0
LINE
  8
0
 10
141.914144
 20
261.686169
 30
0.0
 11
141.429594
 21
261.326055
 31
0.0
  0
LINE
  8
0
 10
141.914144
 20
261.686169
 30
0.0
 11
143.107117
 21
262.572775
 31
0.0
  0
LINE
  8
0
 10
134.342947
 20
255.827641
 30
0.0
 11
143.310158
 21
262.491989
 31
0.0
  0
LINE
  8
0
 10
139.285009
 20
259.73222
 30
0.0
 11
139.285009
 21
259.8129
 31
0.0
  0
LINE
  8
0
 10
139.285009
 20
259.8129
 30
0.0
 11
139.219841
 21
259.832554
 31
0.0
  0
LINE
  8
0
 10
139.219841
 20
259.832554
 30
0.0
 11
139.149243
 21
259.784512
 31
0.0
  0
LINE
  8
0
 10
135.270215
 20
256.897229
 30
0.0
 11
135.327846
 21
256.871974
 31
0.0
  0
LINE
  8
0
 10
135.747229
 20
257.251741
 30
0.0
 11
135.812397
 21
257.232087
 31
0.0
  0
LINE
  8
0
 10
135.207782
 20
256.740246
 30
0.0
 11
135.207782
 21
256.855254
 31
0.0
  0
LINE
  8
0
 10
141.914144
 20
261.686169
 30
0.0
 11
141.914144
 21
261.766849
 31
0.0
  0
LINE
  8
0
 10
141.914144
 20
261.766849
 30
0.0
 11
141.848977
 21
261.786503
 31
0.0
  0
LINE
  8
0
 10
141.848977
 20
261.786503
 30
0.0
 11
141.778378
 21
261.738461
 31
0.0
  0
LINE
  8
0
 10
135.676631
 20
257.203699
 30
0.0
 11
135.207782
 21
256.855254
 31
0.0
  0
LINE
  8
0
 10
135.676631
 20
257.203699
 30
0.0
 11
135.747229
 21
257.251741
 31
0.0
  0
LINE
  8
0
 10
135.747229
 20
257.251741
 30
0.0
 11
135.270215
 21
256.897229
 31
0.0
  0
LINE
  8
0
 10
135.207782
 20
256.855254
 30
0.0
 11
135.270215
 21
256.897229
 31
0.0
  0
LINE
  8
0
 10
135.327846
 20
256.871974
 30
0.0
 11
135.327846
 21
256.791294
 31
0.0
  0
LINE
  8
0
 10
135.327846
 20
256.871974
 30
0.0
 11
135.812397
 21
257.232087
 31
0.0
  0
LINE
  8
0
 10
135.812397
 20
257.232087
 30
0.0
 11
135.812397
 21
257.151407
 31
0.0
  0
LINE
  8
0
 10
135.327846
 20
256.791294
 30
0.0
 11
135.812397
 21
257.151407
 31
0.0
  0
LINE
  8
0
 10
143.324544
 20
257.602348
 30
0.0
 11
134.429108
 21
250.991343
 31
0.0
  0
LINE
  8
0
 10
134.080577
 20
254.744995
 30
0.0
 11
134.080577
 21
254.42499
 31
0.0
  0
LINE
  8
0
 10
134.080577
 20
254.744995
 30
0.0
 11
134.134873
 21
254.785347
 31
0.0
  0
LINE
  8
0
 10
133.999322
 20
254.529959
 30
0.0
 11
134.019178
 21
254.45873
 31
0.0
  0
LINE
  8
0
 10
134.019178
 20
254.45873
 30
0.0
 11
134.080577
 21
254.42499
 31
0.0
  0
LINE
  8
0
 10
134.080577
 20
254.42499
 30
0.0
 11
134.134873
 21
254.465342
 31
0.0
  0
LINE
  8
0
 10
134.342947
 20
250.929731
 30
0.0
 11
134.134873
 21
250.999297
 31
0.0
  0
LINE
  8
0
 10
134.134873
 20
250.999297
 30
0.0
 11
134.134873
 21
252.118637
 31
0.0
  0
LINE
  8
0
 10
134.134873
 20
252.438642
 30
0.0
 11
134.134873
 21
254.465342
 31
0.0
  0
LINE
  8
0
 10
134.134873
 20
254.465342
 30
0.0
 11
134.134873
 21
254.785347
 31
0.0
  0
LINE
  8
0
 10
134.134873
 20
255.904687
 30
0.0
 11
134.342947
 21
255.827641
 31
0.0
  0
LINE
  8
0
 10
134.342947
 20
250.929731
 30
0.0
 11
134.342947
 21
255.827641
 31
0.0
  0
LINE
  8
0
 10
133.999322
 20
252.468083
 30
0.0
 11
134.07672
 21
252.525604
 31
0.0
  0
LINE
  8
0
 10
133.999322
 20
252.171408
 30
0.0
 11
133.999322
 21
252.468083
 31
0.0
  0
LINE
  8
0
 10
134.019178
 20
252.415145
 30
0.0
 11
133.999322
 21
252.468083
 31
0.0
  0
LINE
  8
0
 10
134.019178
 20
252.106339
 30
0.0
 11
134.019178
 21
252.415145
 31
0.0
  0
LINE
  8
0
 10
134.080577
 20
252.39829
 30
0.0
 11
134.019178
 21
252.415145
 31
0.0
  0
LINE
  8
0
 10
134.134873
 20
252.438642
 30
0.0
 11
134.134873
 21
252.118637
 31
0.0
  0
LINE
  8
0
 10
134.080577
 20
252.078284
 30
0.0
 11
134.080577
 21
252.39829
 31
0.0
  0
LINE
  8
0
 10
134.080577
 20
252.39829
 30
0.0
 11
134.134873
 21
252.438642
 31
0.0
  0
LINE
  8
0
 10
134.019178
 20
252.106339
 30
0.0
 11
133.999322
 21
252.171408
 31
0.0
  0
LINE
  8
0
 10
134.080577
 20
252.078284
 30
0.0
 11
134.019178
 21
252.106339
 31
0.0
  0
LINE
  8
0
 10
134.080577
 20
252.078284
 30
0.0
 11
134.134873
 21
252.118637
 31
0.0
  0
LINE
  8
0
 10
138.590662
 20
259.36938
 30
0.0
 11
138.590662
 21
259.254372
 31
0.0
  0
LINE
  8
0
 10
138.653096
 20
259.411354
 30
0.0
 11
138.590662
 21
259.36938
 31
0.0
  0
LINE
  8
0
 10
138.710727
 20
259.386099
 30
0.0
 11
138.653096
 21
259.411354
 31
0.0
  0
LINE
  8
0
 10
138.710727
 20
259.305419
 30
0.0
 11
138.710727
 21
259.386099
 31
0.0
  0
LINE
  8
0
 10
139.879464
 20
257.109435
 30
0.0
 11
139.914956
 21
257.095809
 31
0.0
  0
LINE
  8
0
 10
139.466699
 20
256.802671
 30
0.0
 11
139.502191
 21
256.789046
 31
0.0
  0
LINE
  8
0
 10
143.310158
 20
262.491989
 30
0.0
 11
143.107117
 21
262.572775
 31
0.0
  0
LINE
  8
0
 10
134.134873
 20
255.904687
 30
0.0
 11
134.134873
 21
254.785347
 31
0.0
  0
LINE
  8
0
 10
135.327846
 20
256.791294
 30
0.0
 11
134.134873
 21
255.904687
 31
0.0
  0
LINE
  8
0
 10
139.329072
 20
255.796559
 30
0.0
 11
139.322155
 21
255.799311
 31
0.0
  0
LINE
  8
0
 10
134.135067
 20
252.531346
 30
0.0
 11
134.105328
 21
252.53191
 31
0.0
  0
LINE
  8
0
 10
134.105328
 20
252.53191
 30
0.0
 11
134.07672
 21
252.525604
 31
0.0
  0
LINE
  8
0
 10
134.429108
 20
250.991343
 30
0.0
 11
134.389278
 21
250.940629
 31
0.0
  0
LINE
  8
0
 10
134.389278
 20
250.940629
 30
0.0
 11
134.342947
 21
250.929731
 31
0.0
  0
LINE
  8
0
 10
134.135067
 20
254.878051
 30
0.0
 11
134.105328
 21
254.878615
 31
0.0
  0
LINE
  8
0
 10
134.105328
 20
254.878615
 30
0.0
 11
134.07672
 21
254.872309
 31
0.0
  0
LINE
  8
0
 10
134.429108
 20
255.782601
 30
0.0
 11
134.389278
 21
255.806652
 31
0.0
  0
LINE
  8
0
 10
134.389278
 20
255.806652
 30
0.0
 11
134.342947
 21
255.827641
 31
0.0
  0
LINE
  8
0
 10
135.222183
 20
256.712715
 30
0.0
 11
135.213773
 21
256.725999
 31
0.0
  0
LINE
  8
0
 10
135.213773
 20
256.725999
 30
0.0
 11
135.207782
 21
256.740246
 31
0.0
  0
LINE
  8
0
 10
136.780695
 20
253.902629
 30
0.0
 11
136.77562
 21
253.901981
 31
0.0
  0
LINE
  8
0
 10
136.77562
 20
253.901981
 30
0.0
 11
136.773517
 21
253.90796
 31
0.0
  0
LINE
  8
0
 10
136.918322
 20
254.908741
 30
0.0
 11
136.911202
 21
254.914534
 31
0.0
  0
LINE
  8
0
 10
136.911202
 20
254.914534
 30
0.0
 11
136.908268
 21
254.923084
 31
0.0
  0
LINE
  8
0
 10
136.780695
 20
256.36667
 30
0.0
 11
136.77562
 21
256.359774
 31
0.0
  0
LINE
  8
0
 10
136.77562
 20
256.359774
 30
0.0
 11
136.773517
 21
256.35067
 31
0.0
  0
LINE
  8
0
 10
137.92955
 20
255.400935
 30
0.0
 11
137.936757
 21
255.395207
 31
0.0
  0
LINE
  8
0
 10
137.936757
 20
255.395207
 30
0.0
 11
137.939727
 21
255.386685
 31
0.0
  0
LINE
  8
0
 10
137.93255
 20
255.306537
 30
0.0
 11
137.937625
 21
255.313432
 31
0.0
  0
LINE
  8
0
 10
137.937625
 20
255.313432
 30
0.0
 11
137.939727
 21
255.322536
 31
0.0
  0
LINE
  8
0
 10
137.331087
 20
255.215505
 30
0.0
 11
137.327277
 21
255.217831
 31
0.0
  0
LINE
  8
0
 10
137.327277
 20
255.217831
 30
0.0
 11
137.324075
 21
255.221365
 31
0.0
  0
LINE
  8
0
 10
137.324075
 20
255.221365
 30
0.0
 11
137.321862
 21
255.225555
 31
0.0
  0
LINE
  8
0
 10
137.321862
 20
255.225555
 30
0.0
 11
137.321033
 21
255.229847
 31
0.0
  0
LINE
  8
0
 10
138.42458
 20
255.124349
 30
0.0
 11
138.429655
 21
255.131244
 31
0.0
  0
LINE
  8
0
 10
138.429655
 20
255.131244
 30
0.0
 11
138.431757
 21
255.140348
 31
0.0
  0
LINE
  8
0
 10
138.42458
 20
257.588389
 30
0.0
 11
138.429655
 21
257.589038
 31
0.0
  0
LINE
  8
0
 10
138.429655
 20
257.589038
 30
0.0
 11
138.431757
 21
257.583058
 31
0.0
  0
LINE
  8
0
 10
137.851318
 20
258.666664
 30
0.0
 11
137.842908
 21
258.679947
 31
0.0
  0
LINE
  8
0
 10
137.842908
 20
258.679947
 30
0.0
 11
137.836917
 21
258.694195
 31
0.0
  0
LINE
  8
0
 10
138.605063
 20
259.22684
 30
0.0
 11
138.596653
 21
259.240124
 31
0.0
  0
LINE
  8
0
 10
138.596653
 20
259.240124
 30
0.0
 11
138.590662
 21
259.254372
 31
0.0
  0
LINE
  8
0
 10
139.329072
 20
255.796559
 30
0.0
 11
139.323996
 21
255.795911
 31
0.0
  0
LINE
  8
0
 10
139.323996
 20
255.795911
 30
0.0
 11
139.321894
 21
255.80189
 31
0.0
  0
LINE
  8
0
 10
139.329072
 20
258.2606
 30
0.0
 11
139.323996
 21
258.253704
 31
0.0
  0
LINE
  8
0
 10
139.323996
 20
258.253704
 30
0.0
 11
139.321894
 21
258.2446
 31
0.0
  0
LINE
  8
0
 10
139.466699
 20
256.802671
 30
0.0
 11
139.459579
 21
256.808464
 31
0.0
  0
LINE
  8
0
 10
139.459579
 20
256.808464
 30
0.0
 11
139.456644
 21
256.817014
 31
0.0
  0
LINE
  8
0
 10
139.879464
 20
257.109435
 30
0.0
 11
139.875654
 21
257.111761
 31
0.0
  0
LINE
  8
0
 10
139.875654
 20
257.111761
 30
0.0
 11
139.872452
 21
257.115295
 31
0.0
  0
LINE
  8
0
 10
139.872452
 20
257.115295
 30
0.0
 11
139.870238
 21
257.119485
 31
0.0
  0
LINE
  8
0
 10
139.870238
 20
257.119485
 30
0.0
 11
139.86941
 21
257.123777
 31
0.0
  0
LINE
  8
0
 10
140.480927
 20
257.200467
 30
0.0
 11
140.486002
 21
257.207362
 31
0.0
  0
LINE
  8
0
 10
140.486002
 20
257.207362
 30
0.0
 11
140.488104
 21
257.216466
 31
0.0
  0
LINE
  8
0
 10
140.477926
 20
257.294865
 30
0.0
 11
140.485134
 21
257.289137
 31
0.0
  0
LINE
  8
0
 10
140.485134
 20
257.289137
 30
0.0
 11
140.488104
 21
257.280614
 31
0.0
  0
LINE
  8
0
 10
140.972956
 20
257.018279
 30
0.0
 11
140.978032
 21
257.025174
 31
0.0
  0
LINE
  8
0
 10
140.978032
 20
257.025174
 30
0.0
 11
140.980134
 21
257.034278
 31
0.0
  0
LINE
  8
0
 10
140.972956
 20
259.482319
 30
0.0
 11
140.978032
 21
259.482968
 31
0.0
  0
LINE
  8
0
 10
140.978032
 20
259.482968
 30
0.0
 11
140.980134
 21
259.476988
 31
0.0
  0
LINE
  8
0
 10
141.32393
 20
261.247476
 30
0.0
 11
141.31552
 21
261.26076
 31
0.0
  0
LINE
  8
0
 10
141.31552
 20
261.26076
 30
0.0
 11
141.309529
 21
261.275008
 31
0.0
  0
LINE
  8
0
 10
143.324544
 20
257.602348
 30
0.0
 11
143.334166
 21
257.593845
 31
0.0
  0
LINE
  8
0
 10
143.334166
 20
257.593845
 30
0.0
 11
143.335244
 21
257.589168
 31
0.0
  0
LINE
  8
0
 10
143.324544
 20
262.393606
 30
0.0
 11
143.335029
 21
262.455051
 31
0.0
  0
LINE
  8
0
 10
143.335029
 20
262.455051
 30
0.0
 11
143.310158
 21
262.491989
 31
0.0
  0
ENDSEC
  0
EOF
