  0
SECTION
  2
HEADER
  9
$ACADVER
  1
AC1009
  9
$INSBASE
 10
0.0
 20
0.0
 30
0.0
  9
$EXTMIN
 10
109.684553
 20
251.122286
 30
0.0
  9
$EXTMAX
 10
119.021108
 20
262.76533
 30
0.0
  9
$LIMMIN
 10
109.684553
 20
251.122286
  9
$LIMMAX
 10
119.021108
 20
262.76533
  9
$ORTHOMODE
 70
     0
  9
$REGENMODE
 70
     1
  9
$FILLMODE
 70
     1
  9
$QTEXTMODE
 70
     0
  9
$MIRRTEXT
 70
     1
  9
$DRAGMODE
 70
     2
  9
$LTSCALE
 40
1.0
  9
$OSMODE
 70
     0
  9
$ATTMODE
 70
     1
  9
$TEXTSIZE
 40
3.5
  9
$TRACEWID
 40
0.5
  9
$TEXTSTYLE
  7
STANDARD
  9
$CLAYER
  8
0
  9
$CELTYPE
  6
BYLAYER
  9
$CECOLOR
 62
   256
  9
$DIMSCALE
 40
1.0
  9
$DIMASZ
 40
0.18
  9
$DIMEXO
 40
0.0625
  9
$DIMDLI
 40
0.38
  9
$DIMRND
 40
0.0
  9
$DIMDLE
 40
0.0
  9
$DIMEXE
 40
0.18
  9
$DIMTP
 40
0.0
  9
$DIMTM
 40
0.0
  9
$DIMTXT
 40
0.18
  9
$DIMCEN
 40
0.09
  9
$DIMTSZ
 40
0.0
  9
$DIMTOL
 70
     0
  9
$DIMLIM
 70
     0
  9
$DIMTIH
 70
     1
  9
$DIMTOH
 70
     1
  9
$DIMSE1
 70
     0
  9
$DIMSE2
 70
     0
  9
$DIMTAD
 70
     0
  9
$DIMZIN
 70
     0
  9
$DIMBLK
  1

  9
$DIMASO
 70
     1
  9
$DIMSHO
 70
     1
  9
$DIMPOST
  1

  9
$DIMAPOST
  1

  9
$DIMALT
 70
     0
  9
$DIMALTD
 70
     2
  9
$DIMALTF
 40
25.4
  9
$DIMLFAC
 40
1.0
  9
$DIMTOFL
 70
     0
  9
$DIMTVP
 40
0.0
  9
$DIMTIX
 70
     0
  9
$DIMSOXD
 70
     0
  9
$DIMSAH
 70
     0
  9
$DIMBLK1
  1

  9
$DIMBLK2
  1

  9
$DIMSTYLE
  2
*UNNAMED
  9
$DIMCLRD
 70
     0
  9
$DIMCLRE
 70
     0
  9
$DIMCLRT
 70
     0
  9
$DIMTFAC
 40
1.0
  9
$DIMGAP
 40
0.09
  9
$LUNITS
 70
     2
  9
$LUPREC
 70
     4
  9
$SKETCHINC
 40
0.1
  9
$FILLETRAD
 40
2.0
  9
$AUNITS
 70
     0
  9
$AUPREC
 70
     0
  9
$MENU
  1
ACAD
  9
$ELEVATION
 40
0.0
  9
$PELEVATION
 40
0.0
  9
$THICKNESS
 40
0.0
  9
$LIMCHECK
 70
     0
  9
$BLIPMODE
 70
     1
  9
$CHAMFERA
 40
0.0
  9
$CHAMFERB
 40
0.0
  9
$SKPOLY
 70
     0
  9
$TDCREATE
 40
2450948.658022569
  9
$TDUPDATE
 40
2450948.658248264
  9
$TDINDWG
 40
0.0001354167
  9
$TDUSRTIMER
 40
0.0001354167
  9
$USRTIMER
 70
     1
  9
$ANGBASE
 50
0.0
  9
$ANGDIR
 70
     0
  9
$PDMODE
 70
     0
  9
$PDSIZE
 40
0.0
  9
$PLINEWID
 40
0.0
  9
$COORDS
 70
     2
  9
$SPLFRAME
 70
     0
  9
$SPLINETYPE
 70
     6
  9
$SPLINESEGS
 70
     8
  9
$ATTDIA
 70
     0
  9
$ATTREQ
 70
     1
  9
$HANDLING
 70
     0
  9
$HANDSEED
  5
0
  9
$SURFTAB1
 70
     6
  9
$SURFTAB2
 70
     6
  9
$SURFTYPE
 70
     6
  9
$SURFU
 70
     6
  9
$SURFV
 70
     6
  9
$UCSNAME
  2

  9
$UCSORG
 10
0.0
 20
0.0
 30
0.0
  9
$UCSXDIR
 10
1.0
 20
0.0
 30
0.0
  9
$UCSYDIR
 10
0.0
 20
1.0
 30
0.0
  9
$PUCSNAME
  2

  9
$PUCSORG
 10
0.0
 20
0.0
 30
0.0
  9
$PUCSXDIR
 10
1.0
 20
0.0
 30
0.0
  9
$PUCSYDIR
 10
0.0
 20
1.0
 30
0.0
  9
$USERI1
 70
     0
  9
$USERI2
 70
     0
  9
$USERI3
 70
     0
  9
$USERI4
 70
     0
  9
$USERI5
 70
     0
  9
$USERR1
 40
0.0
  9
$USERR2
 40
0.0
  9
$USERR3
 40
0.0
  9
$USERR4
 40
0.0
  9
$USERR5
 40
0.0
  9
$WORLDVIEW
 70
     1
  9
$SHADEDGE
 70
     3
  9
$SHADEDIF
 70
    70
  9
$TILEMODE
 70
     1
  9
$MAXACTVP
 70
    16
  9
$PINSBASE
 10
0.0
 20
0.0
 30
0.0
  9
$PLIMCHECK
 70
     0
  9
$PEXTMIN
 10
1.000000E+20
 20
1.000000E+20
 30
1.000000E+20
  9
$PEXTMAX
 10
-1.000000E+20
 20
-1.000000E+20
 30
-1.000000E+20
  9
$PLIMMIN
 10
0.0
 20
0.0
  9
$PLIMMAX
 10
420.0
 20
297.0
  9
$UNITMODE
 70
     0
  9
$VISRETAIN
 70
     0
  9
$PLINEGEN
 70
     0
  9
$PSLTSCALE
 70
     1
  9
$TREEDEPTH
 70
  3020
  9
$DWGCODEPAGE
  3
iso8859-1
  0
ENDSEC
  0
SECTION
  2
TABLES
  0
TABLE
  2
VPORT
 70
     2
  0
VPORT
  2
*ACTIVE
 70
     0
 10
0.0
 20
0.0
 11
1.0
 21
1.0
 12
119.042323
 22
257.483581
 13
0.0
 23
0.0
 14
1.0
 24
1.0
 15
0.0
 25
0.0
 16
0.0
 26
0.0
 36
1.0
 17
0.0
 27
0.0
 37
0.0
 40
13.494333
 41
1.748359
 42
50.0
 43
0.0
 44
0.0
 50
0.0
 51
0.0
 71
     0
 72
   100
 73
     1
 74
     0
 75
     0
 76
     0
 77
     0
 78
     0
  0
ENDTAB
  0
TABLE
  2
LTYPE
 70
     1
  0
LTYPE
  2
CONTINUOUS
 70
    64
  3
Solid line
 72
    65
 73
     0
 40
0.0
  0
ENDTAB
  0
TABLE
  2
LAYER
 70
     1
  0
LAYER
  2
0
 70
    64
 62
     7
  6
CONTINUOUS
  0
ENDTAB
  0
TABLE
  2
STYLE
 70
     1
  0
STYLE
  2
STANDARD
 70
     0
 40
0.0
 41
1.0
 50
0.0
 71
     0
 42
3.5
  3
txt
  4

  0
ENDTAB
  0
TABLE
  2
VIEW
 70
     0
  0
ENDTAB
  0
TABLE
  2
UCS
 70
     0
  0
ENDTAB
  0
TABLE
  2
APPID
 70
     1
  0
APPID
  2
ACAD
 70
    64
  0
ENDTAB
  0
TABLE
  2
DIMSTYLE
 70
     0
  0
ENDTAB
  0
ENDSEC
  0
SECTION
  2
BLOCKS
  0
ENDSEC
  0
SECTION
  2
ENTITIES
  0
LINE
  8
0
 10
119.021108
 20
257.782986
 30
0.0
 11
119.021108
 21
262.635501
 31
0.0
  0
LINE
  8
0
 10
110.07587
 20
251.134176
 30
0.0
 11
119.020473
 21
257.781721
 31
0.0
  0
LINE
  8
0
 10
113.877741
 20
256.048261
 30
0.0
 11
113.913233
 21
256.034635
 31
0.0
  0
LINE
  8
0
 10
113.867687
 20
256.062603
 30
0.0
 11
113.867687
 21
256.116132
 31
0.0
  0
LINE
  8
0
 10
114.290507
 20
256.355024
 30
0.0
 11
114.325998
 21
256.341398
 31
0.0
  0
LINE
  8
0
 10
114.280452
 20
256.369366
 30
0.0
 11
114.280452
 21
256.422895
 31
0.0
  0
LINE
  8
0
 10
113.732905
 20
255.659464
 30
0.0
 11
114.899147
 21
256.526204
 31
0.0
  0
LINE
  8
0
 10
115.383999
 20
256.263868
 30
0.0
 11
114.891969
 21
256.446056
 31
0.0
  0
LINE
  8
0
 10
113.732905
 20
255.584651
 30
0.0
 11
114.891969
 21
256.446056
 31
0.0
  0
LINE
  8
0
 10
115.391176
 20
256.279867
 30
0.0
 11
114.899147
 21
256.462056
 31
0.0
  0
LINE
  8
0
 10
114.899147
 20
256.462056
 30
0.0
 11
114.899147
 21
256.526204
 31
0.0
  0
LINE
  8
0
 10
114.588391
 20
256.651752
 30
0.0
 11
114.588391
 21
258.136519
 31
0.0
  0
LINE
  8
0
 10
115.391176
 20
258.722578
 30
0.0
 11
115.381279
 21
258.725886
 31
0.0
  0
LINE
  8
0
 10
113.732905
 20
255.681279
 30
0.0
 11
114.888969
 21
256.540455
 31
0.0
  0
LINE
  8
0
 10
113.867687
 20
256.116132
 30
0.0
 11
113.970019
 21
256.076845
 31
0.0
  0
LINE
  8
0
 10
113.867687
 20
256.116132
 30
0.0
 11
114.083043
 21
256.276182
 31
0.0
  0
LINE
  8
0
 10
114.185375
 20
256.236895
 30
0.0
 11
114.083043
 21
256.276182
 31
0.0
  0
LINE
  8
0
 10
114.382784
 20
256.383608
 30
0.0
 11
114.185375
 21
256.236895
 31
0.0
  0
LINE
  8
0
 10
114.280452
 20
256.422895
 30
0.0
 11
114.382784
 21
256.383608
 31
0.0
  0
LINE
  8
0
 10
114.280452
 20
256.422895
 30
0.0
 11
114.588391
 21
256.651752
 31
0.0
  0
LINE
  8
0
 10
114.888969
 20
256.540455
 30
0.0
 11
114.588391
 21
256.651752
 31
0.0
  0
LINE
  8
0
 10
113.73289
 20
255.945381
 30
0.0
 11
113.772609
 21
255.930132
 31
0.0
  0
LINE
  8
0
 10
113.970019
 20
256.076845
 30
0.0
 11
113.772609
 21
255.930132
 31
0.0
  0
LINE
  8
0
 10
115.391176
 20
256.279867
 30
0.0
 11
115.391176
 21
258.722578
 31
0.0
  0
LINE
  8
0
 10
115.383999
 20
258.727909
 30
0.0
 11
113.740114
 21
257.506189
 31
0.0
  0
LINE
  8
0
 10
113.732937
 20
255.047479
 30
0.0
 11
113.732937
 21
257.490189
 31
0.0
  0
LINE
  8
0
 10
115.383999
 20
256.263868
 30
0.0
 11
113.740114
 21
255.042148
 31
0.0
  0
LINE
  8
0
 10
109.761951
 20
255.064864
 30
0.0
 11
109.684553
 21
255.007343
 31
0.0
  0
LINE
  8
0
 10
109.684553
 20
255.007343
 30
0.0
 11
109.684553
 21
254.722513
 31
0.0
  0
LINE
  8
0
 10
109.684553
 20
255.007343
 30
0.0
 11
109.704409
 21
254.954405
 31
0.0
  0
LINE
  8
0
 10
109.704409
 20
254.954405
 30
0.0
 11
109.704409
 21
254.651284
 31
0.0
  0
LINE
  8
0
 10
109.704409
 20
254.954405
 30
0.0
 11
109.765808
 21
254.937549
 31
0.0
  0
LINE
  8
0
 10
113.584581
 20
259.043732
 30
0.0
 11
114.151327
 21
259.464932
 31
0.0
  0
LINE
  8
0
 10
113.522148
 20
259.001757
 30
0.0
 11
114.080729
 21
259.41689
 31
0.0
  0
LINE
  8
0
 10
113.642212
 20
259.018477
 30
0.0
 11
114.216494
 21
259.445278
 31
0.0
  0
LINE
  8
0
 10
113.522148
 20
258.88675
 30
0.0
 11
113.522148
 21
259.001757
 31
0.0
  0
LINE
  8
0
 10
113.522148
 20
259.001757
 30
0.0
 11
113.584581
 21
259.043732
 31
0.0
  0
LINE
  8
0
 10
113.584581
 20
259.043732
 30
0.0
 11
113.642212
 21
259.018477
 31
0.0
  0
LINE
  8
0
 10
113.642212
 20
259.018477
 30
0.0
 11
113.642212
 21
258.937797
 31
0.0
  0
LINE
  8
0
 10
114.216494
 20
259.445278
 30
0.0
 11
114.216494
 21
259.364598
 31
0.0
  0
LINE
  8
0
 10
114.151327
 20
259.464932
 30
0.0
 11
114.216494
 21
259.445278
 31
0.0
  0
LINE
  8
0
 10
114.080729
 20
259.41689
 30
0.0
 11
114.151327
 21
259.464932
 31
0.0
  0
LINE
  8
0
 10
114.97024
 20
260.005454
 30
0.0
 11
114.395958
 21
259.578653
 31
0.0
  0
LINE
  8
0
 10
117.057193
 20
261.624545
 30
0.0
 11
116.99476
 21
261.58257
 31
0.0
  0
LINE
  8
0
 10
117.114824
 20
261.59929
 30
0.0
 11
117.057193
 21
261.624545
 31
0.0
  0
LINE
  8
0
 10
117.057193
 20
261.624545
 30
0.0
 11
117.534207
 21
261.979057
 31
0.0
  0
LINE
  8
0
 10
116.99476
 20
261.58257
 30
0.0
 11
117.463609
 21
261.931015
 31
0.0
  0
LINE
  8
0
 10
116.99476
 20
261.58257
 30
0.0
 11
116.99476
 21
261.467562
 31
0.0
  0
LINE
  8
0
 10
117.114824
 20
261.51861
 30
0.0
 11
117.114824
 21
261.59929
 31
0.0
  0
LINE
  8
0
 10
117.599375
 20
261.959403
 30
0.0
 11
117.114824
 21
261.59929
 31
0.0
  0
LINE
  8
0
 10
114.834474
 20
259.977066
 30
0.0
 11
114.275893
 21
259.561934
 31
0.0
  0
LINE
  8
0
 10
114.905072
 20
260.025108
 30
0.0
 11
114.338326
 21
259.603908
 31
0.0
  0
LINE
  8
0
 10
113.642212
 20
258.937797
 30
0.0
 11
111.497628
 21
257.343961
 31
0.0
  0
LINE
  8
0
 10
113.642212
 20
258.937797
 30
0.0
 11
114.216494
 21
259.364598
 31
0.0
  0
LINE
  8
0
 10
114.216494
 20
259.364598
 30
0.0
 11
114.395958
 21
259.497973
 31
0.0
  0
LINE
  8
0
 10
114.97024
 20
259.924774
 30
0.0
 11
114.395958
 21
259.497973
 31
0.0
  0
LINE
  8
0
 10
114.97024
 20
259.924774
 30
0.0
 11
117.114824
 21
261.51861
 31
0.0
  0
LINE
  8
0
 10
117.599375
 20
261.878723
 30
0.0
 11
117.114824
 21
261.51861
 31
0.0
  0
LINE
  8
0
 10
117.599375
 20
261.878723
 30
0.0
 11
118.792348
 21
262.76533
 31
0.0
  0
LINE
  8
0
 10
114.97024
 20
259.924774
 30
0.0
 11
114.97024
 21
260.005454
 31
0.0
  0
LINE
  8
0
 10
114.97024
 20
260.005454
 30
0.0
 11
114.905072
 21
260.025108
 31
0.0
  0
LINE
  8
0
 10
114.905072
 20
260.025108
 30
0.0
 11
114.834474
 21
259.977066
 31
0.0
  0
LINE
  8
0
 10
110.955446
 20
257.089783
 30
0.0
 11
111.013077
 21
257.064528
 31
0.0
  0
LINE
  8
0
 10
111.43246
 20
257.444296
 30
0.0
 11
111.497628
 21
257.424641
 31
0.0
  0
LINE
  8
0
 10
110.893012
 20
256.932801
 30
0.0
 11
110.893012
 21
257.047809
 31
0.0
  0
LINE
  8
0
 10
117.599375
 20
261.878723
 30
0.0
 11
117.599375
 21
261.959403
 31
0.0
  0
LINE
  8
0
 10
117.599375
 20
261.959403
 30
0.0
 11
117.534207
 21
261.979057
 31
0.0
  0
LINE
  8
0
 10
117.534207
 20
261.979057
 30
0.0
 11
117.463609
 21
261.931015
 31
0.0
  0
LINE
  8
0
 10
111.361862
 20
257.396253
 30
0.0
 11
110.893012
 21
257.047809
 31
0.0
  0
LINE
  8
0
 10
111.361862
 20
257.396253
 30
0.0
 11
111.43246
 21
257.444296
 31
0.0
  0
LINE
  8
0
 10
111.43246
 20
257.444296
 30
0.0
 11
110.955446
 21
257.089783
 31
0.0
  0
LINE
  8
0
 10
110.893012
 20
257.047809
 30
0.0
 11
110.955446
 21
257.089783
 31
0.0
  0
LINE
  8
0
 10
111.013077
 20
257.064528
 30
0.0
 11
111.013077
 21
256.983848
 31
0.0
  0
LINE
  8
0
 10
111.013077
 20
257.064528
 30
0.0
 11
111.497628
 21
257.424641
 31
0.0
  0
LINE
  8
0
 10
111.497628
 20
257.424641
 30
0.0
 11
111.497628
 21
257.343961
 31
0.0
  0
LINE
  8
0
 10
111.013077
 20
256.983848
 30
0.0
 11
111.497628
 21
257.343961
 31
0.0
  0
LINE
  8
0
 10
119.009775
 20
262.58616
 30
0.0
 11
119.009775
 21
257.794902
 31
0.0
  0
LINE
  8
0
 10
109.765808
 20
254.937549
 30
0.0
 11
109.765808
 21
254.617544
 31
0.0
  0
LINE
  8
0
 10
109.765808
 20
254.937549
 30
0.0
 11
109.820104
 21
254.977901
 31
0.0
  0
LINE
  8
0
 10
109.684553
 20
254.722513
 30
0.0
 11
109.704409
 21
254.651284
 31
0.0
  0
LINE
  8
0
 10
109.704409
 20
254.651284
 30
0.0
 11
109.765808
 21
254.617544
 31
0.0
  0
LINE
  8
0
 10
109.765808
 20
254.617544
 30
0.0
 11
109.820104
 21
254.657896
 31
0.0
  0
LINE
  8
0
 10
110.028178
 20
251.122286
 30
0.0
 11
109.820104
 21
251.191851
 31
0.0
  0
LINE
  8
0
 10
109.820104
 20
251.191851
 30
0.0
 11
109.820104
 21
252.311191
 31
0.0
  0
LINE
  8
0
 10
109.820104
 20
252.631196
 30
0.0
 11
109.820104
 21
254.657896
 31
0.0
  0
LINE
  8
0
 10
109.820104
 20
254.657896
 30
0.0
 11
109.820104
 21
254.977901
 31
0.0
  0
LINE
  8
0
 10
109.820104
 20
256.097241
 30
0.0
 11
110.028178
 21
256.020196
 31
0.0
  0
LINE
  8
0
 10
109.684553
 20
252.660637
 30
0.0
 11
109.761951
 21
252.718158
 31
0.0
  0
LINE
  8
0
 10
109.684553
 20
252.363963
 30
0.0
 11
109.684553
 21
252.660637
 31
0.0
  0
LINE
  8
0
 10
109.704409
 20
252.6077
 30
0.0
 11
109.684553
 21
252.660637
 31
0.0
  0
LINE
  8
0
 10
109.704409
 20
252.298893
 30
0.0
 11
109.704409
 21
252.6077
 31
0.0
  0
LINE
  8
0
 10
109.765808
 20
252.590844
 30
0.0
 11
109.704409
 21
252.6077
 31
0.0
  0
LINE
  8
0
 10
109.820104
 20
252.631196
 30
0.0
 11
109.820104
 21
252.311191
 31
0.0
  0
LINE
  8
0
 10
109.765808
 20
252.270839
 30
0.0
 11
109.765808
 21
252.590844
 31
0.0
  0
LINE
  8
0
 10
109.765808
 20
252.590844
 30
0.0
 11
109.820104
 21
252.631196
 31
0.0
  0
LINE
  8
0
 10
109.704409
 20
252.298893
 30
0.0
 11
109.684553
 21
252.363963
 31
0.0
  0
LINE
  8
0
 10
109.765808
 20
252.270839
 30
0.0
 11
109.704409
 21
252.298893
 31
0.0
  0
LINE
  8
0
 10
109.765808
 20
252.270839
 30
0.0
 11
109.820104
 21
252.311191
 31
0.0
  0
LINE
  8
0
 10
114.275893
 20
259.561934
 30
0.0
 11
114.275893
 21
259.446926
 31
0.0
  0
LINE
  8
0
 10
114.338326
 20
259.603908
 30
0.0
 11
114.275893
 21
259.561934
 31
0.0
  0
LINE
  8
0
 10
114.395958
 20
259.578653
 30
0.0
 11
114.338326
 21
259.603908
 31
0.0
  0
LINE
  8
0
 10
114.395958
 20
259.497973
 30
0.0
 11
114.395958
 21
259.578653
 31
0.0
  0
LINE
  8
0
 10
113.740114
 20
255.042148
 30
0.0
 11
113.733197
 21
255.044901
 31
0.0
  0
LINE
  8
0
 10
110.028178
 20
251.122286
 30
0.0
 11
110.028178
 21
256.020196
 31
0.0
  0
LINE
  8
0
 10
110.114338
 20
251.183897
 30
0.0
 11
110.114338
 21
255.975155
 31
0.0
  0
LINE
  8
0
 10
118.995389
 20
262.684543
 30
0.0
 11
118.792348
 21
262.76533
 31
0.0
  0
LINE
  8
0
 10
109.820104
 20
256.097241
 30
0.0
 11
109.820104
 21
254.977901
 31
0.0
  0
LINE
  8
0
 10
111.013077
 20
256.983848
 30
0.0
 11
109.820104
 21
256.097241
 31
0.0
  0
LINE
  8
0
 10
110.114338
 20
255.975155
 30
0.0
 11
119.009775
 21
262.58616
 31
0.0
  0
LINE
  8
0
 10
110.028178
 20
256.020196
 30
0.0
 11
118.995389
 21
262.684543
 31
0.0
  0
LINE
  8
0
 10
119.009775
 20
257.794902
 30
0.0
 11
110.114338
 21
251.183897
 31
0.0
  0
LINE
  8
0
 10
109.820298
 20
252.7239
 30
0.0
 11
109.790559
 21
252.724464
 31
0.0
  0
LINE
  8
0
 10
109.790559
 20
252.724464
 30
0.0
 11
109.761951
 21
252.718158
 31
0.0
  0
LINE
  8
0
 10
110.114338
 20
251.183897
 30
0.0
 11
110.074509
 21
251.133183
 31
0.0
  0
LINE
  8
0
 10
110.074509
 20
251.133183
 30
0.0
 11
110.028178
 21
251.122286
 31
0.0
  0
LINE
  8
0
 10
109.820298
 20
255.070605
 30
0.0
 11
109.790559
 21
255.071169
 31
0.0
  0
LINE
  8
0
 10
109.790559
 20
255.071169
 30
0.0
 11
109.761951
 21
255.064864
 31
0.0
  0
LINE
  8
0
 10
110.114338
 20
255.975155
 30
0.0
 11
110.074509
 21
255.999206
 31
0.0
  0
LINE
  8
0
 10
110.074509
 20
255.999206
 30
0.0
 11
110.028178
 21
256.020196
 31
0.0
  0
LINE
  8
0
 10
110.907413
 20
256.905269
 30
0.0
 11
110.899004
 21
256.918553
 31
0.0
  0
LINE
  8
0
 10
110.899004
 20
256.918553
 30
0.0
 11
110.893012
 21
256.932801
 31
0.0
  0
LINE
  8
0
 10
113.740114
 20
255.042148
 30
0.0
 11
113.735039
 21
255.0415
 31
0.0
  0
LINE
  8
0
 10
113.735039
 20
255.0415
 30
0.0
 11
113.732937
 21
255.047479
 31
0.0
  0
LINE
  8
0
 10
113.877741
 20
256.048261
 30
0.0
 11
113.870621
 21
256.054053
 31
0.0
  0
LINE
  8
0
 10
113.870621
 20
256.054053
 30
0.0
 11
113.867687
 21
256.062603
 31
0.0
  0
LINE
  8
0
 10
114.290507
 20
256.355024
 30
0.0
 11
114.286696
 21
256.35735
 31
0.0
  0
LINE
  8
0
 10
114.286696
 20
256.35735
 30
0.0
 11
114.283495
 21
256.360884
 31
0.0
  0
LINE
  8
0
 10
114.283495
 20
256.360884
 30
0.0
 11
114.281281
 21
256.365074
 31
0.0
  0
LINE
  8
0
 10
114.281281
 20
256.365074
 30
0.0
 11
114.280452
 21
256.369366
 31
0.0
  0
LINE
  8
0
 10
113.740114
 20
257.506189
 30
0.0
 11
113.735039
 21
257.499293
 31
0.0
  0
LINE
  8
0
 10
113.735039
 20
257.499293
 30
0.0
 11
113.732937
 21
257.490189
 31
0.0
  0
LINE
  8
0
 10
113.536549
 20
258.859218
 30
0.0
 11
113.528139
 21
258.872502
 31
0.0
  0
LINE
  8
0
 10
113.528139
 20
258.872502
 30
0.0
 11
113.522148
 21
258.88675
 31
0.0
  0
LINE
  8
0
 10
114.290294
 20
259.419394
 30
0.0
 11
114.281884
 21
259.432678
 31
0.0
  0
LINE
  8
0
 10
114.281884
 20
259.432678
 30
0.0
 11
114.275893
 21
259.446926
 31
0.0
  0
LINE
  8
0
 10
114.891969
 20
256.446056
 30
0.0
 11
114.897044
 21
256.452952
 31
0.0
  0
LINE
  8
0
 10
114.897044
 20
256.452952
 30
0.0
 11
114.899147
 21
256.462056
 31
0.0
  0
LINE
  8
0
 10
114.888969
 20
256.540455
 30
0.0
 11
114.896176
 21
256.534727
 31
0.0
  0
LINE
  8
0
 10
114.896176
 20
256.534727
 30
0.0
 11
114.899147
 21
256.526204
 31
0.0
  0
LINE
  8
0
 10
115.383999
 20
256.263868
 30
0.0
 11
115.389074
 21
256.270764
 31
0.0
  0
LINE
  8
0
 10
115.389074
 20
256.270764
 30
0.0
 11
115.391176
 21
256.279867
 31
0.0
  0
LINE
  8
0
 10
115.383999
 20
258.727909
 30
0.0
 11
115.389074
 21
258.728557
 31
0.0
  0
LINE
  8
0
 10
115.389074
 20
258.728557
 30
0.0
 11
115.391176
 21
258.722578
 31
0.0
  0
LINE
  8
0
 10
117.009161
 20
261.440031
 30
0.0
 11
117.000751
 21
261.453315
 31
0.0
  0
LINE
  8
0
 10
117.000751
 20
261.453315
 30
0.0
 11
116.99476
 21
261.467562
 31
0.0
  0
LINE
  8
0
 10
119.009775
 20
257.794902
 30
0.0
 11
119.019397
 21
257.7864
 31
0.0
  0
LINE
  8
0
 10
119.019397
 20
257.7864
 30
0.0
 11
119.020474
 21
257.781722
 31
0.0
  0
LINE
  8
0
 10
119.009775
 20
262.58616
 30
0.0
 11
119.02026
 21
262.647605
 31
0.0
  0
LINE
  8
0
 10
119.02026
 20
262.647605
 30
0.0
 11
118.995389
 21
262.684543
 31
0.0
  0
ENDSEC
  0
EOF
