  0
SECTION
  2
HEADER
  9
$ACADVER
  1
AC1009
  9
$INSBASE
 10
0.0
 20
0.0
 30
0.0
  9
$EXTMIN
 10
127.749881
 20
260.67968
 30
0.0
  9
$EXTMAX
 10
137.086436
 20
272.322724
 30
0.0
  9
$LIMMIN
 10
127.749881
 20
260.67968
  9
$LIMMAX
 10
137.086436
 20
272.322724
  9
$ORTHOMODE
 70
     0
  9
$REGENMODE
 70
     1
  9
$FILLMODE
 70
     1
  9
$QTEXTMODE
 70
     0
  9
$MIRRTEXT
 70
     1
  9
$DRAGMODE
 70
     2
  9
$LTSCALE
 40
1.0
  9
$OSMODE
 70
     0
  9
$ATTMODE
 70
     1
  9
$TEXTSIZE
 40
3.5
  9
$TRACEWID
 40
0.5
  9
$TEXTSTYLE
  7
STANDARD
  9
$CLAYER
  8
0
  9
$CELTYPE
  6
BYLAYER
  9
$CECOLOR
 62
   256
  9
$DIMSCALE
 40
1.0
  9
$DIMASZ
 40
0.18
  9
$DIMEXO
 40
0.0625
  9
$DIMDLI
 40
0.38
  9
$DIMRND
 40
0.0
  9
$DIMDLE
 40
0.0
  9
$DIMEXE
 40
0.18
  9
$DIMTP
 40
0.0
  9
$DIMTM
 40
0.0
  9
$DIMTXT
 40
0.18
  9
$DIMCEN
 40
0.09
  9
$DIMTSZ
 40
0.0
  9
$DIMTOL
 70
     0
  9
$DIMLIM
 70
     0
  9
$DIMTIH
 70
     1
  9
$DIMTOH
 70
     1
  9
$DIMSE1
 70
     0
  9
$DIMSE2
 70
     0
  9
$DIMTAD
 70
     0
  9
$DIMZIN
 70
     0
  9
$DIMBLK
  1

  9
$DIMASO
 70
     1
  9
$DIMSHO
 70
     1
  9
$DIMPOST
  1

  9
$DIMAPOST
  1

  9
$DIMALT
 70
     0
  9
$DIMALTD
 70
     2
  9
$DIMALTF
 40
25.4
  9
$DIMLFAC
 40
1.0
  9
$DIMTOFL
 70
     0
  9
$DIMTVP
 40
0.0
  9
$DIMTIX
 70
     0
  9
$DIMSOXD
 70
     0
  9
$DIMSAH
 70
     0
  9
$DIMBLK1
  1

  9
$DIMBLK2
  1

  9
$DIMSTYLE
  2
*UNNAMED
  9
$DIMCLRD
 70
     0
  9
$DIMCLRE
 70
     0
  9
$DIMCLRT
 70
     0
  9
$DIMTFAC
 40
1.0
  9
$DIMGAP
 40
0.09
  9
$LUNITS
 70
     2
  9
$LUPREC
 70
     4
  9
$SKETCHINC
 40
0.1
  9
$FILLETRAD
 40
2.0
  9
$AUNITS
 70
     0
  9
$AUPREC
 70
     0
  9
$MENU
  1
ACAD
  9
$ELEVATION
 40
0.0
  9
$PELEVATION
 40
0.0
  9
$THICKNESS
 40
0.0
  9
$LIMCHECK
 70
     0
  9
$BLIPMODE
 70
     1
  9
$CHAMFERA
 40
0.0
  9
$CHAMFERB
 40
0.0
  9
$SKPOLY
 70
     0
  9
$TDCREATE
 40
2450948.656693981
  9
$TDUPDATE
 40
2450948.656693981
  9
$TDINDWG
 40
0.0000000000
  9
$TDUSRTIMER
 40
0.0000000000
  9
$USRTIMER
 70
     1
  9
$ANGBASE
 50
0.0
  9
$ANGDIR
 70
     0
  9
$PDMODE
 70
     0
  9
$PDSIZE
 40
0.0
  9
$PLINEWID
 40
0.0
  9
$COORDS
 70
     2
  9
$SPLFRAME
 70
     0
  9
$SPLINETYPE
 70
     6
  9
$SPLINESEGS
 70
     8
  9
$ATTDIA
 70
     0
  9
$ATTREQ
 70
     1
  9
$HANDLING
 70
     0
  9
$HANDSEED
  5
0
  9
$SURFTAB1
 70
     6
  9
$SURFTAB2
 70
     6
  9
$SURFTYPE
 70
     6
  9
$SURFU
 70
     6
  9
$SURFV
 70
     6
  9
$UCSNAME
  2

  9
$UCSORG
 10
0.0
 20
0.0
 30
0.0
  9
$UCSXDIR
 10
1.0
 20
0.0
 30
0.0
  9
$UCSYDIR
 10
0.0
 20
1.0
 30
0.0
  9
$PUCSNAME
  2

  9
$PUCSORG
 10
0.0
 20
0.0
 30
0.0
  9
$PUCSXDIR
 10
1.0
 20
0.0
 30
0.0
  9
$PUCSYDIR
 10
0.0
 20
1.0
 30
0.0
  9
$USERI1
 70
     0
  9
$USERI2
 70
     0
  9
$USERI3
 70
     0
  9
$USERI4
 70
     0
  9
$USERI5
 70
     0
  9
$USERR1
 40
0.0
  9
$USERR2
 40
0.0
  9
$USERR3
 40
0.0
  9
$USERR4
 40
0.0
  9
$USERR5
 40
0.0
  9
$WORLDVIEW
 70
     1
  9
$SHADEDGE
 70
     3
  9
$SHADEDIF
 70
    70
  9
$TILEMODE
 70
     1
  9
$MAXACTVP
 70
    16
  9
$PINSBASE
 10
0.0
 20
0.0
 30
0.0
  9
$PLIMCHECK
 70
     0
  9
$PEXTMIN
 10
1.000000E+20
 20
1.000000E+20
 30
1.000000E+20
  9
$PEXTMAX
 10
-1.000000E+20
 20
-1.000000E+20
 30
-1.000000E+20
  9
$PLIMMIN
 10
0.0
 20
0.0
  9
$PLIMMAX
 10
420.0
 20
297.0
  9
$UNITMODE
 70
     0
  9
$VISRETAIN
 70
     0
  9
$PLINEGEN
 70
     0
  9
$PSLTSCALE
 70
     1
  9
$TREEDEPTH
 70
  3020
  9
$DWGCODEPAGE
  3
iso8859-1
  0
ENDSEC
  0
SECTION
  2
TABLES
  0
TABLE
  2
VPORT
 70
     2
  0
VPORT
  2
*ACTIVE
 70
     0
 10
0.0
 20
0.0
 11
1.0
 21
1.0
 12
137.711555
 22
266.722018
 13
0.0
 23
0.0
 14
1.0
 24
1.0
 15
0.0
 25
0.0
 16
0.0
 26
0.0
 36
1.0
 17
0.0
 27
0.0
 37
0.0
 40
13.739684
 41
1.748359
 42
50.0
 43
0.0
 44
0.0
 50
0.0
 51
0.0
 71
     0
 72
   100
 73
     1
 74
     0
 75
     0
 76
     0
 77
     0
 78
     0
  0
ENDTAB
  0
TABLE
  2
LTYPE
 70
     1
  0
LTYPE
  2
CONTINUOUS
 70
    64
  3
Solid line
 72
    65
 73
     0
 40
0.0
  0
ENDTAB
  0
TABLE
  2
LAYER
 70
     1
  0
LAYER
  2
0
 70
    64
 62
     7
  6
CONTINUOUS
  0
ENDTAB
  0
TABLE
  2
STYLE
 70
     1
  0
STYLE
  2
STANDARD
 70
     0
 40
0.0
 41
1.0
 50
0.0
 71
     0
 42
3.5
  3
txt
  4

  0
ENDTAB
  0
TABLE
  2
VIEW
 70
     0
  0
ENDTAB
  0
TABLE
  2
UCS
 70
     0
  0
ENDTAB
  0
TABLE
  2
APPID
 70
     1
  0
APPID
  2
ACAD
 70
    64
  0
ENDTAB
  0
TABLE
  2
DIMSTYLE
 70
     0
  0
ENDTAB
  0
ENDSEC
  0
SECTION
  2
BLOCKS
  0
ENDSEC
  0
SECTION
  2
ENTITIES
  0
LINE
  8
0
 10
134.209261
 20
267.412916
 30
0.0
 11
134.209261
 21
267.819336
 31
0.0
  0
LINE
  8
0
 10
134.876188
 20
269.721052
 30
0.0
 11
134.858291
 21
269.756732
 31
0.0
  0
LINE
  8
0
 10
136.184996
 20
269.381425
 30
0.0
 11
136.082663
 21
269.41885
 31
0.0
  0
LINE
  8
0
 10
136.184996
 20
269.381425
 30
0.0
 11
136.238022
 21
269.463615
 31
0.0
  0
LINE
  8
0
 10
136.238022
 20
269.463615
 30
0.0
 11
136.135689
 21
269.50104
 31
0.0
  0
LINE
  8
0
 10
136.135689
 20
269.50104
 30
0.0
 11
136.082663
 21
269.41885
 31
0.0
  0
LINE
  8
0
 10
136.147463
 20
269.25979
 30
0.0
 11
136.045131
 21
269.297214
 31
0.0
  0
LINE
  8
0
 10
135.041607
 20
266.794694
 30
0.0
 11
135.315118
 21
266.997964
 31
0.0
  0
LINE
  8
0
 10
134.94973
 20
266.591847
 30
0.0
 11
134.978521
 21
266.692038
 31
0.0
  0
LINE
  8
0
 10
134.171729
 20
267.29128
 30
0.0
 11
134.118703
 21
267.20909
 31
0.0
  0
LINE
  8
0
 10
134.171729
 20
267.885184
 30
0.0
 11
134.118703
 21
267.888557
 31
0.0
  0
LINE
  8
0
 10
134.94973
 20
269.741023
 30
0.0
 11
134.978521
 21
269.683627
 31
0.0
  0
LINE
  8
0
 10
135.041607
 20
269.674741
 30
0.0
 11
135.315118
 21
269.878012
 31
0.0
  0
LINE
  8
0
 10
135.406995
 20
270.080858
 30
0.0
 11
135.378204
 21
269.980668
 31
0.0
  0
LINE
  8
0
 10
136.147463
 20
268.85337
 30
0.0
 11
136.147463
 21
269.25979
 31
0.0
  0
LINE
  8
0
 10
136.184996
 20
268.787521
 30
0.0
 11
136.238022
 21
268.784148
 31
0.0
  0
LINE
  8
0
 10
135.406995
 20
266.931682
 30
0.0
 11
135.378204
 21
266.989079
 31
0.0
  0
LINE
  8
0
 10
134.101583
 20
267.456099
 30
0.0
 11
134.052033
 21
267.476683
 31
0.0
  0
LINE
  8
0
 10
134.082548
 20
267.59024
 30
0.0
 11
134.095283
 21
267.588157
 31
0.0
  0
LINE
  8
0
 10
136.045131
 20
269.297214
 30
0.0
 11
136.045131
 21
269.094004
 31
0.0
  0
LINE
  8
0
 10
136.045131
 20
268.890794
 30
0.0
 11
136.045131
 21
269.094004
 31
0.0
  0
LINE
  8
0
 10
136.147463
 20
268.85337
 30
0.0
 11
136.045131
 21
268.890794
 31
0.0
  0
LINE
  8
0
 10
136.289179
 20
269.691097
 30
0.0
 11
136.186847
 21
269.728522
 31
0.0
  0
LINE
  8
0
 10
134.94973
 20
269.741023
 30
0.0
 11
134.87764
 21
269.767388
 31
0.0
  0
LINE
  8
0
 10
134.978521
 20
269.683627
 30
0.0
 11
134.876188
 21
269.721052
 31
0.0
  0
LINE
  8
0
 10
135.561584
 20
269.239845
 30
0.0
 11
135.540734
 21
269.241861
 31
0.0
  0
LINE
  8
0
 10
135.533541
 20
269.257369
 30
0.0
 11
135.534162
 21
269.25783
 31
0.0
  0
LINE
  8
0
 10
135.61378
 20
269.491875
 30
0.0
 11
136.056192
 21
269.362324
 31
0.0
  0
LINE
  8
0
 10
135.667083
 20
269.588941
 30
0.0
 11
135.540734
 21
269.672614
 31
0.0
  0
LINE
  8
0
 10
135.532544
 20
269.310788
 30
0.0
 11
136.045131
 21
269.094004
 31
0.0
  0
LINE
  8
0
 10
135.07603
 20
266.933754
 30
0.0
 11
135.212785
 21
267.035389
 31
0.0
  0
LINE
  8
0
 10
136.289179
 20
268.632706
 30
0.0
 11
136.186847
 21
268.670131
 31
0.0
  0
LINE
  8
0
 10
135.534498
 20
266.950425
 30
0.0
 11
135.432166
 21
266.987849
 31
0.0
  0
LINE
  8
0
 10
135.315118
 20
266.997964
 30
0.0
 11
135.212785
 21
267.035389
 31
0.0
  0
LINE
  8
0
 10
134.455765
 20
266.910509
 30
0.0
 11
134.877035
 21
266.732346
 31
0.0
  0
LINE
  8
0
 10
134.537001
 20
267.091596
 30
0.0
 11
135.07603
 21
266.933754
 31
0.0
  0
LINE
  8
0
 10
134.265481
 20
266.829911
 30
0.0
 11
134.41744
 21
266.803326
 31
0.0
  0
LINE
  8
0
 10
134.876188
 20
266.729463
 30
0.0
 11
134.847398
 21
266.629272
 31
0.0
  0
LINE
  8
0
 10
135.07603
 20
266.933754
 30
0.0
 11
134.939275
 21
266.832118
 31
0.0
  0
LINE
  8
0
 10
135.041607
 20
266.794694
 30
0.0
 11
134.939275
 21
266.832118
 31
0.0
  0
LINE
  8
0
 10
134.978521
 20
266.692038
 30
0.0
 11
134.876188
 21
266.729463
 31
0.0
  0
LINE
  8
0
 10
134.822227
 20
266.421071
 30
0.0
 11
134.719894
 21
266.458496
 31
0.0
  0
LINE
  8
0
 10
134.855101
 20
266.437864
 30
0.0
 11
134.752768
 21
266.475289
 31
0.0
  0
LINE
  8
0
 10
134.94973
 20
266.591847
 30
0.0
 11
134.847398
 21
266.629272
 31
0.0
  0
LINE
  8
0
 10
135.501624
 20
266.918354
 30
0.0
 11
135.399292
 21
266.955779
 31
0.0
  0
LINE
  8
0
 10
136.073983
 20
268.826749
 30
0.0
 11
136.176315
 21
268.789324
 31
0.0
  0
LINE
  8
0
 10
134.896341
 20
269.701439
 30
0.0
 11
134.998673
 21
269.664014
 31
0.0
  0
LINE
  8
0
 10
135.358051
 20
267.008691
 30
0.0
 11
135.255719
 21
267.046116
 31
0.0
  0
LINE
  8
0
 10
135.109447
 20
266.958586
 30
0.0
 11
134.582991
 21
267.104569
 31
0.0
  0
LINE
  8
0
 10
135.562672
 20
269.239348
 30
0.0
 11
136.045128
 21
269.017664
 31
0.0
  0
LINE
  8
0
 10
135.180997
 20
269.854885
 30
0.0
 11
135.131447
 21
269.875469
 31
0.0
  0
LINE
  8
0
 10
135.161962
 20
269.989026
 30
0.0
 11
135.174697
 21
269.986943
 31
0.0
  0
LINE
  8
0
 10
135.180997
 20
266.650913
 30
0.0
 11
135.131447
 21
266.671496
 31
0.0
  0
LINE
  8
0
 10
135.161962
 20
266.785053
 30
0.0
 11
135.174697
 21
266.782971
 31
0.0
  0
LINE
  8
0
 10
136.277334
 20
269.06014
 30
0.0
 11
136.227784
 21
269.080724
 31
0.0
  0
LINE
  8
0
 10
136.258299
 20
269.194281
 30
0.0
 11
136.271034
 21
269.192198
 31
0.0
  0
LINE
  8
0
 10
129.078405
 20
266.541242
 30
0.0
 11
127.885431
 21
265.654636
 31
0.0
  0
LINE
  8
0
 10
127.885431
 20
265.654636
 30
0.0
 11
127.885431
 21
264.535296
 31
0.0
  0
LINE
  8
0
 10
127.885431
 20
264.21529
 30
0.0
 11
127.885431
 21
264.535296
 31
0.0
  0
LINE
  8
0
 10
127.831136
 20
264.494944
 30
0.0
 11
127.885431
 21
264.535296
 31
0.0
  0
LINE
  8
0
 10
127.831136
 20
264.494944
 30
0.0
 11
127.831136
 21
264.174938
 31
0.0
  0
LINE
  8
0
 10
127.831136
 20
264.174938
 30
0.0
 11
127.885431
 21
264.21529
 31
0.0
  0
LINE
  8
0
 10
128.093506
 20
260.67968
 30
0.0
 11
128.093506
 21
265.57759
 31
0.0
  0
LINE
  8
0
 10
127.885431
 20
265.654636
 30
0.0
 11
128.093506
 21
265.57759
 31
0.0
  0
LINE
  8
0
 10
127.885431
 20
262.18859
 30
0.0
 11
127.885431
 21
264.21529
 31
0.0
  0
LINE
  8
0
 10
127.885431
 20
262.18859
 30
0.0
 11
127.885431
 21
261.868585
 31
0.0
  0
LINE
  8
0
 10
127.885431
 20
260.749245
 30
0.0
 11
127.885431
 21
261.868585
 31
0.0
  0
LINE
  8
0
 10
128.093506
 20
260.67968
 30
0.0
 11
127.885431
 21
260.749245
 31
0.0
  0
LINE
  8
0
 10
128.093506
 20
265.57759
 30
0.0
 11
137.060716
 21
272.241937
 31
0.0
  0
LINE
  8
0
 10
137.060716
 20
272.241937
 30
0.0
 11
136.857676
 21
272.322724
 31
0.0
  0
LINE
  8
0
 10
135.664703
 20
271.436117
 30
0.0
 11
136.857676
 21
272.322724
 31
0.0
  0
LINE
  8
0
 10
135.664703
 20
271.436117
 30
0.0
 11
135.180152
 21
271.076004
 31
0.0
  0
LINE
  8
0
 10
133.035567
 20
269.482168
 30
0.0
 11
135.180152
 21
271.076004
 31
0.0
  0
LINE
  8
0
 10
133.035567
 20
269.482168
 30
0.0
 11
132.461285
 21
269.055367
 31
0.0
  0
LINE
  8
0
 10
132.281822
 20
268.921992
 30
0.0
 11
132.461285
 21
269.055367
 31
0.0
  0
LINE
  8
0
 10
131.70754
 20
268.495191
 30
0.0
 11
132.281822
 21
268.921992
 31
0.0
  0
LINE
  8
0
 10
131.70754
 20
268.495191
 30
0.0
 11
129.562955
 21
266.901356
 31
0.0
  0
LINE
  8
0
 10
129.078405
 20
266.541242
 30
0.0
 11
129.562955
 21
266.901356
 31
0.0
  0
LINE
  8
0
 10
135.664703
 20
271.516797
 30
0.0
 11
135.599535
 21
271.536452
 31
0.0
  0
LINE
  8
0
 10
135.122521
 20
271.181939
 30
0.0
 11
135.599535
 21
271.536452
 31
0.0
  0
LINE
  8
0
 10
135.180152
 20
271.156684
 30
0.0
 11
135.122521
 21
271.181939
 31
0.0
  0
LINE
  8
0
 10
135.664703
 20
271.516797
 30
0.0
 11
135.180152
 21
271.156684
 31
0.0
  0
LINE
  8
0
 10
132.9704
 20
269.582503
 30
0.0
 11
132.899802
 21
269.53446
 31
0.0
  0
LINE
  8
0
 10
133.035567
 20
269.562848
 30
0.0
 11
132.9704
 21
269.582503
 31
0.0
  0
LINE
  8
0
 10
133.035567
 20
269.482168
 30
0.0
 11
133.035567
 21
269.562848
 31
0.0
  0
LINE
  8
0
 10
132.9704
 20
269.582503
 30
0.0
 11
132.403654
 21
269.161303
 31
0.0
  0
LINE
  8
0
 10
132.461285
 20
269.136047
 30
0.0
 11
132.403654
 21
269.161303
 31
0.0
  0
LINE
  8
0
 10
133.035567
 20
269.562848
 30
0.0
 11
132.461285
 21
269.136047
 31
0.0
  0
LINE
  8
0
 10
132.461285
 20
269.055367
 30
0.0
 11
132.461285
 21
269.136047
 31
0.0
  0
LINE
  8
0
 10
132.403654
 20
269.161303
 30
0.0
 11
132.341221
 21
269.119328
 31
0.0
  0
LINE
  8
0
 10
132.341221
 20
269.119328
 30
0.0
 11
132.341221
 21
269.00432
 31
0.0
  0
LINE
  8
0
 10
131.70754
 20
268.575871
 30
0.0
 11
132.281822
 21
269.002672
 31
0.0
  0
LINE
  8
0
 10
132.216655
 20
269.022326
 30
0.0
 11
132.281822
 21
269.002672
 31
0.0
  0
LINE
  8
0
 10
131.649909
 20
268.601126
 30
0.0
 11
132.216655
 21
269.022326
 31
0.0
  0
LINE
  8
0
 10
129.42719
 20
266.953648
 30
0.0
 11
129.497788
 21
267.00169
 31
0.0
  0
LINE
  8
0
 10
129.497788
 20
267.00169
 30
0.0
 11
129.562955
 21
266.982036
 31
0.0
  0
LINE
  8
0
 10
129.562955
 20
266.982036
 30
0.0
 11
129.562955
 21
266.901356
 31
0.0
  0
LINE
  8
0
 10
129.078405
 20
266.621922
 30
0.0
 11
129.562955
 21
266.982036
 31
0.0
  0
LINE
  8
0
 10
129.078405
 20
266.621922
 30
0.0
 11
129.078405
 21
266.541242
 31
0.0
  0
LINE
  8
0
 10
129.497788
 20
267.00169
 30
0.0
 11
129.020774
 21
266.647177
 31
0.0
  0
LINE
  8
0
 10
129.020774
 20
266.647177
 30
0.0
 11
129.078405
 21
266.621922
 31
0.0
  0
LINE
  8
0
 10
128.95834
 20
266.605203
 30
0.0
 11
129.020774
 21
266.647177
 31
0.0
  0
LINE
  8
0
 10
128.95834
 20
266.490195
 30
0.0
 11
128.95834
 21
266.605203
 31
0.0
  0
LINE
  8
0
 10
129.42719
 20
266.953648
 30
0.0
 11
128.95834
 21
266.605203
 31
0.0
  0
LINE
  8
0
 10
132.146056
 20
268.974284
 30
0.0
 11
132.216655
 21
269.022326
 31
0.0
  0
LINE
  8
0
 10
132.281822
 20
269.002672
 30
0.0
 11
132.281822
 21
268.921992
 31
0.0
  0
LINE
  8
0
 10
131.587475
 20
268.559152
 30
0.0
 11
132.146056
 21
268.974284
 31
0.0
  0
LINE
  8
0
 10
132.899802
 20
269.53446
 30
0.0
 11
132.341221
 21
269.119328
 31
0.0
  0
LINE
  8
0
 10
135.180152
 20
271.076004
 30
0.0
 11
135.180152
 21
271.156684
 31
0.0
  0
LINE
  8
0
 10
135.122521
 20
271.181939
 30
0.0
 11
135.060087
 21
271.139965
 31
0.0
  0
LINE
  8
0
 10
135.060087
 20
271.139965
 30
0.0
 11
135.060087
 21
271.024957
 31
0.0
  0
LINE
  8
0
 10
135.599535
 20
271.536452
 30
0.0
 11
135.528937
 21
271.488409
 31
0.0
  0
LINE
  8
0
 10
135.060087
 20
271.139965
 30
0.0
 11
135.528937
 21
271.488409
 31
0.0
  0
LINE
  8
0
 10
135.664703
 20
271.436117
 30
0.0
 11
135.664703
 21
271.516797
 31
0.0
  0
LINE
  8
0
 10
127.769736
 20
264.511799
 30
0.0
 11
127.831136
 21
264.494944
 31
0.0
  0
LINE
  8
0
 10
127.769736
 20
264.511799
 30
0.0
 11
127.769736
 21
264.208678
 31
0.0
  0
LINE
  8
0
 10
127.769736
 20
264.208678
 30
0.0
 11
127.831136
 21
264.174938
 31
0.0
  0
LINE
  8
0
 10
137.075102
 20
267.352296
 30
0.0
 11
128.179666
 21
260.741291
 31
0.0
  0
LINE
  8
0
 10
137.075102
 20
272.143554
 30
0.0
 11
137.075102
 21
267.352296
 31
0.0
  0
LINE
  8
0
 10
128.179666
 20
265.532549
 30
0.0
 11
137.075102
 21
272.143554
 31
0.0
  0
LINE
  8
0
 10
128.179666
 20
260.741291
 30
0.0
 11
128.179666
 21
265.532549
 31
0.0
  0
LINE
  8
0
 10
127.827279
 20
264.622258
 30
0.0
 11
127.749881
 21
264.564737
 31
0.0
  0
LINE
  8
0
 10
127.749881
 20
264.564737
 30
0.0
 11
127.769736
 21
264.511799
 31
0.0
  0
LINE
  8
0
 10
127.749881
 20
264.279908
 30
0.0
 11
127.769736
 21
264.208678
 31
0.0
  0
LINE
  8
0
 10
127.749881
 20
264.564737
 30
0.0
 11
127.749881
 21
264.279908
 31
0.0
  0
LINE
  8
0
 10
127.831136
 20
261.828233
 30
0.0
 11
127.885431
 21
261.868585
 31
0.0
  0
LINE
  8
0
 10
127.831136
 20
261.828233
 30
0.0
 11
127.769736
 21
261.856287
 31
0.0
  0
LINE
  8
0
 10
127.769736
 20
261.856287
 30
0.0
 11
127.749881
 21
261.921357
 31
0.0
  0
LINE
  8
0
 10
127.749881
 20
261.921357
 30
0.0
 11
127.749881
 21
262.218031
 31
0.0
  0
LINE
  8
0
 10
127.749881
 20
262.218031
 30
0.0
 11
127.827279
 21
262.275553
 31
0.0
  0
LINE
  8
0
 10
127.769736
 20
261.856287
 30
0.0
 11
127.769736
 21
262.165094
 31
0.0
  0
LINE
  8
0
 10
127.769736
 20
262.165094
 30
0.0
 11
127.749881
 21
262.218031
 31
0.0
  0
LINE
  8
0
 10
127.831136
 20
262.148238
 30
0.0
 11
127.769736
 21
262.165094
 31
0.0
  0
LINE
  8
0
 10
127.831136
 20
261.828233
 30
0.0
 11
127.831136
 21
262.148238
 31
0.0
  0
LINE
  8
0
 10
127.831136
 20
262.148238
 30
0.0
 11
127.885431
 21
262.18859
 31
0.0
  0
LINE
  8
0
 10
137.086436
 20
267.34038
 30
0.0
 11
137.086436
 21
272.192896
 31
0.0
  0
LINE
  8
0
 10
128.141198
 20
260.69157
 30
0.0
 11
137.0858
 21
267.339115
 31
0.0
  0
LINE
  8
0
 10
131.658282
 20
265.518986
 30
0.0
 11
131.658282
 21
265.925406
 31
0.0
  0
LINE
  8
0
 10
132.325209
 20
267.827122
 30
0.0
 11
132.307312
 21
267.862802
 31
0.0
  0
LINE
  8
0
 10
133.634017
 20
267.487495
 30
0.0
 11
133.531684
 21
267.52492
 31
0.0
  0
LINE
  8
0
 10
133.634017
 20
267.487495
 30
0.0
 11
133.687043
 21
267.569685
 31
0.0
  0
LINE
  8
0
 10
133.687043
 20
267.569685
 30
0.0
 11
133.58471
 21
267.60711
 31
0.0
  0
LINE
  8
0
 10
133.58471
 20
267.60711
 30
0.0
 11
133.531684
 21
267.52492
 31
0.0
  0
LINE
  8
0
 10
133.596484
 20
267.36586
 30
0.0
 11
133.494152
 21
267.403284
 31
0.0
  0
LINE
  8
0
 10
132.490628
 20
264.900764
 30
0.0
 11
132.764139
 21
265.104034
 31
0.0
  0
LINE
  8
0
 10
132.398751
 20
264.697917
 30
0.0
 11
132.427542
 21
264.798108
 31
0.0
  0
LINE
  8
0
 10
131.62075
 20
265.39735
 30
0.0
 11
131.567724
 21
265.31516
 31
0.0
  0
LINE
  8
0
 10
131.62075
 20
265.991254
 30
0.0
 11
131.567724
 21
265.994627
 31
0.0
  0
LINE
  8
0
 10
132.398751
 20
267.847093
 30
0.0
 11
132.427542
 21
267.789697
 31
0.0
  0
LINE
  8
0
 10
132.490628
 20
267.780811
 30
0.0
 11
132.764139
 21
267.984082
 31
0.0
  0
LINE
  8
0
 10
132.856016
 20
268.186928
 30
0.0
 11
132.827225
 21
268.086738
 31
0.0
  0
LINE
  8
0
 10
133.596484
 20
266.95944
 30
0.0
 11
133.596484
 21
267.36586
 31
0.0
  0
LINE
  8
0
 10
133.634017
 20
266.893591
 30
0.0
 11
133.687043
 21
266.890218
 31
0.0
  0
LINE
  8
0
 10
132.856016
 20
265.037752
 30
0.0
 11
132.827225
 21
265.095149
 31
0.0
  0
LINE
  8
0
 10
131.550604
 20
265.562169
 30
0.0
 11
131.501054
 21
265.582753
 31
0.0
  0
LINE
  8
0
 10
131.531569
 20
265.69631
 30
0.0
 11
131.544304
 21
265.694227
 31
0.0
  0
LINE
  8
0
 10
133.494152
 20
267.403284
 30
0.0
 11
133.494152
 21
267.200074
 31
0.0
  0
LINE
  8
0
 10
133.494152
 20
266.996864
 30
0.0
 11
133.494152
 21
267.200074
 31
0.0
  0
LINE
  8
0
 10
133.596484
 20
266.95944
 30
0.0
 11
133.494152
 21
266.996864
 31
0.0
  0
LINE
  8
0
 10
133.7382
 20
267.797167
 30
0.0
 11
133.635868
 21
267.834592
 31
0.0
  0
LINE
  8
0
 10
132.398751
 20
267.847093
 30
0.0
 11
132.326661
 21
267.873458
 31
0.0
  0
LINE
  8
0
 10
132.427542
 20
267.789697
 30
0.0
 11
132.325209
 21
267.827122
 31
0.0
  0
LINE
  8
0
 10
133.010605
 20
267.345915
 30
0.0
 11
132.989755
 21
267.347931
 31
0.0
  0
LINE
  8
0
 10
132.982562
 20
267.363439
 30
0.0
 11
132.983183
 21
267.3639
 31
0.0
  0
LINE
  8
0
 10
133.062801
 20
267.597945
 30
0.0
 11
133.505213
 21
267.468394
 31
0.0
  0
LINE
  8
0
 10
133.116104
 20
267.695011
 30
0.0
 11
132.989755
 21
267.778684
 31
0.0
  0
LINE
  8
0
 10
132.981565
 20
267.416858
 30
0.0
 11
133.494152
 21
267.200074
 31
0.0
  0
LINE
  8
0
 10
132.525051
 20
265.039824
 30
0.0
 11
132.661806
 21
265.141459
 31
0.0
  0
LINE
  8
0
 10
133.7382
 20
266.738776
 30
0.0
 11
133.635868
 21
266.776201
 31
0.0
  0
LINE
  8
0
 10
132.983519
 20
265.056495
 30
0.0
 11
132.881187
 21
265.093919
 31
0.0
  0
LINE
  8
0
 10
132.764139
 20
265.104034
 30
0.0
 11
132.661806
 21
265.141459
 31
0.0
  0
LINE
  8
0
 10
131.904786
 20
265.016579
 30
0.0
 11
132.326056
 21
264.838416
 31
0.0
  0
LINE
  8
0
 10
131.986022
 20
265.197666
 30
0.0
 11
132.525051
 21
265.039824
 31
0.0
  0
LINE
  8
0
 10
131.714502
 20
264.935981
 30
0.0
 11
131.866461
 21
264.909396
 31
0.0
  0
LINE
  8
0
 10
132.325209
 20
264.835533
 30
0.0
 11
132.296419
 21
264.735342
 31
0.0
  0
LINE
  8
0
 10
132.525051
 20
265.039824
 30
0.0
 11
132.388296
 21
264.938188
 31
0.0
  0
LINE
  8
0
 10
132.490628
 20
264.900764
 30
0.0
 11
132.388296
 21
264.938188
 31
0.0
  0
LINE
  8
0
 10
132.427542
 20
264.798108
 30
0.0
 11
132.325209
 21
264.835533
 31
0.0
  0
LINE
  8
0
 10
132.271248
 20
264.527141
 30
0.0
 11
132.168915
 21
264.564566
 31
0.0
  0
LINE
  8
0
 10
132.304122
 20
264.543934
 30
0.0
 11
132.201789
 21
264.581359
 31
0.0
  0
LINE
  8
0
 10
132.398751
 20
264.697917
 30
0.0
 11
132.296419
 21
264.735342
 31
0.0
  0
LINE
  8
0
 10
132.950645
 20
265.024424
 30
0.0
 11
132.848313
 21
265.061849
 31
0.0
  0
LINE
  8
0
 10
133.523004
 20
266.932819
 30
0.0
 11
133.625336
 21
266.895394
 31
0.0
  0
LINE
  8
0
 10
132.345362
 20
267.807509
 30
0.0
 11
132.447694
 21
267.770084
 31
0.0
  0
LINE
  8
0
 10
132.807072
 20
265.114761
 30
0.0
 11
132.70474
 21
265.152186
 31
0.0
  0
LINE
  8
0
 10
132.558468
 20
265.064656
 30
0.0
 11
132.032012
 21
265.210639
 31
0.0
  0
LINE
  8
0
 10
133.011693
 20
267.345418
 30
0.0
 11
133.494149
 21
267.123734
 31
0.0
  0
LINE
  8
0
 10
132.630018
 20
267.960955
 30
0.0
 11
132.580468
 21
267.981539
 31
0.0
  0
LINE
  8
0
 10
132.610983
 20
268.095096
 30
0.0
 11
132.623718
 21
268.093013
 31
0.0
  0
LINE
  8
0
 10
132.630018
 20
264.756983
 30
0.0
 11
132.580468
 21
264.777566
 31
0.0
  0
LINE
  8
0
 10
132.610983
 20
264.891123
 30
0.0
 11
132.623718
 21
264.889041
 31
0.0
  0
LINE
  8
0
 10
133.726355
 20
267.16621
 30
0.0
 11
133.676805
 21
267.186794
 31
0.0
  0
LINE
  8
0
 10
133.70732
 20
267.300351
 30
0.0
 11
133.720055
 21
267.298268
 31
0.0
  0
LINE
  8
0
 10
131.649909
 20
268.601126
 30
0.0
 11
131.70754
 21
268.575871
 31
0.0
  0
LINE
  8
0
 10
131.70754
 20
268.575871
 30
0.0
 11
131.70754
 21
268.495191
 31
0.0
  0
LINE
  8
0
 10
131.587475
 20
268.559152
 30
0.0
 11
131.649909
 21
268.601126
 31
0.0
  0
LINE
  8
0
 10
131.587475
 20
268.444144
 30
0.0
 11
131.587475
 21
268.559152
 31
0.0
  0
LINE
  8
0
 10
129.112508
 20
263.625057
 30
0.0
 11
129.112508
 21
264.031477
 31
0.0
  0
LINE
  8
0
 10
129.779435
 20
265.933193
 30
0.0
 11
129.761538
 21
265.968873
 31
0.0
  0
LINE
  8
0
 10
131.088243
 20
265.593566
 30
0.0
 11
130.98591
 21
265.630991
 31
0.0
  0
LINE
  8
0
 10
131.088243
 20
265.593566
 30
0.0
 11
131.141269
 21
265.675756
 31
0.0
  0
LINE
  8
0
 10
131.141269
 20
265.675756
 30
0.0
 11
131.038936
 21
265.713181
 31
0.0
  0
LINE
  8
0
 10
131.038936
 20
265.713181
 30
0.0
 11
130.98591
 21
265.630991
 31
0.0
  0
LINE
  8
0
 10
131.05071
 20
265.471931
 30
0.0
 11
130.948378
 21
265.509355
 31
0.0
  0
LINE
  8
0
 10
129.944854
 20
263.006835
 30
0.0
 11
130.218365
 21
263.210105
 31
0.0
  0
LINE
  8
0
 10
129.852977
 20
262.803988
 30
0.0
 11
129.881768
 21
262.904179
 31
0.0
  0
LINE
  8
0
 10
129.074976
 20
263.503421
 30
0.0
 11
129.02195
 21
263.421231
 31
0.0
  0
LINE
  8
0
 10
129.074976
 20
264.097325
 30
0.0
 11
129.02195
 21
264.100698
 31
0.0
  0
LINE
  8
0
 10
129.852977
 20
265.953164
 30
0.0
 11
129.881768
 21
265.895768
 31
0.0
  0
LINE
  8
0
 10
129.944854
 20
265.886882
 30
0.0
 11
130.218365
 21
266.090153
 31
0.0
  0
LINE
  8
0
 10
130.310242
 20
266.292999
 30
0.0
 11
130.281451
 21
266.192809
 31
0.0
  0
LINE
  8
0
 10
131.05071
 20
265.065511
 30
0.0
 11
131.05071
 21
265.471931
 31
0.0
  0
LINE
  8
0
 10
131.088243
 20
264.999662
 30
0.0
 11
131.141269
 21
264.996289
 31
0.0
  0
LINE
  8
0
 10
130.310242
 20
263.143823
 30
0.0
 11
130.281451
 21
263.20122
 31
0.0
  0
LINE
  8
0
 10
129.00483
 20
263.66824
 30
0.0
 11
128.95528
 21
263.688824
 31
0.0
  0
LINE
  8
0
 10
128.985795
 20
263.802381
 30
0.0
 11
128.99853
 21
263.800298
 31
0.0
  0
LINE
  8
0
 10
130.948378
 20
265.509355
 30
0.0
 11
130.948378
 21
265.306145
 31
0.0
  0
LINE
  8
0
 10
130.948378
 20
265.102935
 30
0.0
 11
130.948378
 21
265.306145
 31
0.0
  0
LINE
  8
0
 10
131.05071
 20
265.065511
 30
0.0
 11
130.948378
 21
265.102935
 31
0.0
  0
LINE
  8
0
 10
131.192426
 20
265.903238
 30
0.0
 11
131.090094
 21
265.940663
 31
0.0
  0
LINE
  8
0
 10
129.852977
 20
265.953164
 30
0.0
 11
129.780887
 21
265.979529
 31
0.0
  0
LINE
  8
0
 10
129.881768
 20
265.895768
 30
0.0
 11
129.779435
 21
265.933193
 31
0.0
  0
LINE
  8
0
 10
130.464831
 20
265.451986
 30
0.0
 11
130.443981
 21
265.454002
 31
0.0
  0
LINE
  8
0
 10
130.436788
 20
265.46951
 30
0.0
 11
130.437409
 21
265.469971
 31
0.0
  0
LINE
  8
0
 10
130.517027
 20
265.704016
 30
0.0
 11
130.959439
 21
265.574465
 31
0.0
  0
LINE
  8
0
 10
130.57033
 20
265.801082
 30
0.0
 11
130.443981
 21
265.884755
 31
0.0
  0
LINE
  8
0
 10
130.435791
 20
265.522929
 30
0.0
 11
130.948378
 21
265.306145
 31
0.0
  0
LINE
  8
0
 10
129.979277
 20
263.145895
 30
0.0
 11
130.116032
 21
263.24753
 31
0.0
  0
LINE
  8
0
 10
131.192426
 20
264.844847
 30
0.0
 11
131.090094
 21
264.882272
 31
0.0
  0
LINE
  8
0
 10
130.437745
 20
263.162566
 30
0.0
 11
130.335413
 21
263.19999
 31
0.0
  0
LINE
  8
0
 10
130.218365
 20
263.210105
 30
0.0
 11
130.116032
 21
263.24753
 31
0.0
  0
LINE
  8
0
 10
129.359012
 20
263.12265
 30
0.0
 11
129.780282
 21
262.944487
 31
0.0
  0
LINE
  8
0
 10
129.440248
 20
263.303737
 30
0.0
 11
129.979277
 21
263.145895
 31
0.0
  0
LINE
  8
0
 10
129.168728
 20
263.042052
 30
0.0
 11
129.320687
 21
263.015467
 31
0.0
  0
LINE
  8
0
 10
129.779435
 20
262.941604
 30
0.0
 11
129.750645
 21
262.841413
 31
0.0
  0
LINE
  8
0
 10
129.979277
 20
263.145895
 30
0.0
 11
129.842522
 21
263.044259
 31
0.0
  0
LINE
  8
0
 10
129.944854
 20
263.006835
 30
0.0
 11
129.842522
 21
263.044259
 31
0.0
  0
LINE
  8
0
 10
129.881768
 20
262.904179
 30
0.0
 11
129.779435
 21
262.941604
 31
0.0
  0
LINE
  8
0
 10
129.725474
 20
262.633212
 30
0.0
 11
129.623141
 21
262.670637
 31
0.0
  0
LINE
  8
0
 10
129.758348
 20
262.650005
 30
0.0
 11
129.656015
 21
262.68743
 31
0.0
  0
LINE
  8
0
 10
129.852977
 20
262.803988
 30
0.0
 11
129.750645
 21
262.841413
 31
0.0
  0
LINE
  8
0
 10
130.404871
 20
263.130495
 30
0.0
 11
130.302539
 21
263.16792
 31
0.0
  0
LINE
  8
0
 10
130.97723
 20
265.03889
 30
0.0
 11
131.079562
 21
265.001465
 31
0.0
  0
LINE
  8
0
 10
129.799588
 20
265.91358
 30
0.0
 11
129.90192
 21
265.876155
 31
0.0
  0
LINE
  8
0
 10
130.261298
 20
263.220832
 30
0.0
 11
130.158966
 21
263.258257
 31
0.0
  0
LINE
  8
0
 10
130.012694
 20
263.170727
 30
0.0
 11
129.486238
 21
263.31671
 31
0.0
  0
LINE
  8
0
 10
130.465919
 20
265.451489
 30
0.0
 11
130.948375
 21
265.229805
 31
0.0
  0
LINE
  8
0
 10
130.084244
 20
266.067026
 30
0.0
 11
130.034694
 21
266.08761
 31
0.0
  0
LINE
  8
0
 10
130.065209
 20
266.201167
 30
0.0
 11
130.077944
 21
266.199084
 31
0.0
  0
LINE
  8
0
 10
130.084244
 20
262.863054
 30
0.0
 11
130.034694
 21
262.883637
 31
0.0
  0
LINE
  8
0
 10
130.065209
 20
262.997194
 30
0.0
 11
130.077944
 21
262.995112
 31
0.0
  0
LINE
  8
0
 10
131.180581
 20
265.272281
 30
0.0
 11
131.131031
 21
265.292865
 31
0.0
  0
LINE
  8
0
 10
131.161546
 20
265.406422
 30
0.0
 11
131.174281
 21
265.404339
 31
0.0
  0
LINE
  8
0
 10
132.058905
 20
265.203149
 30
0.0
 11
132.443205
 21
265.488757
 31
0.0
  0
LINE
  8
0
 10
132.443205
 20
265.488757
 30
0.0
 11
132.900013
 21
265.828252
 31
0.0
  0
LINE
  8
0
 10
132.069893
 20
265.200104
 30
0.0
 11
132.499588
 21
265.519449
 31
0.0
  0
LINE
  8
0
 10
132.499588
 20
265.519449
 30
0.0
 11
132.917981
 21
265.830395
 31
0.0
  0
LINE
  8
0
 10
132.271248
 20
267.828351
 30
0.0
 11
131.802536
 21
267.055076
 31
0.0
  0
LINE
  8
0
 10
131.802536
 20
267.055076
 30
0.0
 11
131.516566
 21
266.146069
 31
0.0
  0
LINE
  8
0
 10
128.970792
 20
263.19375
 30
0.0
 11
129.256762
 21
262.709803
 31
0.0
  0
LINE
  8
0
 10
129.256762
 20
262.709803
 30
0.0
 11
129.725474
 21
262.633212
 31
0.0
  0
LINE
  8
0
 10
129.725474
 20
265.934422
 30
0.0
 11
129.256762
 21
265.161147
 31
0.0
  0
LINE
  8
0
 10
129.256762
 20
265.161147
 30
0.0
 11
128.970792
 21
264.25214
 31
0.0
  0
LINE
  8
0
 10
129.751839
 20
262.845573
 30
0.0
 11
129.564664
 21
262.921151
 31
0.0
  0
LINE
  8
0
 10
129.564664
 20
262.921151
 30
0.0
 11
129.324729
 21
263.018034
 31
0.0
  0
LINE
  8
0
 10
129.324729
 20
263.018034
 30
0.0
 11
129.324348
 21
263.018188
 31
0.0
  0
LINE
  8
0
 10
129.77617
 20
262.930244
 30
0.0
 11
129.603146
 21
263.000109
 31
0.0
  0
LINE
  8
0
 10
129.603146
 20
263.000109
 30
0.0
 11
129.363211
 21
263.096991
 31
0.0
  0
LINE
  8
0
 10
129.363211
 20
263.096991
 30
0.0
 11
129.359012
 21
263.098687
 31
0.0
  0
LINE
  8
0
 10
129.348102
 20
262.694878
 30
0.0
 11
129.474251
 21
262.648094
 31
0.0
  0
LINE
  8
0
 10
129.474251
 20
262.648094
 30
0.0
 11
129.623141
 21
262.670637
 31
0.0
  0
LINE
  8
0
 10
127.827279
 20
262.275553
 30
0.0
 11
127.855887
 21
262.281858
 31
0.0
  0
LINE
  8
0
 10
127.855887
 20
262.281858
 30
0.0
 11
127.885625
 21
262.281294
 31
0.0
  0
LINE
  8
0
 10
128.093506
 20
260.67968
 30
0.0
 11
128.139837
 21
260.690578
 31
0.0
  0
LINE
  8
0
 10
128.139837
 20
260.690578
 30
0.0
 11
128.179666
 21
260.741291
 31
0.0
  0
LINE
  8
0
 10
127.827279
 20
264.622258
 30
0.0
 11
127.855887
 21
264.628564
 31
0.0
  0
LINE
  8
0
 10
127.855887
 20
264.628564
 30
0.0
 11
127.885625
 21
264.627999
 31
0.0
  0
LINE
  8
0
 10
129.00483
 20
263.828243
 30
0.0
 11
128.96676
 21
263.776518
 31
0.0
  0
LINE
  8
0
 10
128.96676
 20
263.776518
 30
0.0
 11
128.950991
 21
263.708229
 31
0.0
  0
LINE
  8
0
 10
129.00483
 20
263.66824
 30
0.0
 11
129.036476
 21
263.707038
 31
0.0
  0
LINE
  8
0
 10
129.036476
 20
263.707038
 30
0.0
 11
129.056034
 21
263.761574
 31
0.0
  0
LINE
  8
0
 10
129.056034
 20
263.761574
 30
0.0
 11
129.056034
 21
263.811018
 31
0.0
  0
LINE
  8
0
 10
129.056034
 20
263.811018
 30
0.0
 11
129.036476
 21
263.836483
 31
0.0
  0
LINE
  8
0
 10
129.036476
 20
263.836483
 30
0.0
 11
129.00483
 21
263.828243
 31
0.0
  0
LINE
  8
0
 10
128.95528
 20
263.688824
 30
0.0
 11
128.985037
 21
263.725255
 31
0.0
  0
LINE
  8
0
 10
128.985037
 20
263.725255
 30
0.0
 11
129.004656
 21
263.779179
 31
0.0
  0
LINE
  8
0
 10
129.004656
 20
263.779179
 30
0.0
 11
129.005171
 21
263.828524
 31
0.0
  0
LINE
  8
0
 10
128.95264
 20
263.700308
 30
0.0
 11
128.974714
 21
263.723723
 31
0.0
  0
LINE
  8
0
 10
128.974714
 20
263.723723
 30
0.0
 11
128.992118
 21
263.761186
 31
0.0
  0
LINE
  8
0
 10
128.992118
 20
263.761186
 30
0.0
 11
128.99853
 21
263.800298
 31
0.0
  0
LINE
  8
0
 10
129.168728
 20
263.042052
 30
0.0
 11
129.15757
 21
263.041907
 31
0.0
  0
LINE
  8
0
 10
129.15757
 20
263.041907
 30
0.0
 11
129.148072
 21
263.037893
 31
0.0
  0
LINE
  8
0
 10
129.148072
 20
263.037893
 30
0.0
 11
129.1414
 21
263.030703
 31
0.0
  0
LINE
  8
0
 10
129.1414
 20
263.030703
 30
0.0
 11
129.113777
 21
262.951777
 31
0.0
  0
LINE
  8
0
 10
129.02195
 20
263.421231
 30
0.0
 11
128.973395
 21
263.304113
 31
0.0
  0
LINE
  8
0
 10
128.973395
 20
263.304113
 30
0.0
 11
128.970792
 21
263.19375
 31
0.0
  0
LINE
  8
0
 10
128.950991
 20
263.708229
 30
0.0
 11
128.958204
 21
263.673589
 31
0.0
  0
LINE
  8
0
 10
128.958204
 20
263.673589
 30
0.0
 11
128.977911
 21
263.658952
 31
0.0
  0
LINE
  8
0
 10
128.977911
 20
263.658952
 30
0.0
 11
129.00483
 21
263.66824
 31
0.0
  0
LINE
  8
0
 10
129.074976
 20
263.503421
 30
0.0
 11
129.102416
 21
263.563017
 31
0.0
  0
LINE
  8
0
 10
129.102416
 20
263.563017
 30
0.0
 11
129.112508
 21
263.625057
 31
0.0
  0
LINE
  8
0
 10
129.440248
 20
263.303737
 30
0.0
 11
129.45818
 21
263.314086
 31
0.0
  0
LINE
  8
0
 10
129.45818
 20
263.314086
 30
0.0
 11
129.48105
 21
263.317731
 31
0.0
  0
LINE
  8
0
 10
129.48105
 20
263.317731
 30
0.0
 11
129.48624
 21
263.31671
 31
0.0
  0
LINE
  8
0
 10
129.336366
 20
263.056291
 30
0.0
 11
129.308424
 21
263.017611
 31
0.0
  0
LINE
  8
0
 10
129.324348
 20
263.018188
 30
0.0
 11
129.308794
 21
263.017541
 31
0.0
  0
LINE
  8
0
 10
129.308332
 20
263.017628
 30
0.0
 11
129.308479
 21
263.017754
 31
0.0
  0
LINE
  8
0
 10
129.308479
 20
263.017754
 30
0.0
 11
129.318623
 21
263.028438
 31
0.0
  0
LINE
  8
0
 10
129.318623
 20
263.028438
 30
0.0
 11
129.327124
 21
263.041162
 31
0.0
  0
LINE
  8
0
 10
129.327124
 20
263.041162
 30
0.0
 11
129.33437
 21
263.055904
 31
0.0
  0
LINE
  8
0
 10
129.359012
 20
263.098687
 30
0.0
 11
129.34957
 21
263.052882
 31
0.0
  0
LINE
  8
0
 10
129.348143
 20
263.109114
 30
0.0
 11
129.336366
 21
263.056291
 31
0.0
  0
LINE
  8
0
 10
129.33437
 20
263.055904
 30
0.0
 11
129.339551
 21
263.068299
 31
0.0
  0
LINE
  8
0
 10
129.339551
 20
263.068299
 30
0.0
 11
129.345215
 21
263.088017
 31
0.0
  0
LINE
  8
0
 10
129.345215
 20
263.088017
 30
0.0
 11
129.347653
 21
263.106697
 31
0.0
  0
LINE
  8
0
 10
129.347653
 20
263.106697
 30
0.0
 11
129.347815
 21
263.111564
 31
0.0
  0
LINE
  8
0
 10
129.33437
 20
263.055903
 30
0.0
 11
129.336366
 21
263.056291
 31
0.0
  0
LINE
  8
0
 10
129.34957
 20
263.052882
 30
0.0
 11
129.324348
 21
263.018188
 31
0.0
  0
LINE
  8
0
 10
129.320687
 20
263.015467
 30
0.0
 11
129.324348
 21
263.018188
 31
0.0
  0
LINE
  8
0
 10
129.34957
 20
263.052882
 30
0.0
 11
129.336366
 21
263.056291
 31
0.0
  0
LINE
  8
0
 10
129.361832
 20
263.156275
 30
0.0
 11
129.364465
 21
263.170186
 31
0.0
  0
LINE
  8
0
 10
129.364465
 20
263.170186
 30
0.0
 11
129.376682
 21
263.210947
 31
0.0
  0
LINE
  8
0
 10
129.376682
 20
263.210947
 30
0.0
 11
129.394714
 21
263.249152
 31
0.0
  0
LINE
  8
0
 10
129.394714
 20
263.249152
 30
0.0
 11
129.416905
 21
263.281298
 31
0.0
  0
LINE
  8
0
 10
129.416905
 20
263.281298
 30
0.0
 11
129.440248
 21
263.303737
 31
0.0
  0
LINE
  8
0
 10
129.486238
 20
263.31671
 30
0.0
 11
129.457057
 21
263.3172
 31
0.0
  0
LINE
  8
0
 10
129.457057
 20
263.3172
 30
0.0
 11
129.418812
 21
263.29746
 31
0.0
  0
LINE
  8
0
 10
129.418812
 20
263.29746
 30
0.0
 11
129.391133
 21
263.267171
 31
0.0
  0
LINE
  8
0
 10
129.391133
 20
263.267171
 30
0.0
 11
129.366677
 21
263.222906
 31
0.0
  0
LINE
  8
0
 10
129.366677
 20
263.222906
 30
0.0
 11
129.356696
 21
263.19465
 31
0.0
  0
LINE
  8
0
 10
129.356696
 20
263.19465
 30
0.0
 11
129.3504
 21
263.166611
 31
0.0
  0
LINE
  8
0
 10
129.3504
 20
263.166611
 30
0.0
 11
129.361832
 21
263.156275
 31
0.0
  0
LINE
  8
0
 10
129.347827
 20
263.135999
 30
0.0
 11
129.359012
 21
263.12265
 31
0.0
  0
LINE
  8
0
 10
129.359012
 20
263.12265
 30
0.0
 11
129.359138
 21
263.130772
 31
0.0
  0
LINE
  8
0
 10
129.359138
 20
263.130772
 30
0.0
 11
129.359652
 21
263.139107
 31
0.0
  0
LINE
  8
0
 10
129.359652
 20
263.139107
 30
0.0
 11
129.360551
 21
263.147621
 31
0.0
  0
LINE
  8
0
 10
129.360551
 20
263.147621
 30
0.0
 11
129.361832
 21
263.156275
 31
0.0
  0
LINE
  8
0
 10
129.347815
 20
263.111562
 30
0.0
 11
129.348143
 21
263.109114
 31
0.0
  0
LINE
  8
0
 10
129.348143
 20
263.109114
 30
0.0
 11
129.359012
 21
263.098687
 31
0.0
  0
LINE
  8
0
 10
129.359012
 20
263.098687
 30
0.0
 11
129.359012
 21
263.12265
 31
0.0
  0
LINE
  8
0
 10
129.350378
 20
263.166453
 30
0.0
 11
129.348839
 21
263.150942
 31
0.0
  0
LINE
  8
0
 10
129.348839
 20
263.150942
 30
0.0
 11
129.347827
 21
263.136002
 31
0.0
  0
LINE
  8
0
 10
129.347815
 20
263.135533
 30
0.0
 11
129.347815
 21
263.123551
 31
0.0
  0
LINE
  8
0
 10
129.347815
 20
263.123551
 30
0.0
 11
129.347815
 21
263.111569
 31
0.0
  0
LINE
  8
0
 10
128.970792
 20
264.25214
 30
0.0
 11
128.973395
 21
264.145646
 31
0.0
  0
LINE
  8
0
 10
128.973395
 20
264.145646
 30
0.0
 11
129.02195
 21
264.100698
 31
0.0
  0
LINE
  8
0
 10
128.99853
 20
263.800298
 30
0.0
 11
128.997884
 21
263.81109
 31
0.0
  0
LINE
  8
0
 10
128.997884
 20
263.81109
 30
0.0
 11
128.996608
 21
263.817072
 31
0.0
  0
LINE
  8
0
 10
129.112508
 20
264.031477
 30
0.0
 11
129.102416
 21
264.078515
 31
0.0
  0
LINE
  8
0
 10
129.102416
 20
264.078515
 30
0.0
 11
129.074976
 21
264.097325
 31
0.0
  0
LINE
  8
0
 10
128.093506
 20
265.57759
 30
0.0
 11
128.139837
 21
265.556601
 31
0.0
  0
LINE
  8
0
 10
128.139837
 20
265.556601
 30
0.0
 11
128.179666
 21
265.532549
 31
0.0
  0
LINE
  8
0
 10
128.95834
 20
266.490195
 30
0.0
 11
128.964331
 21
266.475947
 31
0.0
  0
LINE
  8
0
 10
128.964331
 20
266.475947
 30
0.0
 11
128.972741
 21
266.462663
 31
0.0
  0
LINE
  8
0
 10
130.030405
 20
262.903043
 30
0.0
 11
130.037618
 21
262.868403
 31
0.0
  0
LINE
  8
0
 10
130.037618
 20
262.868403
 30
0.0
 11
130.057325
 21
262.853766
 31
0.0
  0
LINE
  8
0
 10
130.057325
 20
262.853766
 30
0.0
 11
130.084244
 21
262.863054
 31
0.0
  0
LINE
  8
0
 10
129.656015
 20
262.68743
 30
0.0
 11
129.71107
 21
262.750841
 31
0.0
  0
LINE
  8
0
 10
129.71107
 20
262.750841
 30
0.0
 11
129.750645
 21
262.841413
 31
0.0
  0
LINE
  8
0
 10
129.623141
 20
262.670637
 30
0.0
 11
129.639379
 21
262.676987
 31
0.0
  0
LINE
  8
0
 10
129.639379
 20
262.676987
 30
0.0
 11
129.656015
 21
262.68743
 31
0.0
  0
LINE
  8
0
 10
129.725474
 20
262.633212
 30
0.0
 11
129.741711
 21
262.639562
 31
0.0
  0
LINE
  8
0
 10
129.741711
 20
262.639562
 30
0.0
 11
129.758348
 21
262.650005
 31
0.0
  0
LINE
  8
0
 10
129.758348
 20
262.650005
 30
0.0
 11
129.813403
 21
262.713417
 31
0.0
  0
LINE
  8
0
 10
129.813403
 20
262.713417
 30
0.0
 11
129.852977
 21
262.803988
 31
0.0
  0
LINE
  8
0
 10
130.98591
 20
265.630991
 30
0.0
 11
130.958471
 21
265.571395
 31
0.0
  0
LINE
  8
0
 10
130.958471
 20
265.571395
 30
0.0
 11
130.948378
 21
265.509355
 31
0.0
  0
LINE
  8
0
 10
131.192426
 20
265.903238
 30
0.0
 11
130.906457
 21
266.387185
 31
0.0
  0
LINE
  8
0
 10
130.906457
 20
266.387185
 30
0.0
 11
130.437745
 21
266.463775
 31
0.0
  0
LINE
  8
0
 10
130.437745
 20
263.162566
 30
0.0
 11
130.906457
 21
263.935841
 31
0.0
  0
LINE
  8
0
 10
130.906457
 20
263.935841
 30
0.0
 11
131.192426
 21
264.844847
 31
0.0
  0
LINE
  8
0
 10
130.948378
 20
265.102935
 30
0.0
 11
130.955996
 21
265.060777
 31
0.0
  0
LINE
  8
0
 10
130.955996
 20
265.060777
 30
0.0
 11
130.977233
 21
265.038889
 31
0.0
  0
LINE
  8
0
 10
131.090094
 20
265.940663
 30
0.0
 11
130.947252
 21
266.27262
 31
0.0
  0
LINE
  8
0
 10
130.947252
 20
266.27262
 30
0.0
 11
130.713281
 21
266.418751
 31
0.0
  0
LINE
  8
0
 10
130.962992
 20
265.584612
 30
0.0
 11
130.786738
 21
265.638488
 31
0.0
  0
LINE
  8
0
 10
130.786738
 20
265.638488
 30
0.0
 11
130.537516
 21
265.714668
 31
0.0
  0
LINE
  8
0
 10
130.537516
 20
265.714668
 30
0.0
 11
130.533154
 21
265.716001
 31
0.0
  0
LINE
  8
0
 10
131.006188
 20
265.662414
 30
0.0
 11
130.819949
 21
265.719342
 31
0.0
  0
LINE
  8
0
 10
130.819949
 20
265.719342
 30
0.0
 11
130.570727
 21
265.795522
 31
0.0
  0
LINE
  8
0
 10
130.570727
 20
265.795522
 30
0.0
 11
130.57033
 21
265.795643
 31
0.0
  0
LINE
  8
0
 10
130.335413
 20
263.19999
 30
0.0
 11
130.804125
 21
263.973266
 31
0.0
  0
LINE
  8
0
 10
130.804125
 20
263.973266
 30
0.0
 11
131.090094
 21
264.882272
 31
0.0
  0
LINE
  8
0
 10
130.443981
 20
264.09646
 30
0.0
 11
130.443981
 21
264.718166
 31
0.0
  0
LINE
  8
0
 10
130.443981
 20
264.718166
 30
0.0
 11
130.443981
 21
265.454002
 31
0.0
  0
LINE
  8
0
 10
130.431529
 20
264.109922
 30
0.0
 11
130.431529
 21
264.788732
 31
0.0
  0
LINE
  8
0
 10
130.431529
 20
264.788732
 30
0.0
 11
130.431529
 21
265.461743
 31
0.0
  0
LINE
  8
0
 10
129.524119
 20
263.306175
 30
0.0
 11
129.953814
 21
263.62552
 31
0.0
  0
LINE
  8
0
 10
129.953814
 20
263.62552
 30
0.0
 11
130.372207
 21
263.936466
 31
0.0
  0
LINE
  8
0
 10
130.281451
 20
263.20122
 30
0.0
 11
130.255068
 21
263.222386
 31
0.0
  0
LINE
  8
0
 10
130.255068
 20
263.222386
 30
0.0
 11
130.218365
 21
263.210105
 31
0.0
  0
LINE
  8
0
 10
129.513131
 20
263.30922
 30
0.0
 11
129.897431
 21
263.594828
 31
0.0
  0
LINE
  8
0
 10
129.897431
 20
263.594828
 30
0.0
 11
130.354239
 21
263.934323
 31
0.0
  0
LINE
  8
0
 10
129.842522
 20
263.044259
 30
0.0
 11
129.805818
 21
263.001985
 31
0.0
  0
LINE
  8
0
 10
129.805818
 20
263.001985
 30
0.0
 11
129.779435
 21
262.941604
 31
0.0
  0
LINE
  8
0
 10
130.084244
 20
263.023057
 30
0.0
 11
130.046174
 21
262.971332
 31
0.0
  0
LINE
  8
0
 10
130.046174
 20
262.971332
 30
0.0
 11
130.030405
 21
262.903043
 31
0.0
  0
LINE
  8
0
 10
130.034694
 20
262.883637
 30
0.0
 11
130.064451
 21
262.920069
 31
0.0
  0
LINE
  8
0
 10
130.064451
 20
262.920069
 30
0.0
 11
130.08407
 21
262.973993
 31
0.0
  0
LINE
  8
0
 10
130.08407
 20
262.973993
 30
0.0
 11
130.084585
 21
263.023338
 31
0.0
  0
LINE
  8
0
 10
130.032054
 20
262.895122
 30
0.0
 11
130.054128
 21
262.918537
 31
0.0
  0
LINE
  8
0
 10
130.054128
 20
262.918537
 30
0.0
 11
130.071532
 21
262.956
 31
0.0
  0
LINE
  8
0
 10
130.071532
 20
262.956
 30
0.0
 11
130.077944
 21
262.995112
 31
0.0
  0
LINE
  8
0
 10
129.944854
 20
263.006835
 30
0.0
 11
129.90815
 21
262.96456
 31
0.0
  0
LINE
  8
0
 10
129.90815
 20
262.96456
 30
0.0
 11
129.881768
 21
262.904179
 31
0.0
  0
LINE
  8
0
 10
130.084244
 20
262.863054
 30
0.0
 11
130.11589
 21
262.901852
 31
0.0
  0
LINE
  8
0
 10
130.11589
 20
262.901852
 30
0.0
 11
130.135448
 21
262.956388
 31
0.0
  0
LINE
  8
0
 10
130.135448
 20
262.956388
 30
0.0
 11
130.135448
 21
263.005832
 31
0.0
  0
LINE
  8
0
 10
130.135448
 20
263.005832
 30
0.0
 11
130.11589
 21
263.031297
 31
0.0
  0
LINE
  8
0
 10
130.11589
 20
263.031297
 30
0.0
 11
130.084244
 21
263.023057
 31
0.0
  0
LINE
  8
0
 10
130.077944
 20
262.995112
 30
0.0
 11
130.077298
 21
263.005904
 31
0.0
  0
LINE
  8
0
 10
130.077298
 20
263.005904
 30
0.0
 11
130.076022
 21
263.011886
 31
0.0
  0
LINE
  8
0
 10
130.158976
 20
263.258254
 30
0.0
 11
130.138657
 21
263.258908
 31
0.0
  0
LINE
  8
0
 10
130.138657
 20
263.258908
 30
0.0
 11
130.116032
 21
263.24753
 31
0.0
  0
LINE
  8
0
 10
130.404871
 20
263.130495
 30
0.0
 11
130.421508
 21
263.144781
 31
0.0
  0
LINE
  8
0
 10
130.421508
 20
263.144781
 30
0.0
 11
130.437745
 21
263.162566
 31
0.0
  0
LINE
  8
0
 10
130.310242
 20
263.143823
 30
0.0
 11
130.349816
 21
263.112074
 31
0.0
  0
LINE
  8
0
 10
130.349816
 20
263.112074
 30
0.0
 11
130.404871
 21
263.130495
 31
0.0
  0
LINE
  8
0
 10
130.302539
 20
263.16792
 30
0.0
 11
130.319175
 21
263.182205
 31
0.0
  0
LINE
  8
0
 10
130.319175
 20
263.182205
 30
0.0
 11
130.335413
 21
263.19999
 31
0.0
  0
LINE
  8
0
 10
130.299313
 20
263.165594
 30
0.0
 11
130.300926
 21
263.166739
 31
0.0
  0
LINE
  8
0
 10
130.300926
 20
263.166739
 30
0.0
 11
130.302539
 21
263.16792
 31
0.0
  0
LINE
  8
0
 10
130.372207
 20
263.936466
 30
0.0
 11
130.686758
 21
263.822899
 31
0.0
  0
LINE
  8
0
 10
130.686758
 20
263.822899
 30
0.0
 11
130.72551
 21
263.808908
 31
0.0
  0
LINE
  8
0
 10
130.443981
 20
264.09646
 30
0.0
 11
130.758532
 21
263.982894
 31
0.0
  0
LINE
  8
0
 10
130.758532
 20
263.982894
 30
0.0
 11
130.801541
 21
263.967366
 31
0.0
  0
LINE
  8
0
 10
130.409229
 20
264.009248
 30
0.0
 11
130.431995
 21
264.106996
 31
0.0
  0
LINE
  8
0
 10
130.422881
 20
264.005745
 30
0.0
 11
130.409229
 21
264.009248
 31
0.0
  0
LINE
  8
0
 10
130.422881
 20
264.005745
 30
0.0
 11
130.372207
 21
263.936466
 31
0.0
  0
LINE
  8
0
 10
130.406987
 20
264.008986
 30
0.0
 11
130.414567
 21
264.026786
 31
0.0
  0
LINE
  8
0
 10
130.414567
 20
264.026786
 30
0.0
 11
130.426385
 21
264.066103
 31
0.0
  0
LINE
  8
0
 10
130.426385
 20
264.066103
 30
0.0
 11
130.430465
 21
264.092431
 31
0.0
  0
LINE
  8
0
 10
130.430465
 20
264.092431
 30
0.0
 11
130.431529
 21
264.109918
 31
0.0
  0
LINE
  8
0
 10
130.354672
 20
263.934635
 30
0.0
 11
130.409229
 21
264.009248
 31
0.0
  0
LINE
  8
0
 10
130.354239
 20
263.934324
 30
0.0
 11
130.354512
 21
263.934531
 31
0.0
  0
LINE
  8
0
 10
130.354512
 20
263.934531
 30
0.0
 11
130.355979
 21
263.935705
 31
0.0
  0
LINE
  8
0
 10
130.355979
 20
263.935705
 30
0.0
 11
130.368896
 21
263.947969
 31
0.0
  0
LINE
  8
0
 10
130.368896
 20
263.947969
 30
0.0
 11
130.388929
 21
263.974102
 31
0.0
  0
LINE
  8
0
 10
130.388929
 20
263.974102
 30
0.0
 11
130.406987
 21
264.008986
 31
0.0
  0
LINE
  8
0
 10
130.372207
 20
263.936466
 30
0.0
 11
130.354672
 21
263.934635
 31
0.0
  0
LINE
  8
0
 10
130.354672
 20
263.934635
 30
0.0
 11
130.354241
 21
263.934325
 31
0.0
  0
LINE
  8
0
 10
130.406987
 20
264.008986
 30
0.0
 11
130.409229
 21
264.009248
 31
0.0
  0
LINE
  8
0
 10
130.431529
 20
264.109918
 30
0.0
 11
130.431995
 21
264.106996
 31
0.0
  0
LINE
  8
0
 10
130.431995
 20
264.106996
 30
0.0
 11
130.443981
 21
264.09646
 31
0.0
  0
LINE
  8
0
 10
130.443981
 20
264.09646
 30
0.0
 11
130.422881
 21
264.005745
 31
0.0
  0
LINE
  8
0
 10
130.218365
 20
266.090153
 30
0.0
 11
130.255068
 21
266.132427
 31
0.0
  0
LINE
  8
0
 10
130.255068
 20
266.132427
 30
0.0
 11
130.281451
 21
266.192809
 31
0.0
  0
LINE
  8
0
 10
129.852977
 20
265.953164
 30
0.0
 11
129.813403
 21
265.984914
 31
0.0
  0
LINE
  8
0
 10
129.813403
 20
265.984914
 30
0.0
 11
129.758348
 21
265.966493
 31
0.0
  0
LINE
  8
0
 10
129.758348
 20
265.966493
 30
0.0
 11
129.741711
 21
265.952207
 31
0.0
  0
LINE
  8
0
 10
129.741711
 20
265.952207
 30
0.0
 11
129.725474
 21
265.934422
 31
0.0
  0
LINE
  8
0
 10
129.779435
 20
265.933193
 30
0.0
 11
129.788245
 21
265.920827
 31
0.0
  0
LINE
  8
0
 10
129.788245
 20
265.920827
 30
0.0
 11
129.799578
 21
265.913583
 31
0.0
  0
LINE
  8
0
 10
129.881768
 20
265.895768
 30
0.0
 11
129.90815
 21
265.874601
 31
0.0
  0
LINE
  8
0
 10
129.90815
 20
265.874601
 30
0.0
 11
129.944854
 21
265.886882
 31
0.0
  0
LINE
  8
0
 10
130.030405
 20
266.107015
 30
0.0
 11
130.037618
 21
266.072375
 31
0.0
  0
LINE
  8
0
 10
130.037618
 20
266.072375
 30
0.0
 11
130.057325
 21
266.057738
 31
0.0
  0
LINE
  8
0
 10
130.057325
 20
266.057738
 30
0.0
 11
130.084244
 21
266.067026
 31
0.0
  0
LINE
  8
0
 10
130.084244
 20
266.227029
 30
0.0
 11
130.046174
 21
266.175304
 31
0.0
  0
LINE
  8
0
 10
130.046174
 20
266.175304
 30
0.0
 11
130.030405
 21
266.107015
 31
0.0
  0
LINE
  8
0
 10
130.034694
 20
266.08761
 30
0.0
 11
130.064451
 21
266.124041
 31
0.0
  0
LINE
  8
0
 10
130.064451
 20
266.124041
 30
0.0
 11
130.08407
 21
266.177965
 31
0.0
  0
LINE
  8
0
 10
130.08407
 20
266.177965
 30
0.0
 11
130.084585
 21
266.22731
 31
0.0
  0
LINE
  8
0
 10
130.032054
 20
266.099094
 30
0.0
 11
130.054128
 21
266.122509
 31
0.0
  0
LINE
  8
0
 10
130.054128
 20
266.122509
 30
0.0
 11
130.071532
 21
266.159972
 31
0.0
  0
LINE
  8
0
 10
130.071532
 20
266.159972
 30
0.0
 11
130.077944
 21
266.199084
 31
0.0
  0
LINE
  8
0
 10
130.084244
 20
266.067026
 30
0.0
 11
130.11589
 21
266.105824
 31
0.0
  0
LINE
  8
0
 10
130.11589
 20
266.105824
 30
0.0
 11
130.135448
 21
266.16036
 31
0.0
  0
LINE
  8
0
 10
130.135448
 20
266.16036
 30
0.0
 11
130.135448
 21
266.209804
 31
0.0
  0
LINE
  8
0
 10
130.135448
 20
266.209804
 30
0.0
 11
130.11589
 21
266.235269
 31
0.0
  0
LINE
  8
0
 10
130.11589
 20
266.235269
 30
0.0
 11
130.084244
 21
266.227029
 31
0.0
  0
LINE
  8
0
 10
130.077944
 20
266.199084
 30
0.0
 11
130.077298
 21
266.209876
 31
0.0
  0
LINE
  8
0
 10
130.077298
 20
266.209876
 30
0.0
 11
130.076022
 21
266.215858
 31
0.0
  0
LINE
  8
0
 10
130.435791
 20
265.522929
 30
0.0
 11
130.439217
 21
265.560161
 31
0.0
  0
LINE
  8
0
 10
130.439217
 20
265.560161
 30
0.0
 11
130.449751
 21
265.600965
 31
0.0
  0
LINE
  8
0
 10
130.449751
 20
265.600965
 30
0.0
 11
130.466444
 21
265.640166
 31
0.0
  0
LINE
  8
0
 10
130.466444
 20
265.640166
 30
0.0
 11
130.487764
 21
265.674164
 31
0.0
  0
LINE
  8
0
 10
130.487764
 20
265.674164
 30
0.0
 11
130.511762
 21
265.699849
 31
0.0
  0
LINE
  8
0
 10
130.511762
 20
265.699849
 30
0.0
 11
130.517027
 21
265.704016
 31
0.0
  0
LINE
  8
0
 10
130.500416
 20
265.701528
 30
0.0
 11
130.472035
 21
265.673012
 31
0.0
  0
LINE
  8
0
 10
130.472035
 20
265.673012
 30
0.0
 11
130.447611
 21
265.632515
 31
0.0
  0
LINE
  8
0
 10
130.447611
 20
265.632515
 30
0.0
 11
130.429869
 21
265.580849
 31
0.0
  0
LINE
  8
0
 10
130.429869
 20
265.580849
 30
0.0
 11
130.424596
 21
265.536406
 31
0.0
  0
LINE
  8
0
 10
130.424596
 20
265.536406
 30
0.0
 11
130.4298
 21
265.497199
 31
0.0
  0
LINE
  8
0
 10
130.4298
 20
265.497199
 30
0.0
 11
130.445222
 21
265.467544
 31
0.0
  0
LINE
  8
0
 10
130.445222
 20
265.467544
 30
0.0
 11
130.465919
 21
265.451489
 31
0.0
  0
LINE
  8
0
 10
130.443981
 20
265.454002
 30
0.0
 11
130.436111
 21
265.45595
 31
0.0
  0
LINE
  8
0
 10
130.436111
 20
265.45595
 30
0.0
 11
130.432035
 21
265.459555
 31
0.0
  0
LINE
  8
0
 10
130.432035
 20
265.459555
 30
0.0
 11
130.432114
 21
265.464268
 31
0.0
  0
LINE
  8
0
 10
130.432114
 20
265.464268
 30
0.0
 11
130.436788
 21
265.46951
 31
0.0
  0
LINE
  8
0
 10
130.437409
 20
265.469971
 30
0.0
 11
130.441404
 21
265.472488
 31
0.0
  0
LINE
  8
0
 10
130.465916
 20
265.451491
 30
0.0
 11
130.462194
 21
265.453485
 31
0.0
  0
LINE
  8
0
 10
130.462194
 20
265.453485
 30
0.0
 11
130.44678
 21
265.470467
 31
0.0
  0
LINE
  8
0
 10
130.44678
 20
265.470467
 30
0.0
 11
130.437794
 21
265.497773
 31
0.0
  0
LINE
  8
0
 10
130.437794
 20
265.497773
 30
0.0
 11
130.435791
 21
265.522929
 31
0.0
  0
LINE
  8
0
 10
130.436788
 20
266.463513
 30
0.0
 11
130.436788
 21
265.914304
 31
0.0
  0
LINE
  8
0
 10
130.443981
 20
266.46541
 30
0.0
 11
130.443981
 21
265.884755
 31
0.0
  0
LINE
  8
0
 10
130.500416
 20
265.701528
 30
0.0
 11
130.517027
 21
265.704016
 31
0.0
  0
LINE
  8
0
 10
130.505791
 20
265.705524
 30
0.0
 11
130.503103
 21
265.703526
 31
0.0
  0
LINE
  8
0
 10
130.503103
 20
265.703526
 30
0.0
 11
130.500414
 21
265.701527
 31
0.0
  0
LINE
  8
0
 10
130.522403
 20
265.708011
 30
0.0
 11
130.533154
 21
265.716001
 31
0.0
  0
LINE
  8
0
 10
130.517027
 20
265.704016
 30
0.0
 11
130.522403
 21
265.708011
 31
0.0
  0
LINE
  8
0
 10
130.522403
 20
265.708011
 30
0.0
 11
130.505791
 21
265.705524
 31
0.0
  0
LINE
  8
0
 10
130.57033
 20
265.795643
 30
0.0
 11
130.559649
 21
265.750303
 31
0.0
  0
LINE
  8
0
 10
130.558343
 20
265.806179
 30
0.0
 11
130.57033
 21
265.795643
 31
0.0
  0
LINE
  8
0
 10
130.546341
 20
265.753487
 30
0.0
 11
130.558343
 21
265.806179
 31
0.0
  0
LINE
  8
0
 10
130.559649
 20
265.750303
 30
0.0
 11
130.546341
 21
265.753487
 31
0.0
  0
LINE
  8
0
 10
130.57033
 20
265.795643
 30
0.0
 11
130.57033
 21
265.801082
 31
0.0
  0
LINE
  8
0
 10
130.559649
 20
265.750303
 30
0.0
 11
130.533154
 21
265.716001
 31
0.0
  0
LINE
  8
0
 10
130.533154
 20
265.716001
 30
0.0
 11
130.516543
 21
265.713515
 31
0.0
  0
LINE
  8
0
 10
130.516619
 20
265.713571
 30
0.0
 11
130.546341
 21
265.753487
 31
0.0
  0
LINE
  8
0
 10
130.557878
 20
265.809105
 30
0.0
 11
130.558343
 21
265.806179
 31
0.0
  0
LINE
  8
0
 10
130.544367
 20
265.753147
 30
0.0
 11
130.546341
 21
265.753487
 31
0.0
  0
LINE
  8
0
 10
130.516543
 20
265.713515
 30
0.0
 11
130.516619
 21
265.713571
 31
0.0
  0
LINE
  8
0
 10
130.505792
 20
265.705524
 30
0.0
 11
130.511167
 21
265.709519
 31
0.0
  0
LINE
  8
0
 10
130.511167
 20
265.709519
 30
0.0
 11
130.516543
 21
265.713515
 31
0.0
  0
LINE
  8
0
 10
130.544367
 20
265.753148
 30
0.0
 11
130.549745
 21
265.766037
 31
0.0
  0
LINE
  8
0
 10
130.549745
 20
265.766037
 30
0.0
 11
130.555362
 21
265.785951
 31
0.0
  0
LINE
  8
0
 10
130.555362
 20
265.785951
 30
0.0
 11
130.557398
 21
265.80004
 31
0.0
  0
LINE
  8
0
 10
130.557398
 20
265.80004
 30
0.0
 11
130.557878
 21
265.809098
 31
0.0
  0
LINE
  8
0
 10
130.557878
 20
265.809105
 30
0.0
 11
130.557878
 21
265.809327
 31
0.0
  0
LINE
  8
0
 10
130.516619
 20
265.713571
 30
0.0
 11
130.517902
 21
265.714587
 31
0.0
  0
LINE
  8
0
 10
130.517902
 20
265.714587
 30
0.0
 11
130.527875
 21
265.724761
 31
0.0
  0
LINE
  8
0
 10
130.527875
 20
265.724761
 30
0.0
 11
130.536721
 21
265.737719
 31
0.0
  0
LINE
  8
0
 10
130.536721
 20
265.737719
 30
0.0
 11
130.544367
 21
265.753148
 31
0.0
  0
LINE
  8
0
 10
130.443981
 20
265.884755
 30
0.0
 11
130.436111
 21
265.891952
 31
0.0
  0
LINE
  8
0
 10
130.436111
 20
265.891952
 30
0.0
 11
130.432035
 21
265.900025
 31
0.0
  0
LINE
  8
0
 10
130.432035
 20
265.900025
 30
0.0
 11
130.432114
 21
265.907872
 31
0.0
  0
LINE
  8
0
 10
130.432114
 20
265.907872
 30
0.0
 11
130.436788
 21
265.914304
 31
0.0
  0
LINE
  8
0
 10
130.437745
 20
266.463775
 30
0.0
 11
130.421508
 21
266.457426
 31
0.0
  0
LINE
  8
0
 10
130.421508
 20
266.457426
 30
0.0
 11
130.404871
 21
266.446983
 31
0.0
  0
LINE
  8
0
 10
130.404871
 20
266.446983
 30
0.0
 11
130.349816
 21
266.383571
 31
0.0
  0
LINE
  8
0
 10
130.349816
 20
266.383571
 30
0.0
 11
130.310242
 21
266.292999
 31
0.0
  0
LINE
  8
0
 10
132.201789
 20
264.581359
 30
0.0
 11
132.256844
 21
264.64477
 31
0.0
  0
LINE
  8
0
 10
132.256844
 20
264.64477
 30
0.0
 11
132.296419
 21
264.735342
 31
0.0
  0
LINE
  8
0
 10
131.516566
 20
265.087679
 30
0.0
 11
131.802536
 21
264.603732
 31
0.0
  0
LINE
  8
0
 10
131.802536
 20
264.603732
 30
0.0
 11
132.271248
 21
264.527141
 31
0.0
  0
LINE
  8
0
 10
132.304122
 20
264.543934
 30
0.0
 11
132.359177
 21
264.607346
 31
0.0
  0
LINE
  8
0
 10
132.359177
 20
264.607346
 30
0.0
 11
132.398751
 21
264.697917
 31
0.0
  0
LINE
  8
0
 10
131.893876
 20
264.588807
 30
0.0
 11
132.020025
 21
264.542023
 31
0.0
  0
LINE
  8
0
 10
132.020025
 20
264.542023
 30
0.0
 11
132.168915
 21
264.564566
 31
0.0
  0
LINE
  8
0
 10
132.168915
 20
264.564566
 30
0.0
 11
132.185153
 21
264.570916
 31
0.0
  0
LINE
  8
0
 10
132.185153
 20
264.570916
 30
0.0
 11
132.201789
 21
264.581359
 31
0.0
  0
LINE
  8
0
 10
132.271248
 20
264.527141
 30
0.0
 11
132.287485
 21
264.533491
 31
0.0
  0
LINE
  8
0
 10
132.287485
 20
264.533491
 30
0.0
 11
132.304122
 21
264.543934
 31
0.0
  0
LINE
  8
0
 10
131.714502
 20
264.935981
 30
0.0
 11
131.703344
 21
264.935836
 31
0.0
  0
LINE
  8
0
 10
131.703344
 20
264.935836
 30
0.0
 11
131.693846
 21
264.931822
 31
0.0
  0
LINE
  8
0
 10
131.693846
 20
264.931822
 30
0.0
 11
131.687174
 21
264.924632
 31
0.0
  0
LINE
  8
0
 10
131.687174
 20
264.924632
 30
0.0
 11
131.659551
 21
264.845706
 31
0.0
  0
LINE
  8
0
 10
131.088243
 20
265.593566
 30
0.0
 11
131.060803
 21
265.53397
 31
0.0
  0
LINE
  8
0
 10
131.060803
 20
265.53397
 30
0.0
 11
131.05071
 21
265.471931
 31
0.0
  0
LINE
  8
0
 10
131.501054
 20
265.582753
 30
0.0
 11
131.530811
 21
265.619184
 31
0.0
  0
LINE
  8
0
 10
131.530811
 20
265.619184
 30
0.0
 11
131.55043
 21
265.673108
 31
0.0
  0
LINE
  8
0
 10
131.55043
 20
265.673108
 30
0.0
 11
131.550945
 21
265.722453
 31
0.0
  0
LINE
  8
0
 10
131.550604
 20
265.562169
 30
0.0
 11
131.58225
 21
265.600967
 31
0.0
  0
LINE
  8
0
 10
131.58225
 20
265.600967
 30
0.0
 11
131.601808
 21
265.655503
 31
0.0
  0
LINE
  8
0
 10
131.601808
 20
265.655503
 30
0.0
 11
131.601808
 21
265.704947
 31
0.0
  0
LINE
  8
0
 10
131.601808
 20
265.704947
 30
0.0
 11
131.58225
 21
265.730412
 31
0.0
  0
LINE
  8
0
 10
131.58225
 20
265.730412
 30
0.0
 11
131.550604
 21
265.722172
 31
0.0
  0
LINE
  8
0
 10
131.496765
 20
265.602158
 30
0.0
 11
131.503978
 21
265.567518
 31
0.0
  0
LINE
  8
0
 10
131.503978
 20
265.567518
 30
0.0
 11
131.523685
 21
265.552881
 31
0.0
  0
LINE
  8
0
 10
131.523685
 20
265.552881
 30
0.0
 11
131.550604
 21
265.562169
 31
0.0
  0
LINE
  8
0
 10
131.192426
 20
264.844847
 30
0.0
 11
131.189823
 21
264.951342
 31
0.0
  0
LINE
  8
0
 10
131.189823
 20
264.951342
 30
0.0
 11
131.141269
 21
264.996289
 31
0.0
  0
LINE
  8
0
 10
131.090094
 20
264.882272
 30
0.0
 11
131.094817
 21
264.948721
 31
0.0
  0
LINE
  8
0
 10
131.094817
 20
264.948721
 30
0.0
 11
131.082736
 21
265.000475
 31
0.0
  0
LINE
  8
0
 10
131.05071
 20
265.065511
 30
0.0
 11
131.060803
 21
265.018472
 31
0.0
  0
LINE
  8
0
 10
131.060803
 20
265.018472
 30
0.0
 11
131.088243
 21
264.999662
 31
0.0
  0
LINE
  8
0
 10
131.126742
 20
265.31227
 30
0.0
 11
131.133955
 21
265.27763
 31
0.0
  0
LINE
  8
0
 10
131.133955
 20
265.27763
 30
0.0
 11
131.153662
 21
265.262993
 31
0.0
  0
LINE
  8
0
 10
131.153662
 20
265.262993
 30
0.0
 11
131.180581
 21
265.272281
 31
0.0
  0
LINE
  8
0
 10
131.180581
 20
265.432284
 30
0.0
 11
131.142511
 21
265.380559
 31
0.0
  0
LINE
  8
0
 10
131.142511
 20
265.380559
 30
0.0
 11
131.126742
 21
265.31227
 31
0.0
  0
LINE
  8
0
 10
131.131031
 20
265.292865
 30
0.0
 11
131.160788
 21
265.329296
 31
0.0
  0
LINE
  8
0
 10
131.160788
 20
265.329296
 30
0.0
 11
131.180407
 21
265.38322
 31
0.0
  0
LINE
  8
0
 10
131.180407
 20
265.38322
 30
0.0
 11
131.180922
 21
265.432565
 31
0.0
  0
LINE
  8
0
 10
131.128391
 20
265.304349
 30
0.0
 11
131.150465
 21
265.327764
 31
0.0
  0
LINE
  8
0
 10
131.150465
 20
265.327764
 30
0.0
 11
131.167869
 21
265.365227
 31
0.0
  0
LINE
  8
0
 10
131.167869
 20
265.365227
 30
0.0
 11
131.174281
 21
265.404339
 31
0.0
  0
LINE
  8
0
 10
131.180581
 20
265.272281
 30
0.0
 11
131.212227
 21
265.311079
 31
0.0
  0
LINE
  8
0
 10
131.212227
 20
265.311079
 30
0.0
 11
131.231785
 21
265.365615
 31
0.0
  0
LINE
  8
0
 10
131.231785
 20
265.365615
 30
0.0
 11
131.231785
 21
265.415059
 31
0.0
  0
LINE
  8
0
 10
131.231785
 20
265.415059
 30
0.0
 11
131.212227
 21
265.440524
 31
0.0
  0
LINE
  8
0
 10
131.212227
 20
265.440524
 30
0.0
 11
131.180581
 21
265.432284
 31
0.0
  0
LINE
  8
0
 10
131.174281
 20
265.404339
 30
0.0
 11
131.173635
 21
265.415131
 31
0.0
  0
LINE
  8
0
 10
131.173635
 20
265.415131
 30
0.0
 11
131.172359
 21
265.421113
 31
0.0
  0
LINE
  8
0
 10
131.567724
 20
265.31516
 30
0.0
 11
131.519169
 21
265.198042
 31
0.0
  0
LINE
  8
0
 10
131.519169
 20
265.198042
 30
0.0
 11
131.516566
 21
265.087679
 31
0.0
  0
LINE
  8
0
 10
131.62075
 20
265.39735
 30
0.0
 11
131.64819
 21
265.456946
 31
0.0
  0
LINE
  8
0
 10
131.64819
 20
265.456946
 30
0.0
 11
131.658282
 21
265.518986
 31
0.0
  0
LINE
  8
0
 10
131.141269
 20
265.675756
 30
0.0
 11
131.189823
 21
265.792874
 31
0.0
  0
LINE
  8
0
 10
131.189823
 20
265.792874
 30
0.0
 11
131.192426
 21
265.903238
 31
0.0
  0
LINE
  8
0
 10
131.038936
 20
265.713181
 30
0.0
 11
131.087491
 21
265.830299
 31
0.0
  0
LINE
  8
0
 10
131.087491
 20
265.830299
 30
0.0
 11
131.090094
 21
265.940663
 31
0.0
  0
LINE
  8
0
 10
131.516566
 20
266.146069
 30
0.0
 11
131.519169
 21
266.039575
 31
0.0
  0
LINE
  8
0
 10
131.519169
 20
266.039575
 30
0.0
 11
131.567724
 21
265.994627
 31
0.0
  0
LINE
  8
0
 10
131.498414
 20
265.594237
 30
0.0
 11
131.520488
 21
265.617652
 31
0.0
  0
LINE
  8
0
 10
131.520488
 20
265.617652
 30
0.0
 11
131.537892
 21
265.655115
 31
0.0
  0
LINE
  8
0
 10
131.537892
 20
265.655115
 30
0.0
 11
131.544304
 21
265.694227
 31
0.0
  0
LINE
  8
0
 10
131.550604
 20
265.722172
 30
0.0
 11
131.512534
 21
265.670447
 31
0.0
  0
LINE
  8
0
 10
131.512534
 20
265.670447
 30
0.0
 11
131.496765
 21
265.602158
 31
0.0
  0
LINE
  8
0
 10
131.544304
 20
265.694227
 30
0.0
 11
131.543658
 21
265.705019
 31
0.0
  0
LINE
  8
0
 10
131.543658
 20
265.705019
 30
0.0
 11
131.542382
 21
265.711001
 31
0.0
  0
LINE
  8
0
 10
131.658282
 20
265.925406
 30
0.0
 11
131.64819
 21
265.972444
 31
0.0
  0
LINE
  8
0
 10
131.64819
 20
265.972444
 30
0.0
 11
131.62075
 21
265.991254
 31
0.0
  0
LINE
  8
0
 10
132.321944
 20
264.824173
 30
0.0
 11
132.14892
 21
264.894038
 31
0.0
  0
LINE
  8
0
 10
132.14892
 20
264.894038
 30
0.0
 11
131.908985
 21
264.99092
 31
0.0
  0
LINE
  8
0
 10
131.908985
 20
264.99092
 30
0.0
 11
131.904786
 21
264.992616
 31
0.0
  0
LINE
  8
0
 10
132.297613
 20
264.739502
 30
0.0
 11
132.110438
 21
264.81508
 31
0.0
  0
LINE
  8
0
 10
132.110438
 20
264.81508
 30
0.0
 11
131.870503
 21
264.911963
 31
0.0
  0
LINE
  8
0
 10
131.870503
 20
264.911963
 30
0.0
 11
131.870122
 21
264.912117
 31
0.0
  0
LINE
  8
0
 10
132.032012
 20
265.210639
 30
0.0
 11
132.002831
 21
265.211129
 31
0.0
  0
LINE
  8
0
 10
132.002831
 20
265.211129
 30
0.0
 11
131.964586
 21
265.191389
 31
0.0
  0
LINE
  8
0
 10
131.964586
 20
265.191389
 30
0.0
 11
131.936907
 21
265.1611
 31
0.0
  0
LINE
  8
0
 10
131.936907
 20
265.1611
 30
0.0
 11
131.912451
 21
265.116835
 31
0.0
  0
LINE
  8
0
 10
131.912451
 20
265.116835
 30
0.0
 11
131.90247
 21
265.088579
 31
0.0
  0
LINE
  8
0
 10
131.90247
 20
265.088579
 30
0.0
 11
131.896174
 21
265.06054
 31
0.0
  0
LINE
  8
0
 10
131.907606
 20
265.050204
 30
0.0
 11
131.910239
 21
265.064115
 31
0.0
  0
LINE
  8
0
 10
131.910239
 20
265.064115
 30
0.0
 11
131.922456
 21
265.104876
 31
0.0
  0
LINE
  8
0
 10
131.922456
 20
265.104876
 30
0.0
 11
131.940488
 21
265.143081
 31
0.0
  0
LINE
  8
0
 10
131.940488
 20
265.143081
 30
0.0
 11
131.962679
 21
265.175227
 31
0.0
  0
LINE
  8
0
 10
131.962679
 20
265.175227
 30
0.0
 11
131.986022
 21
265.197666
 31
0.0
  0
LINE
  8
0
 10
131.854106
 20
264.911557
 30
0.0
 11
131.854253
 21
264.911683
 31
0.0
  0
LINE
  8
0
 10
131.854253
 20
264.911683
 30
0.0
 11
131.864397
 21
264.922367
 31
0.0
  0
LINE
  8
0
 10
131.864397
 20
264.922367
 30
0.0
 11
131.872898
 21
264.935091
 31
0.0
  0
LINE
  8
0
 10
131.872898
 20
264.935091
 30
0.0
 11
131.880144
 21
264.949833
 31
0.0
  0
LINE
  8
0
 10
131.895344
 20
264.946811
 30
0.0
 11
131.870122
 21
264.912117
 31
0.0
  0
LINE
  8
0
 10
131.88214
 20
264.95022
 30
0.0
 11
131.854198
 21
264.91154
 31
0.0
  0
LINE
  8
0
 10
131.866461
 20
264.909396
 30
0.0
 11
131.870122
 21
264.912117
 31
0.0
  0
LINE
  8
0
 10
131.870122
 20
264.912117
 30
0.0
 11
131.854568
 21
264.91147
 31
0.0
  0
LINE
  8
0
 10
131.880144
 20
264.949833
 30
0.0
 11
131.885325
 21
264.962228
 31
0.0
  0
LINE
  8
0
 10
131.885325
 20
264.962228
 30
0.0
 11
131.890989
 21
264.981946
 31
0.0
  0
LINE
  8
0
 10
131.890989
 20
264.981946
 30
0.0
 11
131.893427
 21
265.000626
 31
0.0
  0
LINE
  8
0
 10
131.893427
 20
265.000626
 30
0.0
 11
131.893589
 21
265.005493
 31
0.0
  0
LINE
  8
0
 10
131.893589
 20
265.029462
 30
0.0
 11
131.893589
 21
265.01748
 31
0.0
  0
LINE
  8
0
 10
131.893589
 20
265.01748
 30
0.0
 11
131.893589
 21
265.005498
 31
0.0
  0
LINE
  8
0
 10
131.896152
 20
265.060382
 30
0.0
 11
131.894613
 21
265.044871
 31
0.0
  0
LINE
  8
0
 10
131.894613
 20
265.044871
 30
0.0
 11
131.893601
 21
265.029931
 31
0.0
  0
LINE
  8
0
 10
131.895344
 20
264.946811
 30
0.0
 11
131.88214
 21
264.95022
 31
0.0
  0
LINE
  8
0
 10
131.893917
 20
265.003043
 30
0.0
 11
131.88214
 21
264.95022
 31
0.0
  0
LINE
  8
0
 10
131.904786
 20
264.992616
 30
0.0
 11
131.895344
 21
264.946811
 31
0.0
  0
LINE
  8
0
 10
131.904786
 20
264.992616
 30
0.0
 11
131.904786
 21
265.016579
 31
0.0
  0
LINE
  8
0
 10
131.893917
 20
265.003043
 30
0.0
 11
131.904786
 21
264.992616
 31
0.0
  0
LINE
  8
0
 10
131.893589
 20
265.005491
 30
0.0
 11
131.893917
 21
265.003043
 31
0.0
  0
LINE
  8
0
 10
131.904786
 20
265.016579
 30
0.0
 11
131.904912
 21
265.024701
 31
0.0
  0
LINE
  8
0
 10
131.904912
 20
265.024701
 30
0.0
 11
131.905426
 21
265.033036
 31
0.0
  0
LINE
  8
0
 10
131.905426
 20
265.033036
 30
0.0
 11
131.906325
 21
265.04155
 31
0.0
  0
LINE
  8
0
 10
131.906325
 20
265.04155
 30
0.0
 11
131.907606
 21
265.050204
 31
0.0
  0
LINE
  8
0
 10
131.893601
 20
265.029928
 30
0.0
 11
131.904786
 21
265.016579
 31
0.0
  0
LINE
  8
0
 10
131.896174
 20
265.06054
 30
0.0
 11
131.907606
 21
265.050204
 31
0.0
  0
LINE
  8
0
 10
131.880144
 20
264.949832
 30
0.0
 11
131.88214
 21
264.95022
 31
0.0
  0
LINE
  8
0
 10
131.986022
 20
265.197666
 30
0.0
 11
132.003954
 21
265.208015
 31
0.0
  0
LINE
  8
0
 10
132.003954
 20
265.208015
 30
0.0
 11
132.026824
 21
265.21166
 31
0.0
  0
LINE
  8
0
 10
132.026824
 20
265.21166
 30
0.0
 11
132.032014
 21
265.210639
 31
0.0
  0
LINE
  8
0
 10
132.388296
 20
264.938188
 30
0.0
 11
132.351592
 21
264.895914
 31
0.0
  0
LINE
  8
0
 10
132.351592
 20
264.895914
 30
0.0
 11
132.325209
 21
264.835533
 31
0.0
  0
LINE
  8
0
 10
132.398751
 20
267.847093
 30
0.0
 11
132.359177
 21
267.878843
 31
0.0
  0
LINE
  8
0
 10
132.359177
 20
267.878843
 30
0.0
 11
132.304122
 21
267.860422
 31
0.0
  0
LINE
  8
0
 10
132.325209
 20
267.827122
 30
0.0
 11
132.334019
 21
267.814756
 31
0.0
  0
LINE
  8
0
 10
132.334019
 20
267.814756
 30
0.0
 11
132.345352
 21
267.807512
 31
0.0
  0
LINE
  8
0
 10
132.304122
 20
267.860422
 30
0.0
 11
132.287485
 21
267.846136
 31
0.0
  0
LINE
  8
0
 10
132.287485
 20
267.846136
 30
0.0
 11
132.271248
 21
267.828351
 31
0.0
  0
LINE
  8
0
 10
131.587475
 20
268.444144
 30
0.0
 11
131.593467
 21
268.429896
 31
0.0
  0
LINE
  8
0
 10
131.593467
 20
268.429896
 30
0.0
 11
131.601876
 21
268.416612
 31
0.0
  0
LINE
  8
0
 10
132.341221
 20
269.00432
 30
0.0
 11
132.347212
 21
268.990072
 31
0.0
  0
LINE
  8
0
 10
132.347212
 20
268.990072
 30
0.0
 11
132.355622
 21
268.976789
 31
0.0
  0
LINE
  8
0
 10
132.977303
 20
266.003851
 30
0.0
 11
132.977303
 21
266.682661
 31
0.0
  0
LINE
  8
0
 10
132.977303
 20
266.682661
 30
0.0
 11
132.977303
 21
267.355672
 31
0.0
  0
LINE
  8
0
 10
132.881187
 20
265.093919
 30
0.0
 11
133.349899
 21
265.867195
 31
0.0
  0
LINE
  8
0
 10
133.349899
 20
265.867195
 30
0.0
 11
133.635868
 21
266.776201
 31
0.0
  0
LINE
  8
0
 10
132.983519
 20
265.056495
 30
0.0
 11
133.452231
 21
265.82977
 31
0.0
  0
LINE
  8
0
 10
133.452231
 20
265.82977
 30
0.0
 11
133.7382
 21
266.738776
 31
0.0
  0
LINE
  8
0
 10
132.989755
 20
265.990389
 30
0.0
 11
132.989755
 21
266.612095
 31
0.0
  0
LINE
  8
0
 10
132.989755
 20
266.612095
 30
0.0
 11
132.989755
 21
267.347931
 31
0.0
  0
LINE
  8
0
 10
134.752768
 20
266.475289
 30
0.0
 11
134.807823
 21
266.5387
 31
0.0
  0
LINE
  8
0
 10
134.807823
 20
266.5387
 30
0.0
 11
134.847398
 21
266.629272
 31
0.0
  0
LINE
  8
0
 10
134.067545
 20
266.981609
 30
0.0
 11
134.353515
 21
266.497662
 31
0.0
  0
LINE
  8
0
 10
134.353515
 20
266.497662
 30
0.0
 11
134.822227
 21
266.421071
 31
0.0
  0
LINE
  8
0
 10
134.855101
 20
266.437864
 30
0.0
 11
134.910156
 21
266.501276
 31
0.0
  0
LINE
  8
0
 10
134.910156
 20
266.501276
 30
0.0
 11
134.94973
 21
266.591847
 31
0.0
  0
LINE
  8
0
 10
132.989755
 20
265.990389
 30
0.0
 11
133.304306
 21
265.876823
 31
0.0
  0
LINE
  8
0
 10
133.304306
 20
265.876823
 30
0.0
 11
133.347315
 21
265.861295
 31
0.0
  0
LINE
  8
0
 10
132.917981
 20
265.830395
 30
0.0
 11
133.232532
 21
265.716828
 31
0.0
  0
LINE
  8
0
 10
133.232532
 20
265.716828
 30
0.0
 11
133.271284
 21
265.702837
 31
0.0
  0
LINE
  8
0
 10
132.827225
 20
265.095149
 30
0.0
 11
132.800842
 21
265.116315
 31
0.0
  0
LINE
  8
0
 10
132.800842
 20
265.116315
 30
0.0
 11
132.764139
 21
265.104034
 31
0.0
  0
LINE
  8
0
 10
132.577828
 20
264.789051
 30
0.0
 11
132.599902
 21
264.812466
 31
0.0
  0
LINE
  8
0
 10
132.599902
 20
264.812466
 30
0.0
 11
132.617306
 21
264.849929
 31
0.0
  0
LINE
  8
0
 10
132.617306
 20
264.849929
 30
0.0
 11
132.623718
 21
264.889041
 31
0.0
  0
LINE
  8
0
 10
132.580468
 20
264.777566
 30
0.0
 11
132.610225
 21
264.813998
 31
0.0
  0
LINE
  8
0
 10
132.610225
 20
264.813998
 30
0.0
 11
132.629844
 21
264.867922
 31
0.0
  0
LINE
  8
0
 10
132.629844
 20
264.867922
 30
0.0
 11
132.630359
 21
264.917267
 31
0.0
  0
LINE
  8
0
 10
132.630018
 20
264.916986
 30
0.0
 11
132.591948
 21
264.865261
 31
0.0
  0
LINE
  8
0
 10
132.591948
 20
264.865261
 30
0.0
 11
132.576179
 21
264.796972
 31
0.0
  0
LINE
  8
0
 10
132.576179
 20
264.796972
 30
0.0
 11
132.583392
 21
264.762332
 31
0.0
  0
LINE
  8
0
 10
132.583392
 20
264.762332
 30
0.0
 11
132.603099
 21
264.747695
 31
0.0
  0
LINE
  8
0
 10
132.603099
 20
264.747695
 30
0.0
 11
132.630018
 21
264.756983
 31
0.0
  0
LINE
  8
0
 10
132.490628
 20
264.900764
 30
0.0
 11
132.453924
 21
264.858489
 31
0.0
  0
LINE
  8
0
 10
132.453924
 20
264.858489
 30
0.0
 11
132.427542
 21
264.798108
 31
0.0
  0
LINE
  8
0
 10
132.630018
 20
264.756983
 30
0.0
 11
132.661664
 21
264.795781
 31
0.0
  0
LINE
  8
0
 10
132.661664
 20
264.795781
 30
0.0
 11
132.681222
 21
264.850317
 31
0.0
  0
LINE
  8
0
 10
132.681222
 20
264.850317
 30
0.0
 11
132.681222
 21
264.899761
 31
0.0
  0
LINE
  8
0
 10
132.681222
 20
264.899761
 30
0.0
 11
132.661664
 21
264.925226
 31
0.0
  0
LINE
  8
0
 10
132.661664
 20
264.925226
 30
0.0
 11
132.630018
 21
264.916986
 31
0.0
  0
LINE
  8
0
 10
132.623718
 20
264.889041
 30
0.0
 11
132.623072
 21
264.899833
 31
0.0
  0
LINE
  8
0
 10
132.623072
 20
264.899833
 30
0.0
 11
132.621796
 21
264.905815
 31
0.0
  0
LINE
  8
0
 10
132.70475
 20
265.152183
 30
0.0
 11
132.684431
 21
265.152837
 31
0.0
  0
LINE
  8
0
 10
132.684431
 20
265.152837
 30
0.0
 11
132.661806
 21
265.141459
 31
0.0
  0
LINE
  8
0
 10
132.950645
 20
265.024424
 30
0.0
 11
132.967282
 21
265.03871
 31
0.0
  0
LINE
  8
0
 10
132.967282
 20
265.03871
 30
0.0
 11
132.983519
 21
265.056495
 31
0.0
  0
LINE
  8
0
 10
132.848313
 20
265.061849
 30
0.0
 11
132.864949
 21
265.076134
 31
0.0
  0
LINE
  8
0
 10
132.864949
 20
265.076134
 30
0.0
 11
132.881187
 21
265.093919
 31
0.0
  0
LINE
  8
0
 10
132.856016
 20
265.037752
 30
0.0
 11
132.89559
 21
265.006003
 31
0.0
  0
LINE
  8
0
 10
132.89559
 20
265.006003
 30
0.0
 11
132.950645
 21
265.024424
 31
0.0
  0
LINE
  8
0
 10
132.845087
 20
265.059523
 30
0.0
 11
132.8467
 21
265.060668
 31
0.0
  0
LINE
  8
0
 10
132.8467
 20
265.060668
 30
0.0
 11
132.848313
 21
265.061849
 31
0.0
  0
LINE
  8
0
 10
132.952761
 20
265.902915
 30
0.0
 11
132.960341
 21
265.920715
 31
0.0
  0
LINE
  8
0
 10
132.960341
 20
265.920715
 30
0.0
 11
132.972159
 21
265.960032
 31
0.0
  0
LINE
  8
0
 10
132.972159
 20
265.960032
 30
0.0
 11
132.976239
 21
265.98636
 31
0.0
  0
LINE
  8
0
 10
132.976239
 20
265.98636
 30
0.0
 11
132.977303
 21
266.003847
 31
0.0
  0
LINE
  8
0
 10
132.968655
 20
265.899674
 30
0.0
 11
132.917981
 21
265.830395
 31
0.0
  0
LINE
  8
0
 10
132.968655
 20
265.899674
 30
0.0
 11
132.955003
 21
265.903177
 31
0.0
  0
LINE
  8
0
 10
132.955003
 20
265.903177
 30
0.0
 11
132.977769
 21
266.000925
 31
0.0
  0
LINE
  8
0
 10
132.900013
 20
265.828253
 30
0.0
 11
132.900286
 21
265.82846
 31
0.0
  0
LINE
  8
0
 10
132.900286
 20
265.82846
 30
0.0
 11
132.901753
 21
265.829634
 31
0.0
  0
LINE
  8
0
 10
132.901753
 20
265.829634
 30
0.0
 11
132.91467
 21
265.841898
 31
0.0
  0
LINE
  8
0
 10
132.91467
 20
265.841898
 30
0.0
 11
132.934703
 21
265.868031
 31
0.0
  0
LINE
  8
0
 10
132.934703
 20
265.868031
 30
0.0
 11
132.952761
 21
265.902915
 31
0.0
  0
LINE
  8
0
 10
132.952761
 20
265.902915
 30
0.0
 11
132.955003
 21
265.903177
 31
0.0
  0
LINE
  8
0
 10
132.900446
 20
265.828564
 30
0.0
 11
132.900015
 21
265.828254
 31
0.0
  0
LINE
  8
0
 10
132.900446
 20
265.828564
 30
0.0
 11
132.955003
 21
265.903177
 31
0.0
  0
LINE
  8
0
 10
132.917981
 20
265.830395
 30
0.0
 11
132.900446
 21
265.828564
 31
0.0
  0
LINE
  8
0
 10
132.989755
 20
265.990389
 30
0.0
 11
132.968655
 21
265.899674
 31
0.0
  0
LINE
  8
0
 10
132.977769
 20
266.000925
 30
0.0
 11
132.989755
 21
265.990389
 31
0.0
  0
LINE
  8
0
 10
132.977303
 20
266.003847
 30
0.0
 11
132.977769
 21
266.000925
 31
0.0
  0
LINE
  8
0
 10
134.444855
 20
266.482737
 30
0.0
 11
134.571004
 21
266.435953
 31
0.0
  0
LINE
  8
0
 10
134.571004
 20
266.435953
 30
0.0
 11
134.719894
 21
266.458496
 31
0.0
  0
LINE
  8
0
 10
134.719894
 20
266.458496
 30
0.0
 11
134.736132
 21
266.464846
 31
0.0
  0
LINE
  8
0
 10
134.736132
 20
266.464846
 30
0.0
 11
134.752768
 21
266.475289
 31
0.0
  0
LINE
  8
0
 10
134.822227
 20
266.421071
 30
0.0
 11
134.838464
 21
266.427421
 31
0.0
  0
LINE
  8
0
 10
134.838464
 20
266.427421
 30
0.0
 11
134.855101
 21
266.437864
 31
0.0
  0
LINE
  8
0
 10
134.609884
 20
267.097079
 30
0.0
 11
134.994184
 21
267.382687
 31
0.0
  0
LINE
  8
0
 10
134.994184
 20
267.382687
 30
0.0
 11
135.450992
 21
267.722182
 31
0.0
  0
LINE
  8
0
 10
135.378204
 20
266.989079
 30
0.0
 11
135.351821
 21
267.010245
 31
0.0
  0
LINE
  8
0
 10
135.351821
 20
267.010245
 30
0.0
 11
135.315118
 21
266.997964
 31
0.0
  0
LINE
  8
0
 10
135.315118
 20
269.878012
 30
0.0
 11
135.351821
 21
269.920286
 31
0.0
  0
LINE
  8
0
 10
135.351821
 20
269.920286
 30
0.0
 11
135.378204
 21
269.980668
 31
0.0
  0
LINE
  8
0
 10
134.620872
 20
267.094034
 30
0.0
 11
135.050567
 21
267.413379
 31
0.0
  0
LINE
  8
0
 10
135.050567
 20
267.413379
 30
0.0
 11
135.46896
 21
267.724325
 31
0.0
  0
LINE
  8
0
 10
132.989755
 20
268.359339
 30
0.0
 11
132.989755
 21
267.778684
 31
0.0
  0
LINE
  8
0
 10
132.982562
 20
268.357442
 30
0.0
 11
132.982562
 21
267.808233
 31
0.0
  0
LINE
  8
0
 10
133.7382
 20
267.797167
 30
0.0
 11
133.452231
 21
268.281114
 31
0.0
  0
LINE
  8
0
 10
133.452231
 20
268.281114
 30
0.0
 11
132.983519
 21
268.357704
 31
0.0
  0
LINE
  8
0
 10
132.950645
 20
268.340912
 30
0.0
 11
132.89559
 21
268.2775
 31
0.0
  0
LINE
  8
0
 10
132.89559
 20
268.2775
 30
0.0
 11
132.856016
 21
268.186928
 31
0.0
  0
LINE
  8
0
 10
133.551962
 20
267.556343
 30
0.0
 11
133.365723
 21
267.613271
 31
0.0
  0
LINE
  8
0
 10
133.365723
 20
267.613271
 30
0.0
 11
133.116501
 21
267.689451
 31
0.0
  0
LINE
  8
0
 10
133.116501
 20
267.689451
 30
0.0
 11
133.116104
 21
267.689572
 31
0.0
  0
LINE
  8
0
 10
133.508766
 20
267.478541
 30
0.0
 11
133.332512
 21
267.532417
 31
0.0
  0
LINE
  8
0
 10
133.332512
 20
267.532417
 30
0.0
 11
133.08329
 21
267.608597
 31
0.0
  0
LINE
  8
0
 10
133.08329
 20
267.608597
 30
0.0
 11
133.078928
 21
267.60993
 31
0.0
  0
LINE
  8
0
 10
133.04619
 20
267.595457
 30
0.0
 11
133.017809
 21
267.566941
 31
0.0
  0
LINE
  8
0
 10
133.017809
 20
267.566941
 30
0.0
 11
132.993385
 21
267.526444
 31
0.0
  0
LINE
  8
0
 10
132.993385
 20
267.526444
 30
0.0
 11
132.975643
 21
267.474778
 31
0.0
  0
LINE
  8
0
 10
132.975643
 20
267.474778
 30
0.0
 11
132.97037
 21
267.430335
 31
0.0
  0
LINE
  8
0
 10
132.97037
 20
267.430335
 30
0.0
 11
132.975574
 21
267.391128
 31
0.0
  0
LINE
  8
0
 10
132.975574
 20
267.391128
 30
0.0
 11
132.990996
 21
267.361473
 31
0.0
  0
LINE
  8
0
 10
132.990996
 20
267.361473
 30
0.0
 11
133.011693
 21
267.345418
 31
0.0
  0
LINE
  8
0
 10
133.01169
 20
267.34542
 30
0.0
 11
133.007968
 21
267.347414
 31
0.0
  0
LINE
  8
0
 10
133.007968
 20
267.347414
 30
0.0
 11
132.992554
 21
267.364396
 31
0.0
  0
LINE
  8
0
 10
132.992554
 20
267.364396
 30
0.0
 11
132.983568
 21
267.391702
 31
0.0
  0
LINE
  8
0
 10
132.983568
 20
267.391702
 30
0.0
 11
132.981565
 21
267.416858
 31
0.0
  0
LINE
  8
0
 10
132.983183
 20
267.3639
 30
0.0
 11
132.987178
 21
267.366417
 31
0.0
  0
LINE
  8
0
 10
132.989755
 20
267.347931
 30
0.0
 11
132.981885
 21
267.349879
 31
0.0
  0
LINE
  8
0
 10
132.981885
 20
267.349879
 30
0.0
 11
132.977809
 21
267.353484
 31
0.0
  0
LINE
  8
0
 10
132.977809
 20
267.353484
 30
0.0
 11
132.977888
 21
267.358197
 31
0.0
  0
LINE
  8
0
 10
132.977888
 20
267.358197
 30
0.0
 11
132.982562
 21
267.363439
 31
0.0
  0
LINE
  8
0
 10
132.764139
 20
267.984082
 30
0.0
 11
132.800842
 21
268.026356
 31
0.0
  0
LINE
  8
0
 10
132.800842
 20
268.026356
 30
0.0
 11
132.827225
 21
268.086738
 31
0.0
  0
LINE
  8
0
 10
132.427542
 20
267.789697
 30
0.0
 11
132.453924
 21
267.76853
 31
0.0
  0
LINE
  8
0
 10
132.453924
 20
267.76853
 30
0.0
 11
132.490628
 21
267.780811
 31
0.0
  0
LINE
  8
0
 10
132.577828
 20
267.993023
 30
0.0
 11
132.599902
 21
268.016438
 31
0.0
  0
LINE
  8
0
 10
132.599902
 20
268.016438
 30
0.0
 11
132.617306
 21
268.053901
 31
0.0
  0
LINE
  8
0
 10
132.617306
 20
268.053901
 30
0.0
 11
132.623718
 21
268.093013
 31
0.0
  0
LINE
  8
0
 10
132.580468
 20
267.981539
 30
0.0
 11
132.610225
 21
268.01797
 31
0.0
  0
LINE
  8
0
 10
132.610225
 20
268.01797
 30
0.0
 11
132.629844
 21
268.071894
 31
0.0
  0
LINE
  8
0
 10
132.629844
 20
268.071894
 30
0.0
 11
132.630359
 21
268.121239
 31
0.0
  0
LINE
  8
0
 10
132.630018
 20
268.120958
 30
0.0
 11
132.591948
 21
268.069233
 31
0.0
  0
LINE
  8
0
 10
132.591948
 20
268.069233
 30
0.0
 11
132.576179
 21
268.000944
 31
0.0
  0
LINE
  8
0
 10
132.576179
 20
268.000944
 30
0.0
 11
132.583392
 21
267.966304
 31
0.0
  0
LINE
  8
0
 10
132.583392
 20
267.966304
 30
0.0
 11
132.603099
 21
267.951667
 31
0.0
  0
LINE
  8
0
 10
132.603099
 20
267.951667
 30
0.0
 11
132.630018
 21
267.960955
 31
0.0
  0
LINE
  8
0
 10
132.623718
 20
268.093013
 30
0.0
 11
132.623072
 21
268.103805
 31
0.0
  0
LINE
  8
0
 10
132.623072
 20
268.103805
 30
0.0
 11
132.621796
 21
268.109787
 31
0.0
  0
LINE
  8
0
 10
132.630018
 20
267.960955
 30
0.0
 11
132.661664
 21
267.999753
 31
0.0
  0
LINE
  8
0
 10
132.661664
 20
267.999753
 30
0.0
 11
132.681222
 21
268.054289
 31
0.0
  0
LINE
  8
0
 10
132.681222
 20
268.054289
 30
0.0
 11
132.681222
 21
268.103733
 31
0.0
  0
LINE
  8
0
 10
132.681222
 20
268.103733
 30
0.0
 11
132.661664
 21
268.129198
 31
0.0
  0
LINE
  8
0
 10
132.661664
 20
268.129198
 30
0.0
 11
132.630018
 21
268.120958
 31
0.0
  0
LINE
  8
0
 10
133.062393
 20
267.6075
 30
0.0
 11
133.063676
 21
267.608516
 31
0.0
  0
LINE
  8
0
 10
133.063676
 20
267.608516
 30
0.0
 11
133.073649
 21
267.61869
 31
0.0
  0
LINE
  8
0
 10
133.073649
 20
267.61869
 30
0.0
 11
133.082495
 21
267.631648
 31
0.0
  0
LINE
  8
0
 10
133.082495
 20
267.631648
 30
0.0
 11
133.090141
 21
267.647077
 31
0.0
  0
LINE
  8
0
 10
133.062393
 20
267.6075
 30
0.0
 11
133.092115
 21
267.647416
 31
0.0
  0
LINE
  8
0
 10
133.105423
 20
267.644232
 30
0.0
 11
133.078928
 21
267.60993
 31
0.0
  0
LINE
  8
0
 10
133.051566
 20
267.599453
 30
0.0
 11
133.056941
 21
267.603448
 31
0.0
  0
LINE
  8
0
 10
133.056941
 20
267.603448
 30
0.0
 11
133.062317
 21
267.607444
 31
0.0
  0
LINE
  8
0
 10
133.068177
 20
267.60194
 30
0.0
 11
133.051565
 21
267.599453
 31
0.0
  0
LINE
  8
0
 10
133.04619
 20
267.595457
 30
0.0
 11
133.062801
 21
267.597945
 31
0.0
  0
LINE
  8
0
 10
132.981565
 20
267.416858
 30
0.0
 11
132.984991
 21
267.45409
 31
0.0
  0
LINE
  8
0
 10
132.984991
 20
267.45409
 30
0.0
 11
132.995525
 21
267.494894
 31
0.0
  0
LINE
  8
0
 10
132.995525
 20
267.494894
 30
0.0
 11
133.012218
 21
267.534095
 31
0.0
  0
LINE
  8
0
 10
133.012218
 20
267.534095
 30
0.0
 11
133.033538
 21
267.568093
 31
0.0
  0
LINE
  8
0
 10
133.033538
 20
267.568093
 30
0.0
 11
133.057536
 21
267.593778
 31
0.0
  0
LINE
  8
0
 10
133.057536
 20
267.593778
 30
0.0
 11
133.062801
 21
267.597945
 31
0.0
  0
LINE
  8
0
 10
133.051565
 20
267.599453
 30
0.0
 11
133.048877
 21
267.597455
 31
0.0
  0
LINE
  8
0
 10
133.048877
 20
267.597455
 30
0.0
 11
133.046188
 21
267.595456
 31
0.0
  0
LINE
  8
0
 10
133.062317
 20
267.607444
 30
0.0
 11
133.062393
 21
267.6075
 31
0.0
  0
LINE
  8
0
 10
133.078928
 20
267.60993
 30
0.0
 11
133.062317
 21
267.607444
 31
0.0
  0
LINE
  8
0
 10
133.062801
 20
267.597945
 30
0.0
 11
133.068177
 21
267.60194
 31
0.0
  0
LINE
  8
0
 10
133.068177
 20
267.60194
 30
0.0
 11
133.078928
 21
267.60993
 31
0.0
  0
LINE
  8
0
 10
132.989755
 20
267.778684
 30
0.0
 11
132.981885
 21
267.785881
 31
0.0
  0
LINE
  8
0
 10
132.981885
 20
267.785881
 30
0.0
 11
132.977809
 21
267.793954
 31
0.0
  0
LINE
  8
0
 10
132.977809
 20
267.793954
 30
0.0
 11
132.977888
 21
267.801801
 31
0.0
  0
LINE
  8
0
 10
132.977888
 20
267.801801
 30
0.0
 11
132.982562
 21
267.808233
 31
0.0
  0
LINE
  8
0
 10
133.103652
 20
267.703034
 30
0.0
 11
133.103652
 21
267.703256
 31
0.0
  0
LINE
  8
0
 10
133.090141
 20
267.647077
 30
0.0
 11
133.095519
 21
267.659966
 31
0.0
  0
LINE
  8
0
 10
133.095519
 20
267.659966
 30
0.0
 11
133.101136
 21
267.67988
 31
0.0
  0
LINE
  8
0
 10
133.101136
 20
267.67988
 30
0.0
 11
133.103172
 21
267.693969
 31
0.0
  0
LINE
  8
0
 10
133.103172
 20
267.693969
 30
0.0
 11
133.103652
 21
267.703027
 31
0.0
  0
LINE
  8
0
 10
133.090141
 20
267.647076
 30
0.0
 11
133.092115
 21
267.647416
 31
0.0
  0
LINE
  8
0
 10
133.103652
 20
267.703034
 30
0.0
 11
133.104117
 21
267.700108
 31
0.0
  0
LINE
  8
0
 10
133.116104
 20
267.689572
 30
0.0
 11
133.116104
 21
267.695011
 31
0.0
  0
LINE
  8
0
 10
133.105423
 20
267.644232
 30
0.0
 11
133.092115
 21
267.647416
 31
0.0
  0
LINE
  8
0
 10
133.092115
 20
267.647416
 30
0.0
 11
133.104117
 21
267.700108
 31
0.0
  0
LINE
  8
0
 10
133.104117
 20
267.700108
 30
0.0
 11
133.116104
 21
267.689572
 31
0.0
  0
LINE
  8
0
 10
133.116104
 20
267.689572
 30
0.0
 11
133.105423
 21
267.644232
 31
0.0
  0
LINE
  8
0
 10
133.531684
 20
267.52492
 30
0.0
 11
133.504245
 21
267.465324
 31
0.0
  0
LINE
  8
0
 10
133.504245
 20
267.465324
 30
0.0
 11
133.494152
 21
267.403284
 31
0.0
  0
LINE
  8
0
 10
133.634017
 20
267.487495
 30
0.0
 11
133.606577
 21
267.427899
 31
0.0
  0
LINE
  8
0
 10
133.606577
 20
267.427899
 30
0.0
 11
133.596484
 21
267.36586
 31
0.0
  0
LINE
  8
0
 10
133.494152
 20
266.996864
 30
0.0
 11
133.50177
 21
266.954706
 31
0.0
  0
LINE
  8
0
 10
133.50177
 20
266.954706
 30
0.0
 11
133.523007
 21
266.932818
 31
0.0
  0
LINE
  8
0
 10
133.596484
 20
266.95944
 30
0.0
 11
133.606577
 21
266.912401
 31
0.0
  0
LINE
  8
0
 10
133.606577
 20
266.912401
 30
0.0
 11
133.634017
 21
266.893591
 31
0.0
  0
LINE
  8
0
 10
133.7382
 20
266.738776
 30
0.0
 11
133.735597
 21
266.845271
 31
0.0
  0
LINE
  8
0
 10
133.735597
 20
266.845271
 30
0.0
 11
133.687043
 21
266.890218
 31
0.0
  0
LINE
  8
0
 10
133.635868
 20
266.776201
 30
0.0
 11
133.640591
 21
266.84265
 31
0.0
  0
LINE
  8
0
 10
133.640591
 20
266.84265
 30
0.0
 11
133.62851
 21
266.894404
 31
0.0
  0
LINE
  8
0
 10
133.674165
 20
267.198278
 30
0.0
 11
133.696239
 21
267.221693
 31
0.0
  0
LINE
  8
0
 10
133.696239
 20
267.221693
 30
0.0
 11
133.713643
 21
267.259156
 31
0.0
  0
LINE
  8
0
 10
133.713643
 20
267.259156
 30
0.0
 11
133.720055
 21
267.298268
 31
0.0
  0
LINE
  8
0
 10
133.676805
 20
267.186794
 30
0.0
 11
133.706562
 21
267.223225
 31
0.0
  0
LINE
  8
0
 10
133.706562
 20
267.223225
 30
0.0
 11
133.726181
 21
267.277149
 31
0.0
  0
LINE
  8
0
 10
133.726181
 20
267.277149
 30
0.0
 11
133.726696
 21
267.326494
 31
0.0
  0
LINE
  8
0
 10
133.726355
 20
267.326213
 30
0.0
 11
133.688285
 21
267.274488
 31
0.0
  0
LINE
  8
0
 10
133.688285
 20
267.274488
 30
0.0
 11
133.672516
 21
267.206199
 31
0.0
  0
LINE
  8
0
 10
133.672516
 20
267.206199
 30
0.0
 11
133.679729
 21
267.171559
 31
0.0
  0
LINE
  8
0
 10
133.679729
 20
267.171559
 30
0.0
 11
133.699436
 21
267.156922
 31
0.0
  0
LINE
  8
0
 10
133.699436
 20
267.156922
 30
0.0
 11
133.726355
 21
267.16621
 31
0.0
  0
LINE
  8
0
 10
133.726355
 20
267.16621
 30
0.0
 11
133.758001
 21
267.205008
 31
0.0
  0
LINE
  8
0
 10
133.758001
 20
267.205008
 30
0.0
 11
133.777559
 21
267.259544
 31
0.0
  0
LINE
  8
0
 10
133.777559
 20
267.259544
 30
0.0
 11
133.777559
 21
267.308988
 31
0.0
  0
LINE
  8
0
 10
133.777559
 20
267.308988
 30
0.0
 11
133.758001
 21
267.334453
 31
0.0
  0
LINE
  8
0
 10
133.758001
 20
267.334453
 30
0.0
 11
133.726355
 21
267.326213
 31
0.0
  0
LINE
  8
0
 10
133.720055
 20
267.298268
 30
0.0
 11
133.719409
 21
267.30906
 31
0.0
  0
LINE
  8
0
 10
133.719409
 20
267.30906
 30
0.0
 11
133.718133
 21
267.315042
 31
0.0
  0
LINE
  8
0
 10
133.635868
 20
267.834592
 30
0.0
 11
133.493026
 21
268.166549
 31
0.0
  0
LINE
  8
0
 10
133.493026
 20
268.166549
 30
0.0
 11
133.259055
 21
268.31268
 31
0.0
  0
LINE
  8
0
 10
133.687043
 20
267.569685
 30
0.0
 11
133.735597
 21
267.686803
 31
0.0
  0
LINE
  8
0
 10
133.735597
 20
267.686803
 30
0.0
 11
133.7382
 21
267.797167
 31
0.0
  0
LINE
  8
0
 10
133.58471
 20
267.60711
 30
0.0
 11
133.633265
 21
267.724228
 31
0.0
  0
LINE
  8
0
 10
133.633265
 20
267.724228
 30
0.0
 11
133.635868
 21
267.834592
 31
0.0
  0
LINE
  8
0
 10
132.983519
 20
268.357704
 30
0.0
 11
132.967282
 21
268.351355
 31
0.0
  0
LINE
  8
0
 10
132.967282
 20
268.351355
 30
0.0
 11
132.950645
 21
268.340912
 31
0.0
  0
LINE
  8
0
 10
134.822227
 20
269.722281
 30
0.0
 11
134.353515
 21
268.949006
 31
0.0
  0
LINE
  8
0
 10
134.353515
 20
268.949006
 30
0.0
 11
134.067545
 21
268.039999
 31
0.0
  0
LINE
  8
0
 10
134.872923
 20
266.718103
 30
0.0
 11
134.699899
 21
266.787968
 31
0.0
  0
LINE
  8
0
 10
134.699899
 20
266.787968
 30
0.0
 11
134.459964
 21
266.88485
 31
0.0
  0
LINE
  8
0
 10
134.459964
 20
266.88485
 30
0.0
 11
134.455765
 21
266.886546
 31
0.0
  0
LINE
  8
0
 10
134.848592
 20
266.633432
 30
0.0
 11
134.661417
 21
266.70901
 31
0.0
  0
LINE
  8
0
 10
134.661417
 20
266.70901
 30
0.0
 11
134.421482
 21
266.805893
 31
0.0
  0
LINE
  8
0
 10
134.421482
 20
266.805893
 30
0.0
 11
134.421101
 21
266.806047
 31
0.0
  0
LINE
  8
0
 10
134.171729
 20
267.29128
 30
0.0
 11
134.199169
 21
267.350876
 31
0.0
  0
LINE
  8
0
 10
134.199169
 20
267.350876
 30
0.0
 11
134.209261
 21
267.412916
 31
0.0
  0
LINE
  8
0
 10
134.265481
 20
266.829911
 30
0.0
 11
134.254323
 21
266.829766
 31
0.0
  0
LINE
  8
0
 10
134.254323
 20
266.829766
 30
0.0
 11
134.244825
 21
266.825752
 31
0.0
  0
LINE
  8
0
 10
134.244825
 20
266.825752
 30
0.0
 11
134.238153
 21
266.818562
 31
0.0
  0
LINE
  8
0
 10
134.238153
 20
266.818562
 30
0.0
 11
134.21053
 21
266.739636
 31
0.0
  0
LINE
  8
0
 10
134.118703
 20
267.20909
 30
0.0
 11
134.070148
 21
267.091972
 31
0.0
  0
LINE
  8
0
 10
134.070148
 20
267.091972
 30
0.0
 11
134.067545
 21
266.981609
 31
0.0
  0
LINE
  8
0
 10
134.582991
 20
267.104569
 30
0.0
 11
134.55381
 21
267.105059
 31
0.0
  0
LINE
  8
0
 10
134.55381
 20
267.105059
 30
0.0
 11
134.515565
 21
267.085319
 31
0.0
  0
LINE
  8
0
 10
134.515565
 20
267.085319
 30
0.0
 11
134.487886
 21
267.05503
 31
0.0
  0
LINE
  8
0
 10
134.487886
 20
267.05503
 30
0.0
 11
134.46343
 21
267.010765
 31
0.0
  0
LINE
  8
0
 10
134.46343
 20
267.010765
 30
0.0
 11
134.453449
 21
266.982509
 31
0.0
  0
LINE
  8
0
 10
134.453449
 20
266.982509
 30
0.0
 11
134.447153
 21
266.95447
 31
0.0
  0
LINE
  8
0
 10
134.458585
 20
266.944134
 30
0.0
 11
134.461218
 21
266.958045
 31
0.0
  0
LINE
  8
0
 10
134.461218
 20
266.958045
 30
0.0
 11
134.473435
 21
266.998806
 31
0.0
  0
LINE
  8
0
 10
134.473435
 20
266.998806
 30
0.0
 11
134.491467
 21
267.037011
 31
0.0
  0
LINE
  8
0
 10
134.491467
 20
267.037011
 30
0.0
 11
134.513658
 21
267.069157
 31
0.0
  0
LINE
  8
0
 10
134.513658
 20
267.069157
 30
0.0
 11
134.537001
 21
267.091596
 31
0.0
  0
LINE
  8
0
 10
134.405085
 20
266.805487
 30
0.0
 11
134.405232
 21
266.805613
 31
0.0
  0
LINE
  8
0
 10
134.405232
 20
266.805613
 30
0.0
 11
134.415376
 21
266.816297
 31
0.0
  0
LINE
  8
0
 10
134.415376
 20
266.816297
 30
0.0
 11
134.423877
 21
266.829021
 31
0.0
  0
LINE
  8
0
 10
134.423877
 20
266.829021
 30
0.0
 11
134.431123
 21
266.843763
 31
0.0
  0
LINE
  8
0
 10
134.446323
 20
266.840741
 30
0.0
 11
134.421101
 21
266.806047
 31
0.0
  0
LINE
  8
0
 10
134.433119
 20
266.84415
 30
0.0
 11
134.405177
 21
266.80547
 31
0.0
  0
LINE
  8
0
 10
134.41744
 20
266.803326
 30
0.0
 11
134.421101
 21
266.806047
 31
0.0
  0
LINE
  8
0
 10
134.421101
 20
266.806047
 30
0.0
 11
134.405547
 21
266.8054
 31
0.0
  0
LINE
  8
0
 10
134.431123
 20
266.843763
 30
0.0
 11
134.436304
 21
266.856158
 31
0.0
  0
LINE
  8
0
 10
134.436304
 20
266.856158
 30
0.0
 11
134.441968
 21
266.875876
 31
0.0
  0
LINE
  8
0
 10
134.441968
 20
266.875876
 30
0.0
 11
134.444406
 21
266.894556
 31
0.0
  0
LINE
  8
0
 10
134.444406
 20
266.894556
 30
0.0
 11
134.444568
 21
266.899423
 31
0.0
  0
LINE
  8
0
 10
134.444568
 20
266.923392
 30
0.0
 11
134.444568
 21
266.91141
 31
0.0
  0
LINE
  8
0
 10
134.444568
 20
266.91141
 30
0.0
 11
134.444568
 21
266.899428
 31
0.0
  0
LINE
  8
0
 10
134.447131
 20
266.954312
 30
0.0
 11
134.445592
 21
266.938801
 31
0.0
  0
LINE
  8
0
 10
134.445592
 20
266.938801
 30
0.0
 11
134.44458
 21
266.923861
 31
0.0
  0
LINE
  8
0
 10
134.446323
 20
266.840741
 30
0.0
 11
134.433119
 21
266.84415
 31
0.0
  0
LINE
  8
0
 10
134.444896
 20
266.896973
 30
0.0
 11
134.433119
 21
266.84415
 31
0.0
  0
LINE
  8
0
 10
134.455765
 20
266.886546
 30
0.0
 11
134.446323
 21
266.840741
 31
0.0
  0
LINE
  8
0
 10
134.455765
 20
266.886546
 30
0.0
 11
134.455765
 21
266.910509
 31
0.0
  0
LINE
  8
0
 10
134.444896
 20
266.896973
 30
0.0
 11
134.455765
 21
266.886546
 31
0.0
  0
LINE
  8
0
 10
134.444568
 20
266.899421
 30
0.0
 11
134.444896
 21
266.896973
 31
0.0
  0
LINE
  8
0
 10
134.455765
 20
266.910509
 30
0.0
 11
134.455891
 21
266.918631
 31
0.0
  0
LINE
  8
0
 10
134.455891
 20
266.918631
 30
0.0
 11
134.456405
 21
266.926966
 31
0.0
  0
LINE
  8
0
 10
134.456405
 20
266.926966
 30
0.0
 11
134.457304
 21
266.93548
 31
0.0
  0
LINE
  8
0
 10
134.457304
 20
266.93548
 30
0.0
 11
134.458585
 21
266.944134
 31
0.0
  0
LINE
  8
0
 10
134.44458
 20
266.923858
 30
0.0
 11
134.455765
 21
266.910509
 31
0.0
  0
LINE
  8
0
 10
134.447153
 20
266.95447
 30
0.0
 11
134.458585
 21
266.944134
 31
0.0
  0
LINE
  8
0
 10
134.431123
 20
266.843762
 30
0.0
 11
134.433119
 21
266.84415
 31
0.0
  0
LINE
  8
0
 10
134.537001
 20
267.091596
 30
0.0
 11
134.554933
 21
267.101945
 31
0.0
  0
LINE
  8
0
 10
134.554933
 20
267.101945
 30
0.0
 11
134.577803
 21
267.10559
 31
0.0
  0
LINE
  8
0
 10
134.577803
 20
267.10559
 30
0.0
 11
134.582993
 21
267.104569
 31
0.0
  0
LINE
  8
0
 10
134.209261
 20
267.819336
 30
0.0
 11
134.199169
 21
267.866374
 31
0.0
  0
LINE
  8
0
 10
134.199169
 20
267.866374
 30
0.0
 11
134.171729
 21
267.885184
 31
0.0
  0
LINE
  8
0
 10
134.049393
 20
267.488167
 30
0.0
 11
134.071467
 21
267.511582
 31
0.0
  0
LINE
  8
0
 10
134.071467
 20
267.511582
 30
0.0
 11
134.088871
 21
267.549045
 31
0.0
  0
LINE
  8
0
 10
134.088871
 20
267.549045
 30
0.0
 11
134.095283
 21
267.588157
 31
0.0
  0
LINE
  8
0
 10
134.052033
 20
267.476683
 30
0.0
 11
134.08179
 21
267.513114
 31
0.0
  0
LINE
  8
0
 10
134.08179
 20
267.513114
 30
0.0
 11
134.101409
 21
267.567038
 31
0.0
  0
LINE
  8
0
 10
134.101409
 20
267.567038
 30
0.0
 11
134.101924
 21
267.616383
 31
0.0
  0
LINE
  8
0
 10
134.101583
 20
267.616102
 30
0.0
 11
134.063513
 21
267.564377
 31
0.0
  0
LINE
  8
0
 10
134.063513
 20
267.564377
 30
0.0
 11
134.047744
 21
267.496088
 31
0.0
  0
LINE
  8
0
 10
134.047744
 20
267.496088
 30
0.0
 11
134.054957
 21
267.461448
 31
0.0
  0
LINE
  8
0
 10
134.054957
 20
267.461448
 30
0.0
 11
134.074664
 21
267.446811
 31
0.0
  0
LINE
  8
0
 10
134.074664
 20
267.446811
 30
0.0
 11
134.101583
 21
267.456099
 31
0.0
  0
LINE
  8
0
 10
134.101583
 20
267.456099
 30
0.0
 11
134.133229
 21
267.494897
 31
0.0
  0
LINE
  8
0
 10
134.133229
 20
267.494897
 30
0.0
 11
134.152787
 21
267.549433
 31
0.0
  0
LINE
  8
0
 10
134.152787
 20
267.549433
 30
0.0
 11
134.152787
 21
267.598877
 31
0.0
  0
LINE
  8
0
 10
134.152787
 20
267.598877
 30
0.0
 11
134.133229
 21
267.624342
 31
0.0
  0
LINE
  8
0
 10
134.133229
 20
267.624342
 30
0.0
 11
134.101583
 21
267.616102
 31
0.0
  0
LINE
  8
0
 10
134.095283
 20
267.588157
 30
0.0
 11
134.094637
 21
267.598949
 31
0.0
  0
LINE
  8
0
 10
134.094637
 20
267.598949
 30
0.0
 11
134.093361
 21
267.604931
 31
0.0
  0
LINE
  8
0
 10
134.067545
 20
268.039999
 30
0.0
 11
134.070148
 21
267.933505
 31
0.0
  0
LINE
  8
0
 10
134.070148
 20
267.933505
 30
0.0
 11
134.118703
 21
267.888557
 31
0.0
  0
LINE
  8
0
 10
134.939275
 20
266.832118
 30
0.0
 11
134.902571
 21
266.789844
 31
0.0
  0
LINE
  8
0
 10
134.902571
 20
266.789844
 30
0.0
 11
134.876188
 21
266.729463
 31
0.0
  0
LINE
  8
0
 10
135.128807
 20
266.682981
 30
0.0
 11
135.150881
 21
266.706396
 31
0.0
  0
LINE
  8
0
 10
135.150881
 20
266.706396
 30
0.0
 11
135.168285
 21
266.743859
 31
0.0
  0
LINE
  8
0
 10
135.168285
 20
266.743859
 30
0.0
 11
135.174697
 21
266.782971
 31
0.0
  0
LINE
  8
0
 10
135.131447
 20
266.671496
 30
0.0
 11
135.161204
 21
266.707928
 31
0.0
  0
LINE
  8
0
 10
135.161204
 20
266.707928
 30
0.0
 11
135.180823
 21
266.761852
 31
0.0
  0
LINE
  8
0
 10
135.180823
 20
266.761852
 30
0.0
 11
135.181338
 21
266.811197
 31
0.0
  0
LINE
  8
0
 10
135.180997
 20
266.810916
 30
0.0
 11
135.142927
 21
266.759191
 31
0.0
  0
LINE
  8
0
 10
135.142927
 20
266.759191
 30
0.0
 11
135.127158
 21
266.690902
 31
0.0
  0
LINE
  8
0
 10
135.127158
 20
266.690902
 30
0.0
 11
135.134371
 21
266.656262
 31
0.0
  0
LINE
  8
0
 10
135.134371
 20
266.656262
 30
0.0
 11
135.154078
 21
266.641625
 31
0.0
  0
LINE
  8
0
 10
135.154078
 20
266.641625
 30
0.0
 11
135.180997
 21
266.650913
 31
0.0
  0
LINE
  8
0
 10
135.041607
 20
266.794694
 30
0.0
 11
135.004903
 21
266.752419
 31
0.0
  0
LINE
  8
0
 10
135.004903
 20
266.752419
 30
0.0
 11
134.978521
 21
266.692038
 31
0.0
  0
LINE
  8
0
 10
135.180997
 20
266.650913
 30
0.0
 11
135.212643
 21
266.689711
 31
0.0
  0
LINE
  8
0
 10
135.212643
 20
266.689711
 30
0.0
 11
135.232201
 21
266.744247
 31
0.0
  0
LINE
  8
0
 10
135.232201
 20
266.744247
 30
0.0
 11
135.232201
 21
266.793691
 31
0.0
  0
LINE
  8
0
 10
135.232201
 20
266.793691
 30
0.0
 11
135.212643
 21
266.819156
 31
0.0
  0
LINE
  8
0
 10
135.212643
 20
266.819156
 30
0.0
 11
135.180997
 21
266.810916
 31
0.0
  0
LINE
  8
0
 10
135.174697
 20
266.782971
 30
0.0
 11
135.174051
 21
266.793763
 31
0.0
  0
LINE
  8
0
 10
135.174051
 20
266.793763
 30
0.0
 11
135.172775
 21
266.799745
 31
0.0
  0
LINE
  8
0
 10
135.255729
 20
267.046113
 30
0.0
 11
135.23541
 21
267.046767
 31
0.0
  0
LINE
  8
0
 10
135.23541
 20
267.046767
 30
0.0
 11
135.212785
 21
267.035389
 31
0.0
  0
LINE
  8
0
 10
134.94973
 20
269.741023
 30
0.0
 11
134.910156
 21
269.772773
 31
0.0
  0
LINE
  8
0
 10
134.910156
 20
269.772773
 30
0.0
 11
134.855101
 21
269.754352
 31
0.0
  0
LINE
  8
0
 10
134.876188
 20
269.721052
 30
0.0
 11
134.884998
 21
269.708686
 31
0.0
  0
LINE
  8
0
 10
134.884998
 20
269.708686
 30
0.0
 11
134.896331
 21
269.701442
 31
0.0
  0
LINE
  8
0
 10
134.855101
 20
269.754352
 30
0.0
 11
134.838464
 21
269.740066
 31
0.0
  0
LINE
  8
0
 10
134.838464
 20
269.740066
 30
0.0
 11
134.822227
 21
269.722281
 31
0.0
  0
LINE
  8
0
 10
134.978521
 20
269.683627
 30
0.0
 11
135.004903
 21
269.66246
 31
0.0
  0
LINE
  8
0
 10
135.004903
 20
269.66246
 30
0.0
 11
135.041607
 21
269.674741
 31
0.0
  0
LINE
  8
0
 10
135.128807
 20
269.886953
 30
0.0
 11
135.150881
 21
269.910368
 31
0.0
  0
LINE
  8
0
 10
135.150881
 20
269.910368
 30
0.0
 11
135.168285
 21
269.947831
 31
0.0
  0
LINE
  8
0
 10
135.168285
 20
269.947831
 30
0.0
 11
135.174697
 21
269.986943
 31
0.0
  0
LINE
  8
0
 10
135.131447
 20
269.875469
 30
0.0
 11
135.161204
 21
269.9119
 31
0.0
  0
LINE
  8
0
 10
135.161204
 20
269.9119
 30
0.0
 11
135.180823
 21
269.965824
 31
0.0
  0
LINE
  8
0
 10
135.180823
 20
269.965824
 30
0.0
 11
135.181338
 21
270.015169
 31
0.0
  0
LINE
  8
0
 10
135.180997
 20
270.014888
 30
0.0
 11
135.142927
 21
269.963163
 31
0.0
  0
LINE
  8
0
 10
135.142927
 20
269.963163
 30
0.0
 11
135.127158
 21
269.894874
 31
0.0
  0
LINE
  8
0
 10
135.127158
 20
269.894874
 30
0.0
 11
135.134371
 21
269.860234
 31
0.0
  0
LINE
  8
0
 10
135.134371
 20
269.860234
 30
0.0
 11
135.154078
 21
269.845597
 31
0.0
  0
LINE
  8
0
 10
135.154078
 20
269.845597
 30
0.0
 11
135.180997
 21
269.854885
 31
0.0
  0
LINE
  8
0
 10
135.180997
 20
269.854885
 30
0.0
 11
135.212643
 21
269.893683
 31
0.0
  0
LINE
  8
0
 10
135.212643
 20
269.893683
 30
0.0
 11
135.232201
 21
269.948219
 31
0.0
  0
LINE
  8
0
 10
135.232201
 20
269.948219
 30
0.0
 11
135.232201
 21
269.997663
 31
0.0
  0
LINE
  8
0
 10
135.232201
 20
269.997663
 30
0.0
 11
135.212643
 21
270.023128
 31
0.0
  0
LINE
  8
0
 10
135.212643
 20
270.023128
 30
0.0
 11
135.180997
 21
270.014888
 31
0.0
  0
LINE
  8
0
 10
135.174697
 20
269.986943
 30
0.0
 11
135.174051
 21
269.997735
 31
0.0
  0
LINE
  8
0
 10
135.174051
 20
269.997735
 30
0.0
 11
135.172775
 21
270.003717
 31
0.0
  0
LINE
  8
0
 10
135.060087
 20
271.024957
 30
0.0
 11
135.066079
 21
271.010709
 31
0.0
  0
LINE
  8
0
 10
135.066079
 20
271.010709
 30
0.0
 11
135.074489
 21
270.997425
 31
0.0
  0
LINE
  8
0
 10
135.540734
 20
270.253269
 30
0.0
 11
135.540734
 21
269.672614
 31
0.0
  0
LINE
  8
0
 10
135.533541
 20
270.251372
 30
0.0
 11
135.533541
 21
269.702163
 31
0.0
  0
LINE
  8
0
 10
136.186847
 20
269.728522
 30
0.0
 11
136.044005
 21
270.060479
 31
0.0
  0
LINE
  8
0
 10
136.044005
 20
270.060479
 30
0.0
 11
135.810034
 21
270.20661
 31
0.0
  0
LINE
  8
0
 10
136.289179
 20
269.691097
 30
0.0
 11
136.00321
 21
270.175044
 31
0.0
  0
LINE
  8
0
 10
136.00321
 20
270.175044
 30
0.0
 11
135.534498
 21
270.251634
 31
0.0
  0
LINE
  8
0
 10
135.501624
 20
270.234842
 30
0.0
 11
135.446569
 21
270.17143
 31
0.0
  0
LINE
  8
0
 10
135.446569
 20
270.17143
 30
0.0
 11
135.406995
 21
270.080858
 31
0.0
  0
LINE
  8
0
 10
135.528282
 20
267.897781
 30
0.0
 11
135.528282
 21
268.576591
 31
0.0
  0
LINE
  8
0
 10
135.528282
 20
268.576591
 30
0.0
 11
135.528282
 21
269.249602
 31
0.0
  0
LINE
  8
0
 10
135.432166
 20
266.987849
 30
0.0
 11
135.900878
 21
267.761125
 31
0.0
  0
LINE
  8
0
 10
135.900878
 20
267.761125
 30
0.0
 11
136.186847
 21
268.670131
 31
0.0
  0
LINE
  8
0
 10
135.534498
 20
266.950425
 30
0.0
 11
136.00321
 21
267.7237
 31
0.0
  0
LINE
  8
0
 10
136.00321
 20
267.7237
 30
0.0
 11
136.289179
 21
268.632706
 31
0.0
  0
LINE
  8
0
 10
135.540734
 20
267.884319
 30
0.0
 11
135.540734
 21
268.506025
 31
0.0
  0
LINE
  8
0
 10
135.540734
 20
268.506025
 30
0.0
 11
135.540734
 21
269.241861
 31
0.0
  0
LINE
  8
0
 10
135.399292
 20
266.955779
 30
0.0
 11
135.415928
 21
266.970064
 31
0.0
  0
LINE
  8
0
 10
135.415928
 20
266.970064
 30
0.0
 11
135.432166
 21
266.987849
 31
0.0
  0
LINE
  8
0
 10
135.501624
 20
266.918354
 30
0.0
 11
135.518261
 21
266.93264
 31
0.0
  0
LINE
  8
0
 10
135.518261
 20
266.93264
 30
0.0
 11
135.534498
 21
266.950425
 31
0.0
  0
LINE
  8
0
 10
135.406995
 20
266.931682
 30
0.0
 11
135.446569
 21
266.899933
 31
0.0
  0
LINE
  8
0
 10
135.446569
 20
266.899933
 30
0.0
 11
135.501624
 21
266.918354
 31
0.0
  0
LINE
  8
0
 10
135.396066
 20
266.953453
 30
0.0
 11
135.397679
 21
266.954598
 31
0.0
  0
LINE
  8
0
 10
135.397679
 20
266.954598
 30
0.0
 11
135.399292
 21
266.955779
 31
0.0
  0
LINE
  8
0
 10
135.540734
 20
267.884319
 30
0.0
 11
135.855285
 21
267.770753
 31
0.0
  0
LINE
  8
0
 10
135.855285
 20
267.770753
 30
0.0
 11
135.898294
 21
267.755225
 31
0.0
  0
LINE
  8
0
 10
135.46896
 20
267.724325
 30
0.0
 11
135.783511
 21
267.610758
 31
0.0
  0
LINE
  8
0
 10
135.783511
 20
267.610758
 30
0.0
 11
135.822263
 21
267.596767
 31
0.0
  0
LINE
  8
0
 10
135.50374
 20
267.796845
 30
0.0
 11
135.51132
 21
267.814645
 31
0.0
  0
LINE
  8
0
 10
135.51132
 20
267.814645
 30
0.0
 11
135.523138
 21
267.853962
 31
0.0
  0
LINE
  8
0
 10
135.523138
 20
267.853962
 30
0.0
 11
135.527218
 21
267.88029
 31
0.0
  0
LINE
  8
0
 10
135.527218
 20
267.88029
 30
0.0
 11
135.528282
 21
267.897777
 31
0.0
  0
LINE
  8
0
 10
135.505982
 20
267.797107
 30
0.0
 11
135.528748
 21
267.894855
 31
0.0
  0
LINE
  8
0
 10
135.540734
 20
267.884319
 30
0.0
 11
135.519634
 21
267.793604
 31
0.0
  0
LINE
  8
0
 10
135.519634
 20
267.793604
 30
0.0
 11
135.46896
 21
267.724325
 31
0.0
  0
LINE
  8
0
 10
135.519634
 20
267.793604
 30
0.0
 11
135.505982
 21
267.797107
 31
0.0
  0
LINE
  8
0
 10
135.450992
 20
267.722183
 30
0.0
 11
135.451265
 21
267.72239
 31
0.0
  0
LINE
  8
0
 10
135.451265
 20
267.72239
 30
0.0
 11
135.452732
 21
267.723564
 31
0.0
  0
LINE
  8
0
 10
135.452732
 20
267.723564
 30
0.0
 11
135.465649
 21
267.735828
 31
0.0
  0
LINE
  8
0
 10
135.465649
 20
267.735828
 30
0.0
 11
135.485682
 21
267.761961
 31
0.0
  0
LINE
  8
0
 10
135.485682
 20
267.761961
 30
0.0
 11
135.50374
 21
267.796845
 31
0.0
  0
LINE
  8
0
 10
135.50374
 20
267.796845
 30
0.0
 11
135.505982
 21
267.797107
 31
0.0
  0
LINE
  8
0
 10
135.451425
 20
267.722494
 30
0.0
 11
135.450994
 21
267.722184
 31
0.0
  0
LINE
  8
0
 10
135.451425
 20
267.722494
 30
0.0
 11
135.505982
 21
267.797107
 31
0.0
  0
LINE
  8
0
 10
135.46896
 20
267.724325
 30
0.0
 11
135.451425
 21
267.722494
 31
0.0
  0
LINE
  8
0
 10
135.528748
 20
267.894855
 30
0.0
 11
135.540734
 21
267.884319
 31
0.0
  0
LINE
  8
0
 10
135.528282
 20
267.897777
 30
0.0
 11
135.528748
 21
267.894855
 31
0.0
  0
LINE
  8
0
 10
136.102941
 20
269.450273
 30
0.0
 11
135.916702
 21
269.507201
 31
0.0
  0
LINE
  8
0
 10
135.916702
 20
269.507201
 30
0.0
 11
135.66748
 21
269.583381
 31
0.0
  0
LINE
  8
0
 10
135.66748
 20
269.583381
 30
0.0
 11
135.667083
 21
269.583502
 31
0.0
  0
LINE
  8
0
 10
136.045131
 20
268.890794
 30
0.0
 11
136.052749
 21
268.848636
 31
0.0
  0
LINE
  8
0
 10
136.052749
 20
268.848636
 30
0.0
 11
136.073986
 21
268.826748
 31
0.0
  0
LINE
  8
0
 10
136.082663
 20
269.41885
 30
0.0
 11
136.055224
 21
269.359254
 31
0.0
  0
LINE
  8
0
 10
136.055224
 20
269.359254
 30
0.0
 11
136.045131
 21
269.297214
 31
0.0
  0
LINE
  8
0
 10
136.059745
 20
269.372471
 30
0.0
 11
135.883491
 21
269.426347
 31
0.0
  0
LINE
  8
0
 10
135.883491
 20
269.426347
 30
0.0
 11
135.634269
 21
269.502527
 31
0.0
  0
LINE
  8
0
 10
135.634269
 20
269.502527
 30
0.0
 11
135.629907
 21
269.50386
 31
0.0
  0
LINE
  8
0
 10
135.540734
 20
269.672614
 30
0.0
 11
135.532864
 21
269.679811
 31
0.0
  0
LINE
  8
0
 10
135.532864
 20
269.679811
 30
0.0
 11
135.528788
 21
269.687884
 31
0.0
  0
LINE
  8
0
 10
135.528788
 20
269.687884
 30
0.0
 11
135.528867
 21
269.695731
 31
0.0
  0
LINE
  8
0
 10
135.528867
 20
269.695731
 30
0.0
 11
135.533541
 21
269.702163
 31
0.0
  0
LINE
  8
0
 10
135.597169
 20
269.489387
 30
0.0
 11
135.568788
 21
269.460871
 31
0.0
  0
LINE
  8
0
 10
135.568788
 20
269.460871
 30
0.0
 11
135.544364
 21
269.420374
 31
0.0
  0
LINE
  8
0
 10
135.544364
 20
269.420374
 30
0.0
 11
135.526622
 21
269.368708
 31
0.0
  0
LINE
  8
0
 10
135.526622
 20
269.368708
 30
0.0
 11
135.521349
 21
269.324265
 31
0.0
  0
LINE
  8
0
 10
135.521349
 20
269.324265
 30
0.0
 11
135.526553
 21
269.285058
 31
0.0
  0
LINE
  8
0
 10
135.526553
 20
269.285058
 30
0.0
 11
135.541975
 21
269.255403
 31
0.0
  0
LINE
  8
0
 10
135.541975
 20
269.255403
 30
0.0
 11
135.562672
 21
269.239348
 31
0.0
  0
LINE
  8
0
 10
135.532544
 20
269.310788
 30
0.0
 11
135.53597
 21
269.34802
 31
0.0
  0
LINE
  8
0
 10
135.53597
 20
269.34802
 30
0.0
 11
135.546504
 21
269.388824
 31
0.0
  0
LINE
  8
0
 10
135.546504
 20
269.388824
 30
0.0
 11
135.563197
 21
269.428025
 31
0.0
  0
LINE
  8
0
 10
135.563197
 20
269.428025
 30
0.0
 11
135.584517
 21
269.462023
 31
0.0
  0
LINE
  8
0
 10
135.584517
 20
269.462023
 30
0.0
 11
135.608515
 21
269.487708
 31
0.0
  0
LINE
  8
0
 10
135.608515
 20
269.487708
 30
0.0
 11
135.61378
 21
269.491875
 31
0.0
  0
LINE
  8
0
 10
135.562669
 20
269.23935
 30
0.0
 11
135.558947
 21
269.241344
 31
0.0
  0
LINE
  8
0
 10
135.558947
 20
269.241344
 30
0.0
 11
135.543533
 21
269.258326
 31
0.0
  0
LINE
  8
0
 10
135.543533
 20
269.258326
 30
0.0
 11
135.534547
 21
269.285632
 31
0.0
  0
LINE
  8
0
 10
135.534547
 20
269.285632
 30
0.0
 11
135.532544
 21
269.310788
 31
0.0
  0
LINE
  8
0
 10
135.534162
 20
269.25783
 30
0.0
 11
135.538157
 21
269.260347
 31
0.0
  0
LINE
  8
0
 10
135.540734
 20
269.241861
 30
0.0
 11
135.532864
 21
269.243809
 31
0.0
  0
LINE
  8
0
 10
135.532864
 20
269.243809
 30
0.0
 11
135.528788
 21
269.247414
 31
0.0
  0
LINE
  8
0
 10
135.528788
 20
269.247414
 30
0.0
 11
135.528867
 21
269.252127
 31
0.0
  0
LINE
  8
0
 10
135.528867
 20
269.252127
 30
0.0
 11
135.533541
 21
269.257369
 31
0.0
  0
LINE
  8
0
 10
135.602545
 20
269.493383
 30
0.0
 11
135.60792
 21
269.497378
 31
0.0
  0
LINE
  8
0
 10
135.60792
 20
269.497378
 30
0.0
 11
135.613296
 21
269.501374
 31
0.0
  0
LINE
  8
0
 10
135.619156
 20
269.49587
 30
0.0
 11
135.602544
 21
269.493383
 31
0.0
  0
LINE
  8
0
 10
135.597169
 20
269.489387
 30
0.0
 11
135.61378
 21
269.491875
 31
0.0
  0
LINE
  8
0
 10
135.602544
 20
269.493383
 30
0.0
 11
135.599856
 21
269.491385
 31
0.0
  0
LINE
  8
0
 10
135.599856
 20
269.491385
 30
0.0
 11
135.597167
 21
269.489386
 31
0.0
  0
LINE
  8
0
 10
135.613372
 20
269.50143
 30
0.0
 11
135.614655
 21
269.502446
 31
0.0
  0
LINE
  8
0
 10
135.614655
 20
269.502446
 30
0.0
 11
135.624628
 21
269.51262
 31
0.0
  0
LINE
  8
0
 10
135.624628
 20
269.51262
 30
0.0
 11
135.633474
 21
269.525578
 31
0.0
  0
LINE
  8
0
 10
135.633474
 20
269.525578
 30
0.0
 11
135.64112
 21
269.541007
 31
0.0
  0
LINE
  8
0
 10
135.654631
 20
269.596964
 30
0.0
 11
135.654631
 21
269.597186
 31
0.0
  0
LINE
  8
0
 10
135.64112
 20
269.541007
 30
0.0
 11
135.646498
 21
269.553896
 31
0.0
  0
LINE
  8
0
 10
135.646498
 20
269.553896
 30
0.0
 11
135.652115
 21
269.57381
 31
0.0
  0
LINE
  8
0
 10
135.652115
 20
269.57381
 30
0.0
 11
135.654151
 21
269.587899
 31
0.0
  0
LINE
  8
0
 10
135.654151
 20
269.587899
 30
0.0
 11
135.654631
 21
269.596957
 31
0.0
  0
LINE
  8
0
 10
135.613296
 20
269.501374
 30
0.0
 11
135.613372
 21
269.50143
 31
0.0
  0
LINE
  8
0
 10
135.64112
 20
269.541006
 30
0.0
 11
135.643094
 21
269.541346
 31
0.0
  0
LINE
  8
0
 10
135.654631
 20
269.596964
 30
0.0
 11
135.655096
 21
269.594038
 31
0.0
  0
LINE
  8
0
 10
135.613372
 20
269.50143
 30
0.0
 11
135.643094
 21
269.541346
 31
0.0
  0
LINE
  8
0
 10
135.629907
 20
269.50386
 30
0.0
 11
135.613296
 21
269.501374
 31
0.0
  0
LINE
  8
0
 10
135.656402
 20
269.538162
 30
0.0
 11
135.629907
 21
269.50386
 31
0.0
  0
LINE
  8
0
 10
135.667083
 20
269.583502
 30
0.0
 11
135.667083
 21
269.588941
 31
0.0
  0
LINE
  8
0
 10
135.656402
 20
269.538162
 30
0.0
 11
135.643094
 21
269.541346
 31
0.0
  0
LINE
  8
0
 10
135.643094
 20
269.541346
 30
0.0
 11
135.655096
 21
269.594038
 31
0.0
  0
LINE
  8
0
 10
135.655096
 20
269.594038
 30
0.0
 11
135.667083
 21
269.583502
 31
0.0
  0
LINE
  8
0
 10
135.667083
 20
269.583502
 30
0.0
 11
135.656402
 21
269.538162
 31
0.0
  0
LINE
  8
0
 10
135.61378
 20
269.491875
 30
0.0
 11
135.619156
 21
269.49587
 31
0.0
  0
LINE
  8
0
 10
135.619156
 20
269.49587
 30
0.0
 11
135.629907
 21
269.50386
 31
0.0
  0
LINE
  8
0
 10
136.186847
 20
268.670131
 30
0.0
 11
136.19157
 21
268.73658
 31
0.0
  0
LINE
  8
0
 10
136.19157
 20
268.73658
 30
0.0
 11
136.179489
 21
268.788334
 31
0.0
  0
LINE
  8
0
 10
136.289179
 20
268.632706
 30
0.0
 11
136.286576
 21
268.739201
 31
0.0
  0
LINE
  8
0
 10
136.286576
 20
268.739201
 30
0.0
 11
136.238022
 21
268.784148
 31
0.0
  0
LINE
  8
0
 10
136.225144
 20
269.092208
 30
0.0
 11
136.247218
 21
269.115623
 31
0.0
  0
LINE
  8
0
 10
136.247218
 20
269.115623
 30
0.0
 11
136.264622
 21
269.153086
 31
0.0
  0
LINE
  8
0
 10
136.264622
 20
269.153086
 30
0.0
 11
136.271034
 21
269.192198
 31
0.0
  0
LINE
  8
0
 10
136.227784
 20
269.080724
 30
0.0
 11
136.257541
 21
269.117155
 31
0.0
  0
LINE
  8
0
 10
136.257541
 20
269.117155
 30
0.0
 11
136.27716
 21
269.171079
 31
0.0
  0
LINE
  8
0
 10
136.27716
 20
269.171079
 30
0.0
 11
136.277675
 21
269.220424
 31
0.0
  0
LINE
  8
0
 10
136.277334
 20
269.220143
 30
0.0
 11
136.239264
 21
269.168418
 31
0.0
  0
LINE
  8
0
 10
136.239264
 20
269.168418
 30
0.0
 11
136.223495
 21
269.100129
 31
0.0
  0
LINE
  8
0
 10
136.223495
 20
269.100129
 30
0.0
 11
136.230708
 21
269.065489
 31
0.0
  0
LINE
  8
0
 10
136.230708
 20
269.065489
 30
0.0
 11
136.250415
 21
269.050852
 31
0.0
  0
LINE
  8
0
 10
136.250415
 20
269.050852
 30
0.0
 11
136.277334
 21
269.06014
 31
0.0
  0
LINE
  8
0
 10
136.147463
 20
268.85337
 30
0.0
 11
136.157556
 21
268.806331
 31
0.0
  0
LINE
  8
0
 10
136.157556
 20
268.806331
 30
0.0
 11
136.184996
 21
268.787521
 31
0.0
  0
LINE
  8
0
 10
136.271034
 20
269.192198
 30
0.0
 11
136.270388
 21
269.20299
 31
0.0
  0
LINE
  8
0
 10
136.270388
 20
269.20299
 30
0.0
 11
136.269112
 21
269.208972
 31
0.0
  0
LINE
  8
0
 10
136.277334
 20
269.06014
 30
0.0
 11
136.30898
 21
269.098938
 31
0.0
  0
LINE
  8
0
 10
136.30898
 20
269.098938
 30
0.0
 11
136.328538
 21
269.153474
 31
0.0
  0
LINE
  8
0
 10
136.328538
 20
269.153474
 30
0.0
 11
136.328538
 21
269.202918
 31
0.0
  0
LINE
  8
0
 10
136.328538
 20
269.202918
 30
0.0
 11
136.30898
 21
269.228383
 31
0.0
  0
LINE
  8
0
 10
136.30898
 20
269.228383
 30
0.0
 11
136.277334
 21
269.220143
 31
0.0
  0
LINE
  8
0
 10
136.135689
 20
269.50104
 30
0.0
 11
136.184244
 21
269.618158
 31
0.0
  0
LINE
  8
0
 10
136.184244
 20
269.618158
 30
0.0
 11
136.186847
 21
269.728522
 31
0.0
  0
LINE
  8
0
 10
136.238022
 20
269.463615
 30
0.0
 11
136.286576
 21
269.580733
 31
0.0
  0
LINE
  8
0
 10
136.286576
 20
269.580733
 30
0.0
 11
136.289179
 21
269.691097
 31
0.0
  0
LINE
  8
0
 10
136.184996
 20
269.381425
 30
0.0
 11
136.157556
 21
269.321829
 31
0.0
  0
LINE
  8
0
 10
136.157556
 20
269.321829
 30
0.0
 11
136.147463
 21
269.25979
 31
0.0
  0
LINE
  8
0
 10
137.0858
 20
267.339115
 30
0.0
 11
137.084726
 21
267.343792
 31
0.0
  0
LINE
  8
0
 10
137.084726
 20
267.343792
 30
0.0
 11
137.075102
 21
267.352296
 31
0.0
  0
LINE
  8
0
 10
135.534498
 20
270.251634
 30
0.0
 11
135.518261
 21
270.245285
 31
0.0
  0
LINE
  8
0
 10
135.518261
 20
270.245285
 30
0.0
 11
135.501624
 21
270.234842
 31
0.0
  0
LINE
  8
0
 10
137.060716
 20
272.241937
 30
0.0
 11
137.085588
 21
272.204999
 31
0.0
  0
LINE
  8
0
 10
137.085588
 20
272.204999
 30
0.0
 11
137.075102
 21
272.143554
 31
0.0
  0
ENDSEC
  0
EOF
