  0
SECTION
  2
HEADER
  9
$ACADVER
  1
AC1009
  9
$INSBASE
 10
0.0
 20
0.0
 30
0.0
  9
$EXTMIN
 10
127.749881
 20
260.67968
 30
0.0
  9
$EXTMAX
 10
137.086436
 20
272.322724
 30
0.0
  9
$LIMMIN
 10
127.749881
 20
260.67968
  9
$LIMMAX
 10
137.086436
 20
272.322724
  9
$ORTHOMODE
 70
     0
  9
$REGENMODE
 70
     1
  9
$FILLMODE
 70
     1
  9
$QTEXTMODE
 70
     0
  9
$MIRRTEXT
 70
     1
  9
$DRAGMODE
 70
     2
  9
$LTSCALE
 40
1.0
  9
$OSMODE
 70
     0
  9
$ATTMODE
 70
     1
  9
$TEXTSIZE
 40
3.5
  9
$TRACEWID
 40
0.5
  9
$TEXTSTYLE
  7
STANDARD
  9
$CLAYER
  8
0
  9
$CELTYPE
  6
BYLAYER
  9
$CECOLOR
 62
   256
  9
$DIMSCALE
 40
1.0
  9
$DIMASZ
 40
0.18
  9
$DIMEXO
 40
0.0625
  9
$DIMDLI
 40
0.38
  9
$DIMRND
 40
0.0
  9
$DIMDLE
 40
0.0
  9
$DIMEXE
 40
0.18
  9
$DIMTP
 40
0.0
  9
$DIMTM
 40
0.0
  9
$DIMTXT
 40
0.18
  9
$DIMCEN
 40
0.09
  9
$DIMTSZ
 40
0.0
  9
$DIMTOL
 70
     0
  9
$DIMLIM
 70
     0
  9
$DIMTIH
 70
     1
  9
$DIMTOH
 70
     1
  9
$DIMSE1
 70
     0
  9
$DIMSE2
 70
     0
  9
$DIMTAD
 70
     0
  9
$DIMZIN
 70
     0
  9
$DIMBLK
  1

  9
$DIMASO
 70
     1
  9
$DIMSHO
 70
     1
  9
$DIMPOST
  1

  9
$DIMAPOST
  1

  9
$DIMALT
 70
     0
  9
$DIMALTD
 70
     2
  9
$DIMALTF
 40
25.4
  9
$DIMLFAC
 40
1.0
  9
$DIMTOFL
 70
     0
  9
$DIMTVP
 40
0.0
  9
$DIMTIX
 70
     0
  9
$DIMSOXD
 70
     0
  9
$DIMSAH
 70
     0
  9
$DIMBLK1
  1

  9
$DIMBLK2
  1

  9
$DIMSTYLE
  2
*UNNAMED
  9
$DIMCLRD
 70
     0
  9
$DIMCLRE
 70
     0
  9
$DIMCLRT
 70
     0
  9
$DIMTFAC
 40
1.0
  9
$DIMGAP
 40
0.09
  9
$LUNITS
 70
     2
  9
$LUPREC
 70
     4
  9
$SKETCHINC
 40
0.1
  9
$FILLETRAD
 40
2.0
  9
$AUNITS
 70
     0
  9
$AUPREC
 70
     0
  9
$MENU
  1
ACAD
  9
$ELEVATION
 40
0.0
  9
$PELEVATION
 40
0.0
  9
$THICKNESS
 40
0.0
  9
$LIMCHECK
 70
     0
  9
$BLIPMODE
 70
     1
  9
$CHAMFERA
 40
0.0
  9
$CHAMFERB
 40
0.0
  9
$SKPOLY
 70
     0
  9
$TDCREATE
 40
2450948.654057060
  9
$TDUPDATE
 40
2450948.654702314
  9
$TDINDWG
 40
0.0001328704
  9
$TDUSRTIMER
 40
0.0001328704
  9
$USRTIMER
 70
     1
  9
$ANGBASE
 50
0.0
  9
$ANGDIR
 70
     0
  9
$PDMODE
 70
     0
  9
$PDSIZE
 40
0.0
  9
$PLINEWID
 40
0.0
  9
$COORDS
 70
     2
  9
$SPLFRAME
 70
     0
  9
$SPLINETYPE
 70
     6
  9
$SPLINESEGS
 70
     8
  9
$ATTDIA
 70
     0
  9
$ATTREQ
 70
     1
  9
$HANDLING
 70
     0
  9
$HANDSEED
  5
0
  9
$SURFTAB1
 70
     6
  9
$SURFTAB2
 70
     6
  9
$SURFTYPE
 70
     6
  9
$SURFU
 70
     6
  9
$SURFV
 70
     6
  9
$UCSNAME
  2

  9
$UCSORG
 10
0.0
 20
0.0
 30
0.0
  9
$UCSXDIR
 10
1.0
 20
0.0
 30
0.0
  9
$UCSYDIR
 10
0.0
 20
1.0
 30
0.0
  9
$PUCSNAME
  2

  9
$PUCSORG
 10
0.0
 20
0.0
 30
0.0
  9
$PUCSXDIR
 10
1.0
 20
0.0
 30
0.0
  9
$PUCSYDIR
 10
0.0
 20
1.0
 30
0.0
  9
$USERI1
 70
     0
  9
$USERI2
 70
     0
  9
$USERI3
 70
     0
  9
$USERI4
 70
     0
  9
$USERI5
 70
     0
  9
$USERR1
 40
0.0
  9
$USERR2
 40
0.0
  9
$USERR3
 40
0.0
  9
$USERR4
 40
0.0
  9
$USERR5
 40
0.0
  9
$WORLDVIEW
 70
     1
  9
$SHADEDGE
 70
     3
  9
$SHADEDIF
 70
    70
  9
$TILEMODE
 70
     1
  9
$MAXACTVP
 70
    16
  9
$PINSBASE
 10
0.0
 20
0.0
 30
0.0
  9
$PLIMCHECK
 70
     0
  9
$PEXTMIN
 10
1.000000E+20
 20
1.000000E+20
 30
1.000000E+20
  9
$PEXTMAX
 10
-1.000000E+20
 20
-1.000000E+20
 30
-1.000000E+20
  9
$PLIMMIN
 10
0.0
 20
0.0
  9
$PLIMMAX
 10
420.0
 20
297.0
  9
$UNITMODE
 70
     0
  9
$VISRETAIN
 70
     0
  9
$PLINEGEN
 70
     0
  9
$PSLTSCALE
 70
     1
  9
$TREEDEPTH
 70
  3020
  9
$DWGCODEPAGE
  3
iso8859-1
  0
ENDSEC
  0
SECTION
  2
TABLES
  0
TABLE
  2
VPORT
 70
     2
  0
VPORT
  2
*ACTIVE
 70
     0
 10
0.0
 20
0.0
 11
1.0
 21
1.0
 12
139.522896
 22
266.097708
 13
0.0
 23
0.0
 14
1.0
 24
1.0
 15
0.0
 25
0.0
 16
0.0
 26
0.0
 36
1.0
 17
0.0
 27
0.0
 37
0.0
 40
17.370886
 41
1.748359
 42
50.0
 43
0.0
 44
0.0
 50
0.0
 51
0.0
 71
     0
 72
   100
 73
     1
 74
     0
 75
     0
 76
     0
 77
     0
 78
     0
  0
ENDTAB
  0
TABLE
  2
LTYPE
 70
     1
  0
LTYPE
  2
CONTINUOUS
 70
    64
  3
Solid line
 72
    65
 73
     0
 40
0.0
  0
ENDTAB
  0
TABLE
  2
LAYER
 70
     1
  0
LAYER
  2
0
 70
    64
 62
     7
  6
CONTINUOUS
  0
ENDTAB
  0
TABLE
  2
STYLE
 70
     1
  0
STYLE
  2
STANDARD
 70
     0
 40
0.0
 41
1.0
 50
0.0
 71
     0
 42
3.5
  3
txt
  4

  0
ENDTAB
  0
TABLE
  2
VIEW
 70
     0
  0
ENDTAB
  0
TABLE
  2
UCS
 70
     0
  0
ENDTAB
  0
TABLE
  2
APPID
 70
     1
  0
APPID
  2
ACAD
 70
    64
  0
ENDTAB
  0
TABLE
  2
DIMSTYLE
 70
     0
  0
ENDTAB
  0
ENDSEC
  0
SECTION
  2
BLOCKS
  0
ENDSEC
  0
SECTION
  2
ENTITIES
  0
LINE
  8
0
 10
129.078405
 20
266.541242
 30
0.0
 11
127.885431
 21
265.654636
 31
0.0
  0
LINE
  8
0
 10
127.885431
 20
265.654636
 30
0.0
 11
127.885431
 21
264.535296
 31
0.0
  0
LINE
  8
0
 10
127.885431
 20
264.21529
 30
0.0
 11
127.885431
 21
264.535296
 31
0.0
  0
LINE
  8
0
 10
127.831136
 20
264.494944
 30
0.0
 11
127.885431
 21
264.535296
 31
0.0
  0
LINE
  8
0
 10
127.831136
 20
264.494944
 30
0.0
 11
127.831136
 21
264.174938
 31
0.0
  0
LINE
  8
0
 10
127.831136
 20
264.174938
 30
0.0
 11
127.885431
 21
264.21529
 31
0.0
  0
LINE
  8
0
 10
128.093506
 20
260.67968
 30
0.0
 11
128.093506
 21
265.57759
 31
0.0
  0
LINE
  8
0
 10
127.885431
 20
265.654636
 30
0.0
 11
128.093506
 21
265.57759
 31
0.0
  0
LINE
  8
0
 10
127.885431
 20
262.18859
 30
0.0
 11
127.885431
 21
264.21529
 31
0.0
  0
LINE
  8
0
 10
127.885431
 20
262.18859
 30
0.0
 11
127.885431
 21
261.868585
 31
0.0
  0
LINE
  8
0
 10
127.885431
 20
260.749245
 30
0.0
 11
127.885431
 21
261.868585
 31
0.0
  0
LINE
  8
0
 10
128.093506
 20
260.67968
 30
0.0
 11
127.885431
 21
260.749245
 31
0.0
  0
LINE
  8
0
 10
128.093506
 20
265.57759
 30
0.0
 11
137.060716
 21
272.241937
 31
0.0
  0
LINE
  8
0
 10
137.060716
 20
272.241937
 30
0.0
 11
136.857676
 21
272.322724
 31
0.0
  0
LINE
  8
0
 10
135.664703
 20
271.436117
 30
0.0
 11
136.857676
 21
272.322724
 31
0.0
  0
LINE
  8
0
 10
135.664703
 20
271.436117
 30
0.0
 11
135.180152
 21
271.076004
 31
0.0
  0
LINE
  8
0
 10
133.035567
 20
269.482168
 30
0.0
 11
135.180152
 21
271.076004
 31
0.0
  0
LINE
  8
0
 10
133.035567
 20
269.482168
 30
0.0
 11
132.461285
 21
269.055367
 31
0.0
  0
LINE
  8
0
 10
132.281822
 20
268.921992
 30
0.0
 11
132.461285
 21
269.055367
 31
0.0
  0
LINE
  8
0
 10
131.70754
 20
268.495191
 30
0.0
 11
132.281822
 21
268.921992
 31
0.0
  0
LINE
  8
0
 10
131.70754
 20
268.495191
 30
0.0
 11
129.562955
 21
266.901356
 31
0.0
  0
LINE
  8
0
 10
129.078405
 20
266.541242
 30
0.0
 11
129.562955
 21
266.901356
 31
0.0
  0
LINE
  8
0
 10
135.664703
 20
271.516797
 30
0.0
 11
135.599535
 21
271.536452
 31
0.0
  0
LINE
  8
0
 10
135.122521
 20
271.181939
 30
0.0
 11
135.599535
 21
271.536452
 31
0.0
  0
LINE
  8
0
 10
135.180152
 20
271.156684
 30
0.0
 11
135.122521
 21
271.181939
 31
0.0
  0
LINE
  8
0
 10
135.664703
 20
271.516797
 30
0.0
 11
135.180152
 21
271.156684
 31
0.0
  0
LINE
  8
0
 10
132.9704
 20
269.582503
 30
0.0
 11
132.899802
 21
269.53446
 31
0.0
  0
LINE
  8
0
 10
133.035567
 20
269.562848
 30
0.0
 11
132.9704
 21
269.582503
 31
0.0
  0
LINE
  8
0
 10
133.035567
 20
269.482168
 30
0.0
 11
133.035567
 21
269.562848
 31
0.0
  0
LINE
  8
0
 10
132.9704
 20
269.582503
 30
0.0
 11
132.403654
 21
269.161303
 31
0.0
  0
LINE
  8
0
 10
132.461285
 20
269.136047
 30
0.0
 11
132.403654
 21
269.161303
 31
0.0
  0
LINE
  8
0
 10
133.035567
 20
269.562848
 30
0.0
 11
132.461285
 21
269.136047
 31
0.0
  0
LINE
  8
0
 10
132.461285
 20
269.055367
 30
0.0
 11
132.461285
 21
269.136047
 31
0.0
  0
LINE
  8
0
 10
132.403654
 20
269.161303
 30
0.0
 11
132.341221
 21
269.119328
 31
0.0
  0
LINE
  8
0
 10
132.341221
 20
269.119328
 30
0.0
 11
132.341221
 21
269.00432
 31
0.0
  0
LINE
  8
0
 10
131.70754
 20
268.575871
 30
0.0
 11
132.281822
 21
269.002672
 31
0.0
  0
LINE
  8
0
 10
132.216655
 20
269.022326
 30
0.0
 11
132.281822
 21
269.002672
 31
0.0
  0
LINE
  8
0
 10
131.649909
 20
268.601126
 30
0.0
 11
132.216655
 21
269.022326
 31
0.0
  0
LINE
  8
0
 10
129.42719
 20
266.953648
 30
0.0
 11
129.497788
 21
267.00169
 31
0.0
  0
LINE
  8
0
 10
129.497788
 20
267.00169
 30
0.0
 11
129.562955
 21
266.982036
 31
0.0
  0
LINE
  8
0
 10
129.562955
 20
266.982036
 30
0.0
 11
129.562955
 21
266.901356
 31
0.0
  0
LINE
  8
0
 10
129.078405
 20
266.621922
 30
0.0
 11
129.562955
 21
266.982036
 31
0.0
  0
LINE
  8
0
 10
129.078405
 20
266.621922
 30
0.0
 11
129.078405
 21
266.541242
 31
0.0
  0
LINE
  8
0
 10
129.497788
 20
267.00169
 30
0.0
 11
129.020774
 21
266.647177
 31
0.0
  0
LINE
  8
0
 10
129.020774
 20
266.647177
 30
0.0
 11
129.078405
 21
266.621922
 31
0.0
  0
LINE
  8
0
 10
128.95834
 20
266.605203
 30
0.0
 11
129.020774
 21
266.647177
 31
0.0
  0
LINE
  8
0
 10
128.95834
 20
266.490195
 30
0.0
 11
128.95834
 21
266.605203
 31
0.0
  0
LINE
  8
0
 10
129.42719
 20
266.953648
 30
0.0
 11
128.95834
 21
266.605203
 31
0.0
  0
LINE
  8
0
 10
132.146056
 20
268.974284
 30
0.0
 11
132.216655
 21
269.022326
 31
0.0
  0
LINE
  8
0
 10
132.281822
 20
269.002672
 30
0.0
 11
132.281822
 21
268.921992
 31
0.0
  0
LINE
  8
0
 10
131.587475
 20
268.559152
 30
0.0
 11
132.146056
 21
268.974284
 31
0.0
  0
LINE
  8
0
 10
132.899802
 20
269.53446
 30
0.0
 11
132.341221
 21
269.119328
 31
0.0
  0
LINE
  8
0
 10
135.180152
 20
271.076004
 30
0.0
 11
135.180152
 21
271.156684
 31
0.0
  0
LINE
  8
0
 10
135.122521
 20
271.181939
 30
0.0
 11
135.060087
 21
271.139965
 31
0.0
  0
LINE
  8
0
 10
135.060087
 20
271.139965
 30
0.0
 11
135.060087
 21
271.024957
 31
0.0
  0
LINE
  8
0
 10
135.599535
 20
271.536452
 30
0.0
 11
135.528937
 21
271.488409
 31
0.0
  0
LINE
  8
0
 10
135.060087
 20
271.139965
 30
0.0
 11
135.528937
 21
271.488409
 31
0.0
  0
LINE
  8
0
 10
135.664703
 20
271.436117
 30
0.0
 11
135.664703
 21
271.516797
 31
0.0
  0
LINE
  8
0
 10
127.769736
 20
264.511799
 30
0.0
 11
127.831136
 21
264.494944
 31
0.0
  0
LINE
  8
0
 10
127.769736
 20
264.511799
 30
0.0
 11
127.769736
 21
264.208678
 31
0.0
  0
LINE
  8
0
 10
127.769736
 20
264.208678
 30
0.0
 11
127.831136
 21
264.174938
 31
0.0
  0
LINE
  8
0
 10
137.075102
 20
267.352296
 30
0.0
 11
128.179666
 21
260.741291
 31
0.0
  0
LINE
  8
0
 10
137.075102
 20
272.143554
 30
0.0
 11
137.075102
 21
267.352296
 31
0.0
  0
LINE
  8
0
 10
128.179666
 20
265.532549
 30
0.0
 11
137.075102
 21
272.143554
 31
0.0
  0
LINE
  8
0
 10
128.179666
 20
260.741291
 30
0.0
 11
128.179666
 21
265.532549
 31
0.0
  0
LINE
  8
0
 10
127.827279
 20
264.622258
 30
0.0
 11
127.749881
 21
264.564737
 31
0.0
  0
LINE
  8
0
 10
127.749881
 20
264.564737
 30
0.0
 11
127.769736
 21
264.511799
 31
0.0
  0
LINE
  8
0
 10
127.749881
 20
264.279908
 30
0.0
 11
127.769736
 21
264.208678
 31
0.0
  0
LINE
  8
0
 10
127.749881
 20
264.564737
 30
0.0
 11
127.749881
 21
264.279908
 31
0.0
  0
LINE
  8
0
 10
127.831136
 20
261.828233
 30
0.0
 11
127.885431
 21
261.868585
 31
0.0
  0
LINE
  8
0
 10
127.831136
 20
261.828233
 30
0.0
 11
127.769736
 21
261.856287
 31
0.0
  0
LINE
  8
0
 10
127.769736
 20
261.856287
 30
0.0
 11
127.749881
 21
261.921357
 31
0.0
  0
LINE
  8
0
 10
127.749881
 20
261.921357
 30
0.0
 11
127.749881
 21
262.218031
 31
0.0
  0
LINE
  8
0
 10
127.749881
 20
262.218031
 30
0.0
 11
127.827279
 21
262.275553
 31
0.0
  0
LINE
  8
0
 10
127.769736
 20
261.856287
 30
0.0
 11
127.769736
 21
262.165094
 31
0.0
  0
LINE
  8
0
 10
127.769736
 20
262.165094
 30
0.0
 11
127.749881
 21
262.218031
 31
0.0
  0
LINE
  8
0
 10
127.831136
 20
262.148238
 30
0.0
 11
127.769736
 21
262.165094
 31
0.0
  0
LINE
  8
0
 10
127.831136
 20
261.828233
 30
0.0
 11
127.831136
 21
262.148238
 31
0.0
  0
LINE
  8
0
 10
127.831136
 20
262.148238
 30
0.0
 11
127.885431
 21
262.18859
 31
0.0
  0
LINE
  8
0
 10
137.086436
 20
267.34038
 30
0.0
 11
137.086436
 21
272.192896
 31
0.0
  0
LINE
  8
0
 10
128.141198
 20
260.69157
 30
0.0
 11
137.0858
 21
267.339115
 31
0.0
  0
LINE
  8
0
 10
132.933107
 20
266.421675
 30
0.0
 11
132.933107
 21
266.828095
 31
0.0
  0
LINE
  8
0
 10
133.600034
 20
268.729811
 30
0.0
 11
133.582137
 21
268.765491
 31
0.0
  0
LINE
  8
0
 10
134.908842
 20
268.390184
 30
0.0
 11
134.806509
 21
268.427609
 31
0.0
  0
LINE
  8
0
 10
134.908842
 20
268.390184
 30
0.0
 11
134.961868
 21
268.472374
 31
0.0
  0
LINE
  8
0
 10
134.961868
 20
268.472374
 30
0.0
 11
134.859535
 21
268.509799
 31
0.0
  0
LINE
  8
0
 10
134.859535
 20
268.509799
 30
0.0
 11
134.806509
 21
268.427609
 31
0.0
  0
LINE
  8
0
 10
134.871309
 20
268.268549
 30
0.0
 11
134.768977
 21
268.305973
 31
0.0
  0
LINE
  8
0
 10
133.765453
 20
265.803453
 30
0.0
 11
134.038964
 21
266.006723
 31
0.0
  0
LINE
  8
0
 10
133.673576
 20
265.600606
 30
0.0
 11
133.702367
 21
265.700797
 31
0.0
  0
LINE
  8
0
 10
132.895575
 20
266.300039
 30
0.0
 11
132.842549
 21
266.217849
 31
0.0
  0
LINE
  8
0
 10
132.895575
 20
266.893943
 30
0.0
 11
132.842549
 21
266.897316
 31
0.0
  0
LINE
  8
0
 10
133.673576
 20
268.749782
 30
0.0
 11
133.702367
 21
268.692386
 31
0.0
  0
LINE
  8
0
 10
133.765453
 20
268.6835
 30
0.0
 11
134.038964
 21
268.886771
 31
0.0
  0
LINE
  8
0
 10
134.130841
 20
269.089617
 30
0.0
 11
134.10205
 21
268.989427
 31
0.0
  0
LINE
  8
0
 10
134.871309
 20
267.862129
 30
0.0
 11
134.871309
 21
268.268549
 31
0.0
  0
LINE
  8
0
 10
134.908842
 20
267.79628
 30
0.0
 11
134.961868
 21
267.792907
 31
0.0
  0
LINE
  8
0
 10
134.130841
 20
265.940441
 30
0.0
 11
134.10205
 21
265.997838
 31
0.0
  0
LINE
  8
0
 10
132.825429
 20
266.464858
 30
0.0
 11
132.775879
 21
266.485442
 31
0.0
  0
LINE
  8
0
 10
132.806394
 20
266.598999
 30
0.0
 11
132.819129
 21
266.596916
 31
0.0
  0
LINE
  8
0
 10
134.768977
 20
268.305973
 30
0.0
 11
134.768977
 21
268.102763
 31
0.0
  0
LINE
  8
0
 10
134.768977
 20
267.899553
 30
0.0
 11
134.768977
 21
268.102763
 31
0.0
  0
LINE
  8
0
 10
134.871309
 20
267.862129
 30
0.0
 11
134.768977
 21
267.899553
 31
0.0
  0
LINE
  8
0
 10
135.013025
 20
268.699856
 30
0.0
 11
134.910693
 21
268.737281
 31
0.0
  0
LINE
  8
0
 10
133.673576
 20
268.749782
 30
0.0
 11
133.601486
 21
268.776147
 31
0.0
  0
LINE
  8
0
 10
133.702367
 20
268.692386
 30
0.0
 11
133.600034
 21
268.729811
 31
0.0
  0
LINE
  8
0
 10
134.28543
 20
268.248604
 30
0.0
 11
134.26458
 21
268.25062
 31
0.0
  0
LINE
  8
0
 10
134.257387
 20
268.266128
 30
0.0
 11
134.258008
 21
268.266589
 31
0.0
  0
LINE
  8
0
 10
134.337626
 20
268.500634
 30
0.0
 11
134.780038
 21
268.371083
 31
0.0
  0
LINE
  8
0
 10
134.390929
 20
268.5977
 30
0.0
 11
134.26458
 21
268.681373
 31
0.0
  0
LINE
  8
0
 10
134.25639
 20
268.319547
 30
0.0
 11
134.768977
 21
268.102763
 31
0.0
  0
LINE
  8
0
 10
133.799876
 20
265.942513
 30
0.0
 11
133.936631
 21
266.044148
 31
0.0
  0
LINE
  8
0
 10
135.013025
 20
267.641465
 30
0.0
 11
134.910693
 21
267.67889
 31
0.0
  0
LINE
  8
0
 10
134.258344
 20
265.959184
 30
0.0
 11
134.156012
 21
265.996608
 31
0.0
  0
LINE
  8
0
 10
134.038964
 20
266.006723
 30
0.0
 11
133.936631
 21
266.044148
 31
0.0
  0
LINE
  8
0
 10
133.179611
 20
265.919268
 30
0.0
 11
133.600881
 21
265.741105
 31
0.0
  0
LINE
  8
0
 10
133.260847
 20
266.100355
 30
0.0
 11
133.799876
 21
265.942513
 31
0.0
  0
LINE
  8
0
 10
132.989327
 20
265.83867
 30
0.0
 11
133.141286
 21
265.812085
 31
0.0
  0
LINE
  8
0
 10
133.600034
 20
265.738222
 30
0.0
 11
133.571244
 21
265.638031
 31
0.0
  0
LINE
  8
0
 10
133.799876
 20
265.942513
 30
0.0
 11
133.663121
 21
265.840877
 31
0.0
  0
LINE
  8
0
 10
133.765453
 20
265.803453
 30
0.0
 11
133.663121
 21
265.840877
 31
0.0
  0
LINE
  8
0
 10
133.702367
 20
265.700797
 30
0.0
 11
133.600034
 21
265.738222
 31
0.0
  0
LINE
  8
0
 10
133.546073
 20
265.42983
 30
0.0
 11
133.44374
 21
265.467255
 31
0.0
  0
LINE
  8
0
 10
133.578947
 20
265.446623
 30
0.0
 11
133.476614
 21
265.484048
 31
0.0
  0
LINE
  8
0
 10
133.673576
 20
265.600606
 30
0.0
 11
133.571244
 21
265.638031
 31
0.0
  0
LINE
  8
0
 10
134.22547
 20
265.927113
 30
0.0
 11
134.123138
 21
265.964538
 31
0.0
  0
LINE
  8
0
 10
134.797829
 20
267.835508
 30
0.0
 11
134.900161
 21
267.798083
 31
0.0
  0
LINE
  8
0
 10
133.620187
 20
268.710198
 30
0.0
 11
133.722519
 21
268.672773
 31
0.0
  0
LINE
  8
0
 10
134.081897
 20
266.01745
 30
0.0
 11
133.979565
 21
266.054875
 31
0.0
  0
LINE
  8
0
 10
133.833293
 20
265.967345
 30
0.0
 11
133.306837
 21
266.113328
 31
0.0
  0
LINE
  8
0
 10
134.286518
 20
268.248107
 30
0.0
 11
134.768974
 21
268.026423
 31
0.0
  0
LINE
  8
0
 10
133.904843
 20
268.863644
 30
0.0
 11
133.855293
 21
268.884228
 31
0.0
  0
LINE
  8
0
 10
133.885808
 20
268.997785
 30
0.0
 11
133.898543
 21
268.995702
 31
0.0
  0
LINE
  8
0
 10
133.904843
 20
265.659672
 30
0.0
 11
133.855293
 21
265.680256
 31
0.0
  0
LINE
  8
0
 10
133.885808
 20
265.793813
 30
0.0
 11
133.898543
 21
265.79173
 31
0.0
  0
LINE
  8
0
 10
135.00118
 20
267.963053
 30
0.0
 11
134.95163
 21
267.983637
 31
0.0
  0
LINE
  8
0
 10
134.982145
 20
268.097194
 30
0.0
 11
134.99488
 21
268.095111
 31
0.0
  0
LINE
  8
0
 10
131.649909
 20
268.601126
 30
0.0
 11
131.70754
 21
268.575871
 31
0.0
  0
LINE
  8
0
 10
131.70754
 20
268.575871
 30
0.0
 11
131.70754
 21
268.495191
 31
0.0
  0
LINE
  8
0
 10
131.587475
 20
268.559152
 30
0.0
 11
131.649909
 21
268.601126
 31
0.0
  0
LINE
  8
0
 10
131.587475
 20
268.444144
 30
0.0
 11
131.587475
 21
268.559152
 31
0.0
  0
LINE
  8
0
 10
130.397182
 20
264.593751
 30
0.0
 11
130.397182
 21
265.000171
 31
0.0
  0
LINE
  8
0
 10
131.064109
 20
266.901887
 30
0.0
 11
131.046212
 21
266.937567
 31
0.0
  0
LINE
  8
0
 10
132.372917
 20
266.56226
 30
0.0
 11
132.270584
 21
266.599685
 31
0.0
  0
LINE
  8
0
 10
132.372917
 20
266.56226
 30
0.0
 11
132.425943
 21
266.64445
 31
0.0
  0
LINE
  8
0
 10
132.425943
 20
266.64445
 30
0.0
 11
132.32361
 21
266.681875
 31
0.0
  0
LINE
  8
0
 10
132.32361
 20
266.681875
 30
0.0
 11
132.270584
 21
266.599685
 31
0.0
  0
LINE
  8
0
 10
132.335384
 20
266.440625
 30
0.0
 11
132.233052
 21
266.478049
 31
0.0
  0
LINE
  8
0
 10
131.229528
 20
263.975529
 30
0.0
 11
131.503039
 21
264.178799
 31
0.0
  0
LINE
  8
0
 10
131.137651
 20
263.772682
 30
0.0
 11
131.166442
 21
263.872873
 31
0.0
  0
LINE
  8
0
 10
130.35965
 20
264.472115
 30
0.0
 11
130.306624
 21
264.389925
 31
0.0
  0
LINE
  8
0
 10
130.35965
 20
265.066019
 30
0.0
 11
130.306624
 21
265.069392
 31
0.0
  0
LINE
  8
0
 10
131.137651
 20
266.921858
 30
0.0
 11
131.166442
 21
266.864462
 31
0.0
  0
LINE
  8
0
 10
131.229528
 20
266.855576
 30
0.0
 11
131.503039
 21
267.058847
 31
0.0
  0
LINE
  8
0
 10
131.594916
 20
267.261693
 30
0.0
 11
131.566125
 21
267.161503
 31
0.0
  0
LINE
  8
0
 10
132.335384
 20
266.034205
 30
0.0
 11
132.335384
 21
266.440625
 31
0.0
  0
LINE
  8
0
 10
132.372917
 20
265.968356
 30
0.0
 11
132.425943
 21
265.964983
 31
0.0
  0
LINE
  8
0
 10
131.594916
 20
264.112517
 30
0.0
 11
131.566125
 21
264.169914
 31
0.0
  0
LINE
  8
0
 10
130.289504
 20
264.636934
 30
0.0
 11
130.239954
 21
264.657518
 31
0.0
  0
LINE
  8
0
 10
130.270469
 20
264.771075
 30
0.0
 11
130.283204
 21
264.768992
 31
0.0
  0
LINE
  8
0
 10
132.233052
 20
266.478049
 30
0.0
 11
132.233052
 21
266.274839
 31
0.0
  0
LINE
  8
0
 10
132.233052
 20
266.071629
 30
0.0
 11
132.233052
 21
266.274839
 31
0.0
  0
LINE
  8
0
 10
132.335384
 20
266.034205
 30
0.0
 11
132.233052
 21
266.071629
 31
0.0
  0
LINE
  8
0
 10
132.4771
 20
266.871932
 30
0.0
 11
132.374768
 21
266.909357
 31
0.0
  0
LINE
  8
0
 10
131.137651
 20
266.921858
 30
0.0
 11
131.065561
 21
266.948223
 31
0.0
  0
LINE
  8
0
 10
131.166442
 20
266.864462
 30
0.0
 11
131.064109
 21
266.901887
 31
0.0
  0
LINE
  8
0
 10
131.749505
 20
266.42068
 30
0.0
 11
131.728655
 21
266.422696
 31
0.0
  0
LINE
  8
0
 10
131.721462
 20
266.438204
 30
0.0
 11
131.722083
 21
266.438665
 31
0.0
  0
LINE
  8
0
 10
131.801701
 20
266.67271
 30
0.0
 11
132.244113
 21
266.543159
 31
0.0
  0
LINE
  8
0
 10
131.855004
 20
266.769776
 30
0.0
 11
131.728655
 21
266.853449
 31
0.0
  0
LINE
  8
0
 10
131.720465
 20
266.491623
 30
0.0
 11
132.233052
 21
266.274839
 31
0.0
  0
LINE
  8
0
 10
131.263951
 20
264.114589
 30
0.0
 11
131.400706
 21
264.216224
 31
0.0
  0
LINE
  8
0
 10
132.4771
 20
265.813541
 30
0.0
 11
132.374768
 21
265.850966
 31
0.0
  0
LINE
  8
0
 10
131.722419
 20
264.13126
 30
0.0
 11
131.620087
 21
264.168684
 31
0.0
  0
LINE
  8
0
 10
131.503039
 20
264.178799
 30
0.0
 11
131.400706
 21
264.216224
 31
0.0
  0
LINE
  8
0
 10
130.643686
 20
264.091344
 30
0.0
 11
131.064956
 21
263.913181
 31
0.0
  0
LINE
  8
0
 10
130.724922
 20
264.272431
 30
0.0
 11
131.263951
 21
264.114589
 31
0.0
  0
LINE
  8
0
 10
130.453402
 20
264.010746
 30
0.0
 11
130.605361
 21
263.984161
 31
0.0
  0
LINE
  8
0
 10
131.064109
 20
263.910298
 30
0.0
 11
131.035319
 21
263.810107
 31
0.0
  0
LINE
  8
0
 10
131.263951
 20
264.114589
 30
0.0
 11
131.127196
 21
264.012953
 31
0.0
  0
LINE
  8
0
 10
131.229528
 20
263.975529
 30
0.0
 11
131.127196
 21
264.012953
 31
0.0
  0
LINE
  8
0
 10
131.166442
 20
263.872873
 30
0.0
 11
131.064109
 21
263.910298
 31
0.0
  0
LINE
  8
0
 10
131.010148
 20
263.601906
 30
0.0
 11
130.907815
 21
263.639331
 31
0.0
  0
LINE
  8
0
 10
131.043022
 20
263.618699
 30
0.0
 11
130.940689
 21
263.656124
 31
0.0
  0
LINE
  8
0
 10
131.137651
 20
263.772682
 30
0.0
 11
131.035319
 21
263.810107
 31
0.0
  0
LINE
  8
0
 10
131.689545
 20
264.099189
 30
0.0
 11
131.587213
 21
264.136614
 31
0.0
  0
LINE
  8
0
 10
132.261904
 20
266.007584
 30
0.0
 11
132.364236
 21
265.970159
 31
0.0
  0
LINE
  8
0
 10
131.084262
 20
266.882274
 30
0.0
 11
131.186594
 21
266.844849
 31
0.0
  0
LINE
  8
0
 10
131.545972
 20
264.189526
 30
0.0
 11
131.44364
 21
264.226951
 31
0.0
  0
LINE
  8
0
 10
131.297368
 20
264.139421
 30
0.0
 11
130.770912
 21
264.285404
 31
0.0
  0
LINE
  8
0
 10
131.750593
 20
266.420183
 30
0.0
 11
132.233049
 21
266.198499
 31
0.0
  0
LINE
  8
0
 10
131.368918
 20
267.03572
 30
0.0
 11
131.319368
 21
267.056304
 31
0.0
  0
LINE
  8
0
 10
131.349883
 20
267.169861
 30
0.0
 11
131.362618
 21
267.167778
 31
0.0
  0
LINE
  8
0
 10
131.368918
 20
263.831748
 30
0.0
 11
131.319368
 21
263.852331
 31
0.0
  0
LINE
  8
0
 10
131.349883
 20
263.965888
 30
0.0
 11
131.362618
 21
263.963806
 31
0.0
  0
LINE
  8
0
 10
132.465255
 20
266.135129
 30
0.0
 11
132.415705
 21
266.155713
 31
0.0
  0
LINE
  8
0
 10
132.44622
 20
266.26927
 30
0.0
 11
132.458955
 21
266.267187
 31
0.0
  0
LINE
  8
0
 10
132.4771
 20
266.871932
 30
0.0
 11
132.191131
 21
267.355879
 31
0.0
  0
LINE
  8
0
 10
132.191131
 20
267.355879
 30
0.0
 11
131.722419
 21
267.432469
 31
0.0
  0
LINE
  8
0
 10
131.722419
 20
264.13126
 30
0.0
 11
132.191131
 21
264.904535
 31
0.0
  0
LINE
  8
0
 10
132.191131
 20
264.904535
 30
0.0
 11
132.4771
 21
265.813541
 31
0.0
  0
LINE
  8
0
 10
132.411416
 20
266.175118
 30
0.0
 11
132.418629
 21
266.140478
 31
0.0
  0
LINE
  8
0
 10
132.418629
 20
266.140478
 30
0.0
 11
132.438336
 21
266.125841
 31
0.0
  0
LINE
  8
0
 10
132.438336
 20
266.125841
 30
0.0
 11
132.465255
 21
266.135129
 31
0.0
  0
LINE
  8
0
 10
132.465255
 20
266.295132
 30
0.0
 11
132.427185
 21
266.243407
 31
0.0
  0
LINE
  8
0
 10
132.427185
 20
266.243407
 30
0.0
 11
132.411416
 21
266.175118
 31
0.0
  0
LINE
  8
0
 10
132.415705
 20
266.155713
 30
0.0
 11
132.445462
 21
266.192144
 31
0.0
  0
LINE
  8
0
 10
132.445462
 20
266.192144
 30
0.0
 11
132.465081
 21
266.246068
 31
0.0
  0
LINE
  8
0
 10
132.465081
 20
266.246068
 30
0.0
 11
132.465596
 21
266.295413
 31
0.0
  0
LINE
  8
0
 10
132.413065
 20
266.167197
 30
0.0
 11
132.435139
 21
266.190612
 31
0.0
  0
LINE
  8
0
 10
132.435139
 20
266.190612
 30
0.0
 11
132.452543
 21
266.228075
 31
0.0
  0
LINE
  8
0
 10
132.452543
 20
266.228075
 30
0.0
 11
132.458955
 21
266.267187
 31
0.0
  0
LINE
  8
0
 10
132.372917
 20
266.56226
 30
0.0
 11
132.345477
 21
266.502664
 31
0.0
  0
LINE
  8
0
 10
132.345477
 20
266.502664
 30
0.0
 11
132.335384
 21
266.440625
 31
0.0
  0
LINE
  8
0
 10
132.270584
 20
266.599685
 30
0.0
 11
132.243145
 21
266.540089
 31
0.0
  0
LINE
  8
0
 10
132.243145
 20
266.540089
 30
0.0
 11
132.233052
 21
266.478049
 31
0.0
  0
LINE
  8
0
 10
131.010148
 20
266.903116
 30
0.0
 11
130.541436
 21
266.129841
 31
0.0
  0
LINE
  8
0
 10
130.541436
 20
266.129841
 30
0.0
 11
130.255466
 21
265.220834
 31
0.0
  0
LINE
  8
0
 10
131.720465
 20
266.491623
 30
0.0
 11
131.723891
 21
266.528855
 31
0.0
  0
LINE
  8
0
 10
131.723891
 20
266.528855
 30
0.0
 11
131.734425
 21
266.569659
 31
0.0
  0
LINE
  8
0
 10
131.734425
 20
266.569659
 30
0.0
 11
131.751118
 21
266.60886
 31
0.0
  0
LINE
  8
0
 10
131.751118
 20
266.60886
 30
0.0
 11
131.772438
 21
266.642858
 31
0.0
  0
LINE
  8
0
 10
131.772438
 20
266.642858
 30
0.0
 11
131.796436
 21
266.668543
 31
0.0
  0
LINE
  8
0
 10
131.796436
 20
266.668543
 30
0.0
 11
131.801701
 21
266.67271
 31
0.0
  0
LINE
  8
0
 10
131.78509
 20
266.670222
 30
0.0
 11
131.756709
 21
266.641706
 31
0.0
  0
LINE
  8
0
 10
131.756709
 20
266.641706
 30
0.0
 11
131.732285
 21
266.601209
 31
0.0
  0
LINE
  8
0
 10
131.732285
 20
266.601209
 30
0.0
 11
131.714543
 21
266.549543
 31
0.0
  0
LINE
  8
0
 10
131.714543
 20
266.549543
 30
0.0
 11
131.70927
 21
266.5051
 31
0.0
  0
LINE
  8
0
 10
131.70927
 20
266.5051
 30
0.0
 11
131.714474
 21
266.465893
 31
0.0
  0
LINE
  8
0
 10
131.714474
 20
266.465893
 30
0.0
 11
131.729896
 21
266.436238
 31
0.0
  0
LINE
  8
0
 10
131.729896
 20
266.436238
 30
0.0
 11
131.750593
 21
266.420183
 31
0.0
  0
LINE
  8
0
 10
127.827279
 20
262.275553
 30
0.0
 11
127.855887
 21
262.281858
 31
0.0
  0
LINE
  8
0
 10
127.855887
 20
262.281858
 30
0.0
 11
127.885625
 21
262.281294
 31
0.0
  0
LINE
  8
0
 10
128.093506
 20
260.67968
 30
0.0
 11
128.139837
 21
260.690578
 31
0.0
  0
LINE
  8
0
 10
128.139837
 20
260.690578
 30
0.0
 11
128.179666
 21
260.741291
 31
0.0
  0
LINE
  8
0
 10
127.827279
 20
264.622258
 30
0.0
 11
127.855887
 21
264.628564
 31
0.0
  0
LINE
  8
0
 10
127.855887
 20
264.628564
 30
0.0
 11
127.885625
 21
264.627999
 31
0.0
  0
LINE
  8
0
 10
128.093506
 20
265.57759
 30
0.0
 11
128.139837
 21
265.556601
 31
0.0
  0
LINE
  8
0
 10
128.139837
 20
265.556601
 30
0.0
 11
128.179666
 21
265.532549
 31
0.0
  0
LINE
  8
0
 10
128.95834
 20
266.490195
 30
0.0
 11
128.964331
 21
266.475947
 31
0.0
  0
LINE
  8
0
 10
128.964331
 20
266.475947
 30
0.0
 11
128.972741
 21
266.462663
 31
0.0
  0
LINE
  8
0
 10
130.808793
 20
264.274869
 30
0.0
 11
131.238488
 21
264.594214
 31
0.0
  0
LINE
  8
0
 10
131.238488
 20
264.594214
 30
0.0
 11
131.656881
 21
264.90516
 31
0.0
  0
LINE
  8
0
 10
130.255466
 20
264.162444
 30
0.0
 11
130.541436
 21
263.678497
 31
0.0
  0
LINE
  8
0
 10
130.541436
 20
263.678497
 30
0.0
 11
131.010148
 21
263.601906
 31
0.0
  0
LINE
  8
0
 10
131.036513
 20
263.814267
 30
0.0
 11
130.849338
 21
263.889845
 31
0.0
  0
LINE
  8
0
 10
130.849338
 20
263.889845
 30
0.0
 11
130.609403
 21
263.986728
 31
0.0
  0
LINE
  8
0
 10
130.609403
 20
263.986728
 30
0.0
 11
130.609022
 21
263.986882
 31
0.0
  0
LINE
  8
0
 10
131.060844
 20
263.898938
 30
0.0
 11
130.88782
 21
263.968803
 31
0.0
  0
LINE
  8
0
 10
130.88782
 20
263.968803
 30
0.0
 11
130.647885
 21
264.065685
 31
0.0
  0
LINE
  8
0
 10
130.647885
 20
264.065685
 30
0.0
 11
130.643686
 21
264.067381
 31
0.0
  0
LINE
  8
0
 10
130.940689
 20
263.656124
 30
0.0
 11
130.995744
 21
263.719535
 31
0.0
  0
LINE
  8
0
 10
130.995744
 20
263.719535
 30
0.0
 11
131.035319
 21
263.810107
 31
0.0
  0
LINE
  8
0
 10
130.797805
 20
264.277914
 30
0.0
 11
131.182105
 21
264.563522
 31
0.0
  0
LINE
  8
0
 10
131.182105
 20
264.563522
 30
0.0
 11
131.638913
 21
264.903017
 31
0.0
  0
LINE
  8
0
 10
130.289504
 20
264.796937
 30
0.0
 11
130.251434
 21
264.745212
 31
0.0
  0
LINE
  8
0
 10
130.251434
 20
264.745212
 30
0.0
 11
130.235665
 21
264.676923
 31
0.0
  0
LINE
  8
0
 10
130.289504
 20
264.636934
 30
0.0
 11
130.32115
 21
264.675732
 31
0.0
  0
LINE
  8
0
 10
130.32115
 20
264.675732
 30
0.0
 11
130.340708
 21
264.730268
 31
0.0
  0
LINE
  8
0
 10
130.340708
 20
264.730268
 30
0.0
 11
130.340708
 21
264.779712
 31
0.0
  0
LINE
  8
0
 10
130.340708
 20
264.779712
 30
0.0
 11
130.32115
 21
264.805177
 31
0.0
  0
LINE
  8
0
 10
130.32115
 20
264.805177
 30
0.0
 11
130.289504
 21
264.796937
 31
0.0
  0
LINE
  8
0
 10
130.239954
 20
264.657518
 30
0.0
 11
130.269711
 21
264.693949
 31
0.0
  0
LINE
  8
0
 10
130.269711
 20
264.693949
 30
0.0
 11
130.28933
 21
264.747873
 31
0.0
  0
LINE
  8
0
 10
130.28933
 20
264.747873
 30
0.0
 11
130.289845
 21
264.797218
 31
0.0
  0
LINE
  8
0
 10
130.237314
 20
264.669002
 30
0.0
 11
130.259388
 21
264.692417
 31
0.0
  0
LINE
  8
0
 10
130.259388
 20
264.692417
 30
0.0
 11
130.276792
 21
264.72988
 31
0.0
  0
LINE
  8
0
 10
130.276792
 20
264.72988
 30
0.0
 11
130.283204
 21
264.768992
 31
0.0
  0
LINE
  8
0
 10
130.632776
 20
263.663572
 30
0.0
 11
130.758925
 21
263.616788
 31
0.0
  0
LINE
  8
0
 10
130.758925
 20
263.616788
 30
0.0
 11
130.907815
 21
263.639331
 31
0.0
  0
LINE
  8
0
 10
130.907815
 20
263.639331
 30
0.0
 11
130.924053
 21
263.645681
 31
0.0
  0
LINE
  8
0
 10
130.924053
 20
263.645681
 30
0.0
 11
130.940689
 21
263.656124
 31
0.0
  0
LINE
  8
0
 10
130.62104
 20
264.024985
 30
0.0
 11
130.593098
 21
263.986305
 31
0.0
  0
LINE
  8
0
 10
130.609022
 20
263.986882
 30
0.0
 11
130.593468
 21
263.986235
 31
0.0
  0
LINE
  8
0
 10
130.593006
 20
263.986322
 30
0.0
 11
130.593153
 21
263.986448
 31
0.0
  0
LINE
  8
0
 10
130.593153
 20
263.986448
 30
0.0
 11
130.603297
 21
263.997132
 31
0.0
  0
LINE
  8
0
 10
130.603297
 20
263.997132
 30
0.0
 11
130.611798
 21
264.009856
 31
0.0
  0
LINE
  8
0
 10
130.611798
 20
264.009856
 30
0.0
 11
130.619044
 21
264.024598
 31
0.0
  0
LINE
  8
0
 10
130.306624
 20
264.389925
 30
0.0
 11
130.258069
 21
264.272807
 31
0.0
  0
LINE
  8
0
 10
130.258069
 20
264.272807
 30
0.0
 11
130.255466
 21
264.162444
 31
0.0
  0
LINE
  8
0
 10
130.453402
 20
264.010746
 30
0.0
 11
130.442244
 21
264.010601
 31
0.0
  0
LINE
  8
0
 10
130.442244
 20
264.010601
 30
0.0
 11
130.432746
 21
264.006587
 31
0.0
  0
LINE
  8
0
 10
130.432746
 20
264.006587
 30
0.0
 11
130.426074
 21
263.999397
 31
0.0
  0
LINE
  8
0
 10
130.426074
 20
263.999397
 30
0.0
 11
130.398451
 21
263.920471
 31
0.0
  0
LINE
  8
0
 10
130.235665
 20
264.676923
 30
0.0
 11
130.242878
 21
264.642283
 31
0.0
  0
LINE
  8
0
 10
130.242878
 20
264.642283
 30
0.0
 11
130.262585
 21
264.627646
 31
0.0
  0
LINE
  8
0
 10
130.262585
 20
264.627646
 30
0.0
 11
130.289504
 21
264.636934
 31
0.0
  0
LINE
  8
0
 10
130.35965
 20
264.472115
 30
0.0
 11
130.38709
 21
264.531711
 31
0.0
  0
LINE
  8
0
 10
130.38709
 20
264.531711
 30
0.0
 11
130.397182
 21
264.593751
 31
0.0
  0
LINE
  8
0
 10
130.646506
 20
264.124969
 30
0.0
 11
130.649139
 21
264.13888
 31
0.0
  0
LINE
  8
0
 10
130.649139
 20
264.13888
 30
0.0
 11
130.661356
 21
264.179641
 31
0.0
  0
LINE
  8
0
 10
130.661356
 20
264.179641
 30
0.0
 11
130.679388
 21
264.217846
 31
0.0
  0
LINE
  8
0
 10
130.679388
 20
264.217846
 30
0.0
 11
130.701579
 21
264.249992
 31
0.0
  0
LINE
  8
0
 10
130.701579
 20
264.249992
 30
0.0
 11
130.724922
 21
264.272431
 31
0.0
  0
LINE
  8
0
 10
130.770912
 20
264.285404
 30
0.0
 11
130.741731
 21
264.285894
 31
0.0
  0
LINE
  8
0
 10
130.741731
 20
264.285894
 30
0.0
 11
130.703486
 21
264.266154
 31
0.0
  0
LINE
  8
0
 10
130.703486
 20
264.266154
 30
0.0
 11
130.675807
 21
264.235865
 31
0.0
  0
LINE
  8
0
 10
130.675807
 20
264.235865
 30
0.0
 11
130.651351
 21
264.1916
 31
0.0
  0
LINE
  8
0
 10
130.651351
 20
264.1916
 30
0.0
 11
130.64137
 21
264.163344
 31
0.0
  0
LINE
  8
0
 10
130.64137
 20
264.163344
 30
0.0
 11
130.635074
 21
264.135305
 31
0.0
  0
LINE
  8
0
 10
130.634244
 20
264.021576
 30
0.0
 11
130.609022
 21
263.986882
 31
0.0
  0
LINE
  8
0
 10
130.605361
 20
263.984161
 30
0.0
 11
130.609022
 21
263.986882
 31
0.0
  0
LINE
  8
0
 10
130.619044
 20
264.024597
 30
0.0
 11
130.62104
 21
264.024985
 31
0.0
  0
LINE
  8
0
 10
130.635074
 20
264.135305
 30
0.0
 11
130.646506
 21
264.124969
 31
0.0
  0
LINE
  8
0
 10
130.632501
 20
264.104693
 30
0.0
 11
130.643686
 21
264.091344
 31
0.0
  0
LINE
  8
0
 10
130.643686
 20
264.091344
 30
0.0
 11
130.643812
 21
264.099466
 31
0.0
  0
LINE
  8
0
 10
130.643812
 20
264.099466
 30
0.0
 11
130.644326
 21
264.107801
 31
0.0
  0
LINE
  8
0
 10
130.644326
 20
264.107801
 30
0.0
 11
130.645225
 21
264.116315
 31
0.0
  0
LINE
  8
0
 10
130.645225
 20
264.116315
 30
0.0
 11
130.646506
 21
264.124969
 31
0.0
  0
LINE
  8
0
 10
130.632489
 20
264.080256
 30
0.0
 11
130.632817
 21
264.077808
 31
0.0
  0
LINE
  8
0
 10
130.632817
 20
264.077808
 30
0.0
 11
130.643686
 21
264.067381
 31
0.0
  0
LINE
  8
0
 10
130.643686
 20
264.067381
 30
0.0
 11
130.643686
 21
264.091344
 31
0.0
  0
LINE
  8
0
 10
130.643686
 20
264.067381
 30
0.0
 11
130.634244
 21
264.021576
 31
0.0
  0
LINE
  8
0
 10
130.632817
 20
264.077808
 30
0.0
 11
130.62104
 21
264.024985
 31
0.0
  0
LINE
  8
0
 10
130.634244
 20
264.021576
 30
0.0
 11
130.62104
 21
264.024985
 31
0.0
  0
LINE
  8
0
 10
130.635052
 20
264.135147
 30
0.0
 11
130.633513
 21
264.119636
 31
0.0
  0
LINE
  8
0
 10
130.633513
 20
264.119636
 30
0.0
 11
130.632501
 21
264.104696
 31
0.0
  0
LINE
  8
0
 10
130.632489
 20
264.104227
 30
0.0
 11
130.632489
 21
264.092245
 31
0.0
  0
LINE
  8
0
 10
130.632489
 20
264.092245
 30
0.0
 11
130.632489
 21
264.080263
 31
0.0
  0
LINE
  8
0
 10
130.619044
 20
264.024598
 30
0.0
 11
130.624225
 21
264.036993
 31
0.0
  0
LINE
  8
0
 10
130.624225
 20
264.036993
 30
0.0
 11
130.629889
 21
264.056711
 31
0.0
  0
LINE
  8
0
 10
130.629889
 20
264.056711
 30
0.0
 11
130.632327
 21
264.075391
 31
0.0
  0
LINE
  8
0
 10
130.632327
 20
264.075391
 30
0.0
 11
130.632489
 21
264.080258
 31
0.0
  0
LINE
  8
0
 10
130.724922
 20
264.272431
 30
0.0
 11
130.742854
 21
264.28278
 31
0.0
  0
LINE
  8
0
 10
130.742854
 20
264.28278
 30
0.0
 11
130.765724
 21
264.286425
 31
0.0
  0
LINE
  8
0
 10
130.765724
 20
264.286425
 30
0.0
 11
130.770914
 21
264.285404
 31
0.0
  0
LINE
  8
0
 10
130.255466
 20
265.220834
 30
0.0
 11
130.258069
 21
265.11434
 31
0.0
  0
LINE
  8
0
 10
130.258069
 20
265.11434
 30
0.0
 11
130.306624
 21
265.069392
 31
0.0
  0
LINE
  8
0
 10
130.283204
 20
264.768992
 30
0.0
 11
130.282558
 21
264.779784
 31
0.0
  0
LINE
  8
0
 10
130.282558
 20
264.779784
 30
0.0
 11
130.281282
 21
264.785766
 31
0.0
  0
LINE
  8
0
 10
130.397182
 20
265.000171
 30
0.0
 11
130.38709
 21
265.047209
 31
0.0
  0
LINE
  8
0
 10
130.38709
 20
265.047209
 30
0.0
 11
130.35965
 21
265.066019
 31
0.0
  0
LINE
  8
0
 10
131.620087
 20
264.168684
 30
0.0
 11
132.088799
 21
264.94196
 31
0.0
  0
LINE
  8
0
 10
132.088799
 20
264.94196
 30
0.0
 11
132.374768
 21
265.850966
 31
0.0
  0
LINE
  8
0
 10
131.594916
 20
264.112517
 30
0.0
 11
131.63449
 21
264.080768
 31
0.0
  0
LINE
  8
0
 10
131.63449
 20
264.080768
 30
0.0
 11
131.689545
 21
264.099189
 31
0.0
  0
LINE
  8
0
 10
131.043022
 20
263.618699
 30
0.0
 11
131.098077
 21
263.682111
 31
0.0
  0
LINE
  8
0
 10
131.098077
 20
263.682111
 30
0.0
 11
131.137651
 21
263.772682
 31
0.0
  0
LINE
  8
0
 10
131.010148
 20
263.601906
 30
0.0
 11
131.026385
 21
263.608256
 31
0.0
  0
LINE
  8
0
 10
131.026385
 20
263.608256
 30
0.0
 11
131.043022
 21
263.618699
 31
0.0
  0
LINE
  8
0
 10
131.315079
 20
263.871737
 30
0.0
 11
131.322292
 21
263.837097
 31
0.0
  0
LINE
  8
0
 10
131.322292
 20
263.837097
 30
0.0
 11
131.341999
 21
263.82246
 31
0.0
  0
LINE
  8
0
 10
131.341999
 20
263.82246
 30
0.0
 11
131.368918
 21
263.831748
 31
0.0
  0
LINE
  8
0
 10
131.368918
 20
263.991751
 30
0.0
 11
131.330848
 21
263.940026
 31
0.0
  0
LINE
  8
0
 10
131.330848
 20
263.940026
 30
0.0
 11
131.315079
 21
263.871737
 31
0.0
  0
LINE
  8
0
 10
131.319368
 20
263.852331
 30
0.0
 11
131.349125
 21
263.888763
 31
0.0
  0
LINE
  8
0
 10
131.349125
 20
263.888763
 30
0.0
 11
131.368744
 21
263.942687
 31
0.0
  0
LINE
  8
0
 10
131.368744
 20
263.942687
 30
0.0
 11
131.369259
 21
263.992032
 31
0.0
  0
LINE
  8
0
 10
131.316728
 20
263.863816
 30
0.0
 11
131.338802
 21
263.887231
 31
0.0
  0
LINE
  8
0
 10
131.338802
 20
263.887231
 30
0.0
 11
131.356206
 21
263.924694
 31
0.0
  0
LINE
  8
0
 10
131.356206
 20
263.924694
 30
0.0
 11
131.362618
 21
263.963806
 31
0.0
  0
LINE
  8
0
 10
131.127196
 20
264.012953
 30
0.0
 11
131.090492
 21
263.970679
 31
0.0
  0
LINE
  8
0
 10
131.090492
 20
263.970679
 30
0.0
 11
131.064109
 21
263.910298
 31
0.0
  0
LINE
  8
0
 10
131.229528
 20
263.975529
 30
0.0
 11
131.192824
 21
263.933254
 31
0.0
  0
LINE
  8
0
 10
131.192824
 20
263.933254
 30
0.0
 11
131.166442
 21
263.872873
 31
0.0
  0
LINE
  8
0
 10
131.44365
 20
264.226948
 30
0.0
 11
131.423331
 21
264.227602
 31
0.0
  0
LINE
  8
0
 10
131.423331
 20
264.227602
 30
0.0
 11
131.400706
 21
264.216224
 31
0.0
  0
LINE
  8
0
 10
131.566125
 20
264.169914
 30
0.0
 11
131.539742
 21
264.19108
 31
0.0
  0
LINE
  8
0
 10
131.539742
 20
264.19108
 30
0.0
 11
131.503039
 21
264.178799
 31
0.0
  0
LINE
  8
0
 10
131.368918
 20
263.831748
 30
0.0
 11
131.400564
 21
263.870546
 31
0.0
  0
LINE
  8
0
 10
131.400564
 20
263.870546
 30
0.0
 11
131.420122
 21
263.925082
 31
0.0
  0
LINE
  8
0
 10
131.420122
 20
263.925082
 30
0.0
 11
131.420122
 21
263.974526
 31
0.0
  0
LINE
  8
0
 10
131.420122
 20
263.974526
 30
0.0
 11
131.400564
 21
263.999991
 31
0.0
  0
LINE
  8
0
 10
131.400564
 20
263.999991
 30
0.0
 11
131.368918
 21
263.991751
 31
0.0
  0
LINE
  8
0
 10
131.362618
 20
263.963806
 30
0.0
 11
131.361972
 21
263.974598
 31
0.0
  0
LINE
  8
0
 10
131.361972
 20
263.974598
 30
0.0
 11
131.360696
 21
263.98058
 31
0.0
  0
LINE
  8
0
 10
131.587213
 20
264.136614
 30
0.0
 11
131.603849
 21
264.150899
 31
0.0
  0
LINE
  8
0
 10
131.603849
 20
264.150899
 30
0.0
 11
131.620087
 21
264.168684
 31
0.0
  0
LINE
  8
0
 10
131.583987
 20
264.134288
 30
0.0
 11
131.5856
 21
264.135433
 31
0.0
  0
LINE
  8
0
 10
131.5856
 20
264.135433
 30
0.0
 11
131.587213
 21
264.136614
 31
0.0
  0
LINE
  8
0
 10
131.689545
 20
264.099189
 30
0.0
 11
131.706182
 21
264.113475
 31
0.0
  0
LINE
  8
0
 10
131.706182
 20
264.113475
 30
0.0
 11
131.722419
 21
264.13126
 31
0.0
  0
LINE
  8
0
 10
131.707555
 20
264.974439
 30
0.0
 11
131.656881
 21
264.90516
 31
0.0
  0
LINE
  8
0
 10
131.656881
 20
264.90516
 30
0.0
 11
131.971432
 21
264.791593
 31
0.0
  0
LINE
  8
0
 10
131.971432
 20
264.791593
 30
0.0
 11
132.010184
 21
264.777602
 31
0.0
  0
LINE
  8
0
 10
131.639346
 20
264.903329
 30
0.0
 11
131.693903
 21
264.977942
 31
0.0
  0
LINE
  8
0
 10
131.638913
 20
264.903018
 30
0.0
 11
131.639186
 21
264.903225
 31
0.0
  0
LINE
  8
0
 10
131.639186
 20
264.903225
 30
0.0
 11
131.640653
 21
264.904399
 31
0.0
  0
LINE
  8
0
 10
131.640653
 20
264.904399
 30
0.0
 11
131.65357
 21
264.916663
 31
0.0
  0
LINE
  8
0
 10
131.65357
 20
264.916663
 30
0.0
 11
131.673603
 21
264.942796
 31
0.0
  0
LINE
  8
0
 10
131.673603
 20
264.942796
 30
0.0
 11
131.691661
 21
264.97768
 31
0.0
  0
LINE
  8
0
 10
131.656881
 20
264.90516
 30
0.0
 11
131.639346
 21
264.903329
 31
0.0
  0
LINE
  8
0
 10
131.639346
 20
264.903329
 30
0.0
 11
131.638915
 21
264.903019
 31
0.0
  0
LINE
  8
0
 10
131.728655
 20
265.065154
 30
0.0
 11
131.728655
 21
265.68686
 31
0.0
  0
LINE
  8
0
 10
131.728655
 20
265.68686
 30
0.0
 11
131.728655
 21
266.422696
 31
0.0
  0
LINE
  8
0
 10
131.716203
 20
265.078616
 30
0.0
 11
131.716203
 21
265.757426
 31
0.0
  0
LINE
  8
0
 10
131.716203
 20
265.757426
 30
0.0
 11
131.716203
 21
266.430437
 31
0.0
  0
LINE
  8
0
 10
131.728655
 20
265.065154
 30
0.0
 11
132.043206
 21
264.951588
 31
0.0
  0
LINE
  8
0
 10
132.043206
 20
264.951588
 30
0.0
 11
132.086215
 21
264.93606
 31
0.0
  0
LINE
  8
0
 10
131.716203
 20
265.078612
 30
0.0
 11
131.716669
 21
265.07569
 31
0.0
  0
LINE
  8
0
 10
131.716669
 20
265.07569
 30
0.0
 11
131.728655
 21
265.065154
 31
0.0
  0
LINE
  8
0
 10
131.728655
 20
265.065154
 30
0.0
 11
131.707555
 21
264.974439
 31
0.0
  0
LINE
  8
0
 10
131.693903
 20
264.977942
 30
0.0
 11
131.716669
 21
265.07569
 31
0.0
  0
LINE
  8
0
 10
131.707555
 20
264.974439
 30
0.0
 11
131.693903
 21
264.977942
 31
0.0
  0
LINE
  8
0
 10
131.691661
 20
264.97768
 30
0.0
 11
131.693903
 21
264.977942
 31
0.0
  0
LINE
  8
0
 10
131.691661
 20
264.97768
 30
0.0
 11
131.699241
 21
264.99548
 31
0.0
  0
LINE
  8
0
 10
131.699241
 20
264.99548
 30
0.0
 11
131.711059
 21
265.034797
 31
0.0
  0
LINE
  8
0
 10
131.711059
 20
265.034797
 30
0.0
 11
131.715139
 21
265.061125
 31
0.0
  0
LINE
  8
0
 10
131.715139
 20
265.061125
 30
0.0
 11
131.716203
 21
265.078612
 31
0.0
  0
LINE
  8
0
 10
131.728655
 20
266.422696
 30
0.0
 11
131.720785
 21
266.424644
 31
0.0
  0
LINE
  8
0
 10
131.720785
 20
266.424644
 30
0.0
 11
131.716709
 21
266.428249
 31
0.0
  0
LINE
  8
0
 10
131.716709
 20
266.428249
 30
0.0
 11
131.716788
 21
266.432962
 31
0.0
  0
LINE
  8
0
 10
131.716788
 20
266.432962
 30
0.0
 11
131.721462
 21
266.438204
 31
0.0
  0
LINE
  8
0
 10
131.722083
 20
266.438665
 30
0.0
 11
131.726078
 21
266.441182
 31
0.0
  0
LINE
  8
0
 10
131.75059
 20
266.420185
 30
0.0
 11
131.746868
 21
266.422179
 31
0.0
  0
LINE
  8
0
 10
131.746868
 20
266.422179
 30
0.0
 11
131.731454
 21
266.439161
 31
0.0
  0
LINE
  8
0
 10
131.731454
 20
266.439161
 30
0.0
 11
131.722468
 21
266.466467
 31
0.0
  0
LINE
  8
0
 10
131.722468
 20
266.466467
 30
0.0
 11
131.720465
 21
266.491623
 31
0.0
  0
LINE
  8
0
 10
132.233052
 20
266.071629
 30
0.0
 11
132.24067
 21
266.029471
 31
0.0
  0
LINE
  8
0
 10
132.24067
 20
266.029471
 30
0.0
 11
132.261907
 21
266.007583
 31
0.0
  0
LINE
  8
0
 10
132.335384
 20
266.034205
 30
0.0
 11
132.345477
 21
265.987166
 31
0.0
  0
LINE
  8
0
 10
132.345477
 20
265.987166
 30
0.0
 11
132.372917
 21
265.968356
 31
0.0
  0
LINE
  8
0
 10
132.374768
 20
265.850966
 30
0.0
 11
132.379491
 21
265.917415
 31
0.0
  0
LINE
  8
0
 10
132.379491
 20
265.917415
 30
0.0
 11
132.36741
 21
265.969169
 31
0.0
  0
LINE
  8
0
 10
131.689545
 20
267.415677
 30
0.0
 11
131.63449
 21
267.352265
 31
0.0
  0
LINE
  8
0
 10
131.63449
 20
267.352265
 30
0.0
 11
131.594916
 21
267.261693
 31
0.0
  0
LINE
  8
0
 10
131.315079
 20
267.075709
 30
0.0
 11
131.322292
 21
267.041069
 31
0.0
  0
LINE
  8
0
 10
131.322292
 20
267.041069
 30
0.0
 11
131.341999
 21
267.026432
 31
0.0
  0
LINE
  8
0
 10
131.341999
 20
267.026432
 30
0.0
 11
131.368918
 21
267.03572
 31
0.0
  0
LINE
  8
0
 10
131.368918
 20
267.195723
 30
0.0
 11
131.330848
 21
267.143998
 31
0.0
  0
LINE
  8
0
 10
131.330848
 20
267.143998
 30
0.0
 11
131.315079
 21
267.075709
 31
0.0
  0
LINE
  8
0
 10
131.319368
 20
267.056304
 30
0.0
 11
131.349125
 21
267.092735
 31
0.0
  0
LINE
  8
0
 10
131.349125
 20
267.092735
 30
0.0
 11
131.368744
 21
267.146659
 31
0.0
  0
LINE
  8
0
 10
131.368744
 20
267.146659
 30
0.0
 11
131.369259
 21
267.196004
 31
0.0
  0
LINE
  8
0
 10
131.316728
 20
267.067788
 30
0.0
 11
131.338802
 21
267.091203
 31
0.0
  0
LINE
  8
0
 10
131.338802
 20
267.091203
 30
0.0
 11
131.356206
 21
267.128666
 31
0.0
  0
LINE
  8
0
 10
131.356206
 20
267.128666
 30
0.0
 11
131.362618
 21
267.167778
 31
0.0
  0
LINE
  8
0
 10
131.137651
 20
266.921858
 30
0.0
 11
131.098077
 21
266.953608
 31
0.0
  0
LINE
  8
0
 10
131.098077
 20
266.953608
 30
0.0
 11
131.043022
 21
266.935187
 31
0.0
  0
LINE
  8
0
 10
131.043022
 20
266.935187
 30
0.0
 11
131.026385
 21
266.920901
 31
0.0
  0
LINE
  8
0
 10
131.026385
 20
266.920901
 30
0.0
 11
131.010148
 21
266.903116
 31
0.0
  0
LINE
  8
0
 10
131.064109
 20
266.901887
 30
0.0
 11
131.072919
 21
266.889521
 31
0.0
  0
LINE
  8
0
 10
131.072919
 20
266.889521
 30
0.0
 11
131.084252
 21
266.882277
 31
0.0
  0
LINE
  8
0
 10
131.166442
 20
266.864462
 30
0.0
 11
131.192824
 21
266.843295
 31
0.0
  0
LINE
  8
0
 10
131.192824
 20
266.843295
 30
0.0
 11
131.229528
 21
266.855576
 31
0.0
  0
LINE
  8
0
 10
131.503039
 20
267.058847
 30
0.0
 11
131.539742
 21
267.101121
 31
0.0
  0
LINE
  8
0
 10
131.539742
 20
267.101121
 30
0.0
 11
131.566125
 21
267.161503
 31
0.0
  0
LINE
  8
0
 10
131.368918
 20
267.03572
 30
0.0
 11
131.400564
 21
267.074518
 31
0.0
  0
LINE
  8
0
 10
131.400564
 20
267.074518
 30
0.0
 11
131.420122
 21
267.129054
 31
0.0
  0
LINE
  8
0
 10
131.420122
 20
267.129054
 30
0.0
 11
131.420122
 21
267.178498
 31
0.0
  0
LINE
  8
0
 10
131.420122
 20
267.178498
 30
0.0
 11
131.400564
 21
267.203963
 31
0.0
  0
LINE
  8
0
 10
131.400564
 20
267.203963
 30
0.0
 11
131.368918
 21
267.195723
 31
0.0
  0
LINE
  8
0
 10
131.362618
 20
267.167778
 30
0.0
 11
131.361972
 21
267.17857
 31
0.0
  0
LINE
  8
0
 10
131.361972
 20
267.17857
 30
0.0
 11
131.360696
 21
267.184552
 31
0.0
  0
LINE
  8
0
 10
131.721462
 20
267.432207
 30
0.0
 11
131.721462
 21
266.882998
 31
0.0
  0
LINE
  8
0
 10
131.728655
 20
267.434104
 30
0.0
 11
131.728655
 21
266.853449
 31
0.0
  0
LINE
  8
0
 10
132.374768
 20
266.909357
 30
0.0
 11
132.231926
 21
267.241314
 31
0.0
  0
LINE
  8
0
 10
132.231926
 20
267.241314
 30
0.0
 11
131.997955
 21
267.387445
 31
0.0
  0
LINE
  8
0
 10
132.247666
 20
266.553306
 30
0.0
 11
132.071412
 21
266.607182
 31
0.0
  0
LINE
  8
0
 10
132.071412
 20
266.607182
 30
0.0
 11
131.82219
 21
266.683362
 31
0.0
  0
LINE
  8
0
 10
131.82219
 20
266.683362
 30
0.0
 11
131.817828
 21
266.684695
 31
0.0
  0
LINE
  8
0
 10
132.290862
 20
266.631108
 30
0.0
 11
132.104623
 21
266.688036
 31
0.0
  0
LINE
  8
0
 10
132.104623
 20
266.688036
 30
0.0
 11
131.855401
 21
266.764216
 31
0.0
  0
LINE
  8
0
 10
131.855401
 20
266.764216
 30
0.0
 11
131.855004
 21
266.764337
 31
0.0
  0
LINE
  8
0
 10
131.855004
 20
266.764337
 30
0.0
 11
131.844323
 21
266.718997
 31
0.0
  0
LINE
  8
0
 10
131.831015
 20
266.722181
 30
0.0
 11
131.843017
 21
266.774873
 31
0.0
  0
LINE
  8
0
 10
131.829041
 20
266.721842
 30
0.0
 11
131.834419
 21
266.734731
 31
0.0
  0
LINE
  8
0
 10
131.834419
 20
266.734731
 30
0.0
 11
131.840036
 21
266.754645
 31
0.0
  0
LINE
  8
0
 10
131.840036
 20
266.754645
 30
0.0
 11
131.842072
 21
266.768734
 31
0.0
  0
LINE
  8
0
 10
131.842072
 20
266.768734
 30
0.0
 11
131.842552
 21
266.777792
 31
0.0
  0
LINE
  8
0
 10
131.807077
 20
266.676705
 30
0.0
 11
131.817828
 21
266.684695
 31
0.0
  0
LINE
  8
0
 10
131.801701
 20
266.67271
 30
0.0
 11
131.807077
 21
266.676705
 31
0.0
  0
LINE
  8
0
 10
131.78509
 20
266.670222
 30
0.0
 11
131.801701
 21
266.67271
 31
0.0
  0
LINE
  8
0
 10
131.807077
 20
266.676705
 30
0.0
 11
131.790465
 21
266.674218
 31
0.0
  0
LINE
  8
0
 10
131.844323
 20
266.718997
 30
0.0
 11
131.831015
 21
266.722181
 31
0.0
  0
LINE
  8
0
 10
131.844323
 20
266.718997
 30
0.0
 11
131.817828
 21
266.684695
 31
0.0
  0
LINE
  8
0
 10
131.817828
 20
266.684695
 30
0.0
 11
131.801217
 21
266.682209
 31
0.0
  0
LINE
  8
0
 10
131.801293
 20
266.682265
 30
0.0
 11
131.831015
 21
266.722181
 31
0.0
  0
LINE
  8
0
 10
131.829041
 20
266.721841
 30
0.0
 11
131.831015
 21
266.722181
 31
0.0
  0
LINE
  8
0
 10
131.790465
 20
266.674218
 30
0.0
 11
131.787777
 21
266.67222
 31
0.0
  0
LINE
  8
0
 10
131.787777
 20
266.67222
 30
0.0
 11
131.785088
 21
266.670221
 31
0.0
  0
LINE
  8
0
 10
131.801217
 20
266.682209
 30
0.0
 11
131.801293
 21
266.682265
 31
0.0
  0
LINE
  8
0
 10
131.790466
 20
266.674218
 30
0.0
 11
131.795841
 21
266.678213
 31
0.0
  0
LINE
  8
0
 10
131.795841
 20
266.678213
 30
0.0
 11
131.801217
 21
266.682209
 31
0.0
  0
LINE
  8
0
 10
131.801293
 20
266.682265
 30
0.0
 11
131.802576
 21
266.683281
 31
0.0
  0
LINE
  8
0
 10
131.802576
 20
266.683281
 30
0.0
 11
131.812549
 21
266.693455
 31
0.0
  0
LINE
  8
0
 10
131.812549
 20
266.693455
 30
0.0
 11
131.821395
 21
266.706413
 31
0.0
  0
LINE
  8
0
 10
131.821395
 20
266.706413
 30
0.0
 11
131.829041
 21
266.721842
 31
0.0
  0
LINE
  8
0
 10
131.728655
 20
266.853449
 30
0.0
 11
131.720785
 21
266.860646
 31
0.0
  0
LINE
  8
0
 10
131.720785
 20
266.860646
 30
0.0
 11
131.716709
 21
266.868719
 31
0.0
  0
LINE
  8
0
 10
131.716709
 20
266.868719
 30
0.0
 11
131.716788
 21
266.876566
 31
0.0
  0
LINE
  8
0
 10
131.716788
 20
266.876566
 30
0.0
 11
131.721462
 21
266.882998
 31
0.0
  0
LINE
  8
0
 10
131.843017
 20
266.774873
 30
0.0
 11
131.855004
 21
266.764337
 31
0.0
  0
LINE
  8
0
 10
131.855004
 20
266.764337
 30
0.0
 11
131.855004
 21
266.769776
 31
0.0
  0
LINE
  8
0
 10
131.842552
 20
266.777799
 30
0.0
 11
131.843017
 21
266.774873
 31
0.0
  0
LINE
  8
0
 10
131.842552
 20
266.777799
 30
0.0
 11
131.842552
 21
266.778021
 31
0.0
  0
LINE
  8
0
 10
132.32361
 20
266.681875
 30
0.0
 11
132.372165
 21
266.798993
 31
0.0
  0
LINE
  8
0
 10
132.372165
 20
266.798993
 30
0.0
 11
132.374768
 21
266.909357
 31
0.0
  0
LINE
  8
0
 10
131.722419
 20
267.432469
 30
0.0
 11
131.706182
 21
267.42612
 31
0.0
  0
LINE
  8
0
 10
131.706182
 20
267.42612
 30
0.0
 11
131.689545
 21
267.415677
 31
0.0
  0
LINE
  8
0
 10
131.587475
 20
268.444144
 30
0.0
 11
131.593467
 21
268.429896
 31
0.0
  0
LINE
  8
0
 10
131.593467
 20
268.429896
 30
0.0
 11
131.601876
 21
268.416612
 31
0.0
  0
LINE
  8
0
 10
132.341221
 20
269.00432
 30
0.0
 11
132.347212
 21
268.990072
 31
0.0
  0
LINE
  8
0
 10
132.347212
 20
268.990072
 30
0.0
 11
132.355622
 21
268.976789
 31
0.0
  0
LINE
  8
0
 10
133.33373
 20
266.105838
 30
0.0
 11
133.71803
 21
266.391446
 31
0.0
  0
LINE
  8
0
 10
133.71803
 20
266.391446
 30
0.0
 11
134.174838
 21
266.730941
 31
0.0
  0
LINE
  8
0
 10
134.156012
 20
265.996608
 30
0.0
 11
134.624724
 21
266.769884
 31
0.0
  0
LINE
  8
0
 10
134.624724
 20
266.769884
 30
0.0
 11
134.910693
 21
267.67889
 31
0.0
  0
LINE
  8
0
 10
132.773239
 20
266.496926
 30
0.0
 11
132.795313
 21
266.520341
 31
0.0
  0
LINE
  8
0
 10
132.795313
 20
266.520341
 30
0.0
 11
132.812717
 21
266.557804
 31
0.0
  0
LINE
  8
0
 10
132.812717
 20
266.557804
 30
0.0
 11
132.819129
 21
266.596916
 31
0.0
  0
LINE
  8
0
 10
132.775879
 20
266.485442
 30
0.0
 11
132.805636
 21
266.521873
 31
0.0
  0
LINE
  8
0
 10
132.805636
 20
266.521873
 30
0.0
 11
132.825255
 21
266.575797
 31
0.0
  0
LINE
  8
0
 10
132.825255
 20
266.575797
 30
0.0
 11
132.82577
 21
266.625142
 31
0.0
  0
LINE
  8
0
 10
134.258344
 20
265.959184
 30
0.0
 11
134.727056
 21
266.732459
 31
0.0
  0
LINE
  8
0
 10
134.727056
 20
266.732459
 30
0.0
 11
135.013025
 21
267.641465
 31
0.0
  0
LINE
  8
0
 10
132.825429
 20
266.464858
 30
0.0
 11
132.857075
 21
266.503656
 31
0.0
  0
LINE
  8
0
 10
132.857075
 20
266.503656
 30
0.0
 11
132.876633
 21
266.558192
 31
0.0
  0
LINE
  8
0
 10
132.876633
 20
266.558192
 30
0.0
 11
132.876633
 21
266.607636
 31
0.0
  0
LINE
  8
0
 10
132.876633
 20
266.607636
 30
0.0
 11
132.857075
 21
266.633101
 31
0.0
  0
LINE
  8
0
 10
132.857075
 20
266.633101
 30
0.0
 11
132.825429
 21
266.624861
 31
0.0
  0
LINE
  8
0
 10
132.77159
 20
266.504847
 30
0.0
 11
132.778803
 21
266.470207
 31
0.0
  0
LINE
  8
0
 10
132.778803
 20
266.470207
 30
0.0
 11
132.79851
 21
266.45557
 31
0.0
  0
LINE
  8
0
 10
132.79851
 20
266.45557
 30
0.0
 11
132.825429
 21
266.464858
 31
0.0
  0
LINE
  8
0
 10
133.344718
 20
266.102793
 30
0.0
 11
133.774413
 21
266.422138
 31
0.0
  0
LINE
  8
0
 10
133.774413
 20
266.422138
 30
0.0
 11
134.192806
 21
266.733084
 31
0.0
  0
LINE
  8
0
 10
133.852653
 20
265.69174
 30
0.0
 11
133.874727
 21
265.715155
 31
0.0
  0
LINE
  8
0
 10
133.874727
 20
265.715155
 30
0.0
 11
133.892131
 21
265.752618
 31
0.0
  0
LINE
  8
0
 10
133.892131
 20
265.752618
 30
0.0
 11
133.898543
 21
265.79173
 31
0.0
  0
LINE
  8
0
 10
133.855293
 20
265.680256
 30
0.0
 11
133.88505
 21
265.716687
 31
0.0
  0
LINE
  8
0
 10
133.88505
 20
265.716687
 30
0.0
 11
133.904669
 21
265.770611
 31
0.0
  0
LINE
  8
0
 10
133.904669
 20
265.770611
 30
0.0
 11
133.905184
 21
265.819956
 31
0.0
  0
LINE
  8
0
 10
133.904843
 20
265.819675
 30
0.0
 11
133.866773
 21
265.76795
 31
0.0
  0
LINE
  8
0
 10
133.866773
 20
265.76795
 30
0.0
 11
133.851004
 21
265.699661
 31
0.0
  0
LINE
  8
0
 10
133.851004
 20
265.699661
 30
0.0
 11
133.858217
 21
265.665021
 31
0.0
  0
LINE
  8
0
 10
133.858217
 20
265.665021
 30
0.0
 11
133.877924
 21
265.650384
 31
0.0
  0
LINE
  8
0
 10
133.877924
 20
265.650384
 30
0.0
 11
133.904843
 21
265.659672
 31
0.0
  0
LINE
  8
0
 10
133.128931
 20
265.814246
 30
0.0
 11
133.129078
 21
265.814372
 31
0.0
  0
LINE
  8
0
 10
133.129078
 20
265.814372
 30
0.0
 11
133.139222
 21
265.825056
 31
0.0
  0
LINE
  8
0
 10
133.139222
 20
265.825056
 30
0.0
 11
133.147723
 21
265.83778
 31
0.0
  0
LINE
  8
0
 10
133.147723
 20
265.83778
 30
0.0
 11
133.154969
 21
265.852522
 31
0.0
  0
LINE
  8
0
 10
133.572438
 20
265.642191
 30
0.0
 11
133.385263
 21
265.717769
 31
0.0
  0
LINE
  8
0
 10
133.385263
 20
265.717769
 30
0.0
 11
133.145328
 21
265.814652
 31
0.0
  0
LINE
  8
0
 10
133.145328
 20
265.814652
 30
0.0
 11
133.144947
 21
265.814806
 31
0.0
  0
LINE
  8
0
 10
133.170169
 20
265.8495
 30
0.0
 11
133.144947
 21
265.814806
 31
0.0
  0
LINE
  8
0
 10
133.156965
 20
265.852909
 30
0.0
 11
133.129023
 21
265.814229
 31
0.0
  0
LINE
  8
0
 10
132.791391
 20
265.990368
 30
0.0
 11
133.077361
 21
265.506421
 31
0.0
  0
LINE
  8
0
 10
133.077361
 20
265.506421
 30
0.0
 11
133.546073
 21
265.42983
 31
0.0
  0
LINE
  8
0
 10
132.4771
 20
265.813541
 30
0.0
 11
132.474497
 21
265.920036
 31
0.0
  0
LINE
  8
0
 10
132.474497
 20
265.920036
 30
0.0
 11
132.425943
 21
265.964983
 31
0.0
  0
LINE
  8
0
 10
132.465255
 20
266.135129
 30
0.0
 11
132.496901
 21
266.173927
 31
0.0
  0
LINE
  8
0
 10
132.496901
 20
266.173927
 30
0.0
 11
132.516459
 21
266.228463
 31
0.0
  0
LINE
  8
0
 10
132.516459
 20
266.228463
 30
0.0
 11
132.516459
 21
266.277907
 31
0.0
  0
LINE
  8
0
 10
132.516459
 20
266.277907
 30
0.0
 11
132.496901
 21
266.303372
 31
0.0
  0
LINE
  8
0
 10
132.496901
 20
266.303372
 30
0.0
 11
132.465255
 21
266.295132
 31
0.0
  0
LINE
  8
0
 10
132.458955
 20
266.267187
 30
0.0
 11
132.458309
 21
266.277979
 31
0.0
  0
LINE
  8
0
 10
132.458309
 20
266.277979
 30
0.0
 11
132.457033
 21
266.283961
 31
0.0
  0
LINE
  8
0
 10
132.842549
 20
266.217849
 30
0.0
 11
132.793994
 21
266.100731
 31
0.0
  0
LINE
  8
0
 10
132.793994
 20
266.100731
 30
0.0
 11
132.791391
 21
265.990368
 31
0.0
  0
LINE
  8
0
 10
132.989327
 20
265.83867
 30
0.0
 11
132.978169
 21
265.838525
 31
0.0
  0
LINE
  8
0
 10
132.978169
 20
265.838525
 30
0.0
 11
132.968671
 21
265.834511
 31
0.0
  0
LINE
  8
0
 10
132.968671
 20
265.834511
 30
0.0
 11
132.961999
 21
265.827321
 31
0.0
  0
LINE
  8
0
 10
132.961999
 20
265.827321
 30
0.0
 11
132.934376
 21
265.748395
 31
0.0
  0
LINE
  8
0
 10
133.141286
 20
265.812085
 30
0.0
 11
133.144947
 21
265.814806
 31
0.0
  0
LINE
  8
0
 10
133.144947
 20
265.814806
 30
0.0
 11
133.129393
 21
265.814159
 31
0.0
  0
LINE
  8
0
 10
132.895575
 20
266.300039
 30
0.0
 11
132.923015
 21
266.359635
 31
0.0
  0
LINE
  8
0
 10
132.923015
 20
266.359635
 30
0.0
 11
132.933107
 21
266.421675
 31
0.0
  0
LINE
  8
0
 10
133.476614
 20
265.484048
 30
0.0
 11
133.531669
 21
265.547459
 31
0.0
  0
LINE
  8
0
 10
133.531669
 20
265.547459
 30
0.0
 11
133.571244
 21
265.638031
 31
0.0
  0
LINE
  8
0
 10
133.578947
 20
265.446623
 30
0.0
 11
133.634002
 21
265.510035
 31
0.0
  0
LINE
  8
0
 10
133.634002
 20
265.510035
 30
0.0
 11
133.673576
 21
265.600606
 31
0.0
  0
LINE
  8
0
 10
133.168701
 20
265.491496
 30
0.0
 11
133.29485
 21
265.444712
 31
0.0
  0
LINE
  8
0
 10
133.29485
 20
265.444712
 30
0.0
 11
133.44374
 21
265.467255
 31
0.0
  0
LINE
  8
0
 10
133.44374
 20
265.467255
 30
0.0
 11
133.459978
 21
265.473605
 31
0.0
  0
LINE
  8
0
 10
133.459978
 20
265.473605
 30
0.0
 11
133.476614
 21
265.484048
 31
0.0
  0
LINE
  8
0
 10
133.546073
 20
265.42983
 30
0.0
 11
133.56231
 21
265.43618
 31
0.0
  0
LINE
  8
0
 10
133.56231
 20
265.43618
 30
0.0
 11
133.578947
 21
265.446623
 31
0.0
  0
LINE
  8
0
 10
133.596769
 20
265.726862
 30
0.0
 11
133.423745
 21
265.796727
 31
0.0
  0
LINE
  8
0
 10
133.423745
 20
265.796727
 30
0.0
 11
133.18381
 21
265.893609
 31
0.0
  0
LINE
  8
0
 10
133.18381
 20
265.893609
 30
0.0
 11
133.179611
 21
265.895305
 31
0.0
  0
LINE
  8
0
 10
133.306837
 20
266.113328
 30
0.0
 11
133.277656
 21
266.113818
 31
0.0
  0
LINE
  8
0
 10
133.277656
 20
266.113818
 30
0.0
 11
133.239411
 21
266.094078
 31
0.0
  0
LINE
  8
0
 10
133.239411
 20
266.094078
 30
0.0
 11
133.211732
 21
266.063789
 31
0.0
  0
LINE
  8
0
 10
133.211732
 20
266.063789
 30
0.0
 11
133.187276
 21
266.019524
 31
0.0
  0
LINE
  8
0
 10
133.187276
 20
266.019524
 30
0.0
 11
133.177295
 21
265.991268
 31
0.0
  0
LINE
  8
0
 10
133.177295
 20
265.991268
 30
0.0
 11
133.170999
 21
265.963229
 31
0.0
  0
LINE
  8
0
 10
133.182431
 20
265.952893
 30
0.0
 11
133.185064
 21
265.966804
 31
0.0
  0
LINE
  8
0
 10
133.185064
 20
265.966804
 30
0.0
 11
133.197281
 21
266.007565
 31
0.0
  0
LINE
  8
0
 10
133.197281
 20
266.007565
 30
0.0
 11
133.215313
 21
266.04577
 31
0.0
  0
LINE
  8
0
 10
133.215313
 20
266.04577
 30
0.0
 11
133.237504
 21
266.077916
 31
0.0
  0
LINE
  8
0
 10
133.237504
 20
266.077916
 30
0.0
 11
133.260847
 21
266.100355
 31
0.0
  0
LINE
  8
0
 10
133.154969
 20
265.852522
 30
0.0
 11
133.16015
 21
265.864917
 31
0.0
  0
LINE
  8
0
 10
133.16015
 20
265.864917
 30
0.0
 11
133.165814
 21
265.884635
 31
0.0
  0
LINE
  8
0
 10
133.165814
 20
265.884635
 30
0.0
 11
133.168252
 21
265.903315
 31
0.0
  0
LINE
  8
0
 10
133.168252
 20
265.903315
 30
0.0
 11
133.168414
 21
265.908182
 31
0.0
  0
LINE
  8
0
 10
133.168414
 20
265.932151
 30
0.0
 11
133.168414
 21
265.920169
 31
0.0
  0
LINE
  8
0
 10
133.168414
 20
265.920169
 30
0.0
 11
133.168414
 21
265.908187
 31
0.0
  0
LINE
  8
0
 10
133.170977
 20
265.963071
 30
0.0
 11
133.169438
 21
265.94756
 31
0.0
  0
LINE
  8
0
 10
133.169438
 20
265.94756
 30
0.0
 11
133.168426
 21
265.93262
 31
0.0
  0
LINE
  8
0
 10
133.170169
 20
265.8495
 30
0.0
 11
133.156965
 21
265.852909
 31
0.0
  0
LINE
  8
0
 10
133.168742
 20
265.905732
 30
0.0
 11
133.156965
 21
265.852909
 31
0.0
  0
LINE
  8
0
 10
133.179611
 20
265.895305
 30
0.0
 11
133.170169
 21
265.8495
 31
0.0
  0
LINE
  8
0
 10
133.179611
 20
265.895305
 30
0.0
 11
133.179611
 21
265.919268
 31
0.0
  0
LINE
  8
0
 10
133.168742
 20
265.905732
 30
0.0
 11
133.179611
 21
265.895305
 31
0.0
  0
LINE
  8
0
 10
133.168414
 20
265.90818
 30
0.0
 11
133.168742
 21
265.905732
 31
0.0
  0
LINE
  8
0
 10
133.179611
 20
265.919268
 30
0.0
 11
133.179737
 21
265.92739
 31
0.0
  0
LINE
  8
0
 10
133.179737
 20
265.92739
 30
0.0
 11
133.180251
 21
265.935725
 31
0.0
  0
LINE
  8
0
 10
133.180251
 20
265.935725
 30
0.0
 11
133.18115
 21
265.944239
 31
0.0
  0
LINE
  8
0
 10
133.18115
 20
265.944239
 30
0.0
 11
133.182431
 21
265.952893
 31
0.0
  0
LINE
  8
0
 10
133.168426
 20
265.932617
 30
0.0
 11
133.179611
 21
265.919268
 31
0.0
  0
LINE
  8
0
 10
133.170999
 20
265.963229
 30
0.0
 11
133.182431
 21
265.952893
 31
0.0
  0
LINE
  8
0
 10
133.154969
 20
265.852521
 30
0.0
 11
133.156965
 21
265.852909
 31
0.0
  0
LINE
  8
0
 10
133.260847
 20
266.100355
 30
0.0
 11
133.278779
 21
266.110704
 31
0.0
  0
LINE
  8
0
 10
133.278779
 20
266.110704
 30
0.0
 11
133.301649
 21
266.114349
 31
0.0
  0
LINE
  8
0
 10
133.301649
 20
266.114349
 30
0.0
 11
133.306839
 21
266.113328
 31
0.0
  0
LINE
  8
0
 10
133.663121
 20
265.840877
 30
0.0
 11
133.626417
 21
265.798603
 31
0.0
  0
LINE
  8
0
 10
133.626417
 20
265.798603
 30
0.0
 11
133.600034
 21
265.738222
 31
0.0
  0
LINE
  8
0
 10
133.765453
 20
265.803453
 30
0.0
 11
133.728749
 21
265.761178
 31
0.0
  0
LINE
  8
0
 10
133.728749
 20
265.761178
 30
0.0
 11
133.702367
 21
265.700797
 31
0.0
  0
LINE
  8
0
 10
134.22547
 20
265.927113
 30
0.0
 11
134.242107
 21
265.941399
 31
0.0
  0
LINE
  8
0
 10
134.242107
 20
265.941399
 30
0.0
 11
134.258344
 21
265.959184
 31
0.0
  0
LINE
  8
0
 10
133.979575
 20
266.054872
 30
0.0
 11
133.959256
 21
266.055526
 31
0.0
  0
LINE
  8
0
 10
133.959256
 20
266.055526
 30
0.0
 11
133.936631
 21
266.044148
 31
0.0
  0
LINE
  8
0
 10
134.10205
 20
265.997838
 30
0.0
 11
134.075667
 21
266.019004
 31
0.0
  0
LINE
  8
0
 10
134.075667
 20
266.019004
 30
0.0
 11
134.038964
 21
266.006723
 31
0.0
  0
LINE
  8
0
 10
133.904843
 20
265.659672
 30
0.0
 11
133.936489
 21
265.69847
 31
0.0
  0
LINE
  8
0
 10
133.936489
 20
265.69847
 30
0.0
 11
133.956047
 21
265.753006
 31
0.0
  0
LINE
  8
0
 10
133.956047
 20
265.753006
 30
0.0
 11
133.956047
 21
265.80245
 31
0.0
  0
LINE
  8
0
 10
133.956047
 20
265.80245
 30
0.0
 11
133.936489
 21
265.827915
 31
0.0
  0
LINE
  8
0
 10
133.936489
 20
265.827915
 30
0.0
 11
133.904843
 21
265.819675
 31
0.0
  0
LINE
  8
0
 10
133.898543
 20
265.79173
 30
0.0
 11
133.897897
 21
265.802522
 31
0.0
  0
LINE
  8
0
 10
133.897897
 20
265.802522
 30
0.0
 11
133.896621
 21
265.808504
 31
0.0
  0
LINE
  8
0
 10
134.123138
 20
265.964538
 30
0.0
 11
134.139774
 21
265.978823
 31
0.0
  0
LINE
  8
0
 10
134.139774
 20
265.978823
 30
0.0
 11
134.156012
 21
265.996608
 31
0.0
  0
LINE
  8
0
 10
134.130841
 20
265.940441
 30
0.0
 11
134.170415
 21
265.908692
 31
0.0
  0
LINE
  8
0
 10
134.170415
 20
265.908692
 30
0.0
 11
134.22547
 21
265.927113
 31
0.0
  0
LINE
  8
0
 10
134.119912
 20
265.962212
 30
0.0
 11
134.121525
 21
265.963357
 31
0.0
  0
LINE
  8
0
 10
134.121525
 20
265.963357
 30
0.0
 11
134.123138
 21
265.964538
 31
0.0
  0
LINE
  8
0
 10
133.852653
 20
268.895712
 30
0.0
 11
133.874727
 21
268.919127
 31
0.0
  0
LINE
  8
0
 10
133.874727
 20
268.919127
 30
0.0
 11
133.892131
 21
268.95659
 31
0.0
  0
LINE
  8
0
 10
133.892131
 20
268.95659
 30
0.0
 11
133.898543
 21
268.995702
 31
0.0
  0
LINE
  8
0
 10
133.855293
 20
268.884228
 30
0.0
 11
133.88505
 21
268.920659
 31
0.0
  0
LINE
  8
0
 10
133.88505
 20
268.920659
 30
0.0
 11
133.904669
 21
268.974583
 31
0.0
  0
LINE
  8
0
 10
133.904669
 20
268.974583
 30
0.0
 11
133.905184
 21
269.023928
 31
0.0
  0
LINE
  8
0
 10
133.904843
 20
269.023647
 30
0.0
 11
133.866773
 21
268.971922
 31
0.0
  0
LINE
  8
0
 10
133.866773
 20
268.971922
 30
0.0
 11
133.851004
 21
268.903633
 31
0.0
  0
LINE
  8
0
 10
133.851004
 20
268.903633
 30
0.0
 11
133.858217
 21
268.868993
 31
0.0
  0
LINE
  8
0
 10
133.858217
 20
268.868993
 30
0.0
 11
133.877924
 21
268.854356
 31
0.0
  0
LINE
  8
0
 10
133.877924
 20
268.854356
 30
0.0
 11
133.904843
 21
268.863644
 31
0.0
  0
LINE
  8
0
 10
133.546073
 20
268.73104
 30
0.0
 11
133.077361
 21
267.957765
 31
0.0
  0
LINE
  8
0
 10
133.077361
 20
267.957765
 30
0.0
 11
132.791391
 21
267.048758
 31
0.0
  0
LINE
  8
0
 10
132.825429
 20
266.624861
 30
0.0
 11
132.787359
 21
266.573136
 31
0.0
  0
LINE
  8
0
 10
132.787359
 20
266.573136
 30
0.0
 11
132.77159
 21
266.504847
 31
0.0
  0
LINE
  8
0
 10
132.425943
 20
266.64445
 30
0.0
 11
132.474497
 21
266.761568
 31
0.0
  0
LINE
  8
0
 10
132.474497
 20
266.761568
 30
0.0
 11
132.4771
 21
266.871932
 31
0.0
  0
LINE
  8
0
 10
132.791391
 20
267.048758
 30
0.0
 11
132.793994
 21
266.942264
 31
0.0
  0
LINE
  8
0
 10
132.793994
 20
266.942264
 30
0.0
 11
132.842549
 21
266.897316
 31
0.0
  0
LINE
  8
0
 10
132.819129
 20
266.596916
 30
0.0
 11
132.818483
 21
266.607708
 31
0.0
  0
LINE
  8
0
 10
132.818483
 20
266.607708
 30
0.0
 11
132.817207
 21
266.61369
 31
0.0
  0
LINE
  8
0
 10
132.933107
 20
266.828095
 30
0.0
 11
132.923015
 21
266.875133
 31
0.0
  0
LINE
  8
0
 10
132.923015
 20
266.875133
 30
0.0
 11
132.895575
 21
266.893943
 31
0.0
  0
LINE
  8
0
 10
133.673576
 20
268.749782
 30
0.0
 11
133.634002
 21
268.781532
 31
0.0
  0
LINE
  8
0
 10
133.634002
 20
268.781532
 30
0.0
 11
133.578947
 21
268.763111
 31
0.0
  0
LINE
  8
0
 10
133.600034
 20
268.729811
 30
0.0
 11
133.608844
 21
268.717445
 31
0.0
  0
LINE
  8
0
 10
133.608844
 20
268.717445
 30
0.0
 11
133.620177
 21
268.710201
 31
0.0
  0
LINE
  8
0
 10
133.578947
 20
268.763111
 30
0.0
 11
133.56231
 21
268.748825
 31
0.0
  0
LINE
  8
0
 10
133.56231
 20
268.748825
 30
0.0
 11
133.546073
 21
268.73104
 31
0.0
  0
LINE
  8
0
 10
133.702367
 20
268.692386
 30
0.0
 11
133.728749
 21
268.671219
 31
0.0
  0
LINE
  8
0
 10
133.728749
 20
268.671219
 30
0.0
 11
133.765453
 21
268.6835
 31
0.0
  0
LINE
  8
0
 10
134.321015
 20
268.498146
 30
0.0
 11
134.292634
 21
268.46963
 31
0.0
  0
LINE
  8
0
 10
134.292634
 20
268.46963
 30
0.0
 11
134.26821
 21
268.429133
 31
0.0
  0
LINE
  8
0
 10
134.26821
 20
268.429133
 30
0.0
 11
134.250468
 21
268.377467
 31
0.0
  0
LINE
  8
0
 10
134.250468
 20
268.377467
 30
0.0
 11
134.245195
 21
268.333024
 31
0.0
  0
LINE
  8
0
 10
134.245195
 20
268.333024
 30
0.0
 11
134.250399
 21
268.293817
 31
0.0
  0
LINE
  8
0
 10
134.250399
 20
268.293817
 30
0.0
 11
134.265821
 21
268.264162
 31
0.0
  0
LINE
  8
0
 10
134.265821
 20
268.264162
 30
0.0
 11
134.286518
 21
268.248107
 31
0.0
  0
LINE
  8
0
 10
134.25639
 20
268.319547
 30
0.0
 11
134.259816
 21
268.356779
 31
0.0
  0
LINE
  8
0
 10
134.259816
 20
268.356779
 30
0.0
 11
134.27035
 21
268.397583
 31
0.0
  0
LINE
  8
0
 10
134.27035
 20
268.397583
 30
0.0
 11
134.287043
 21
268.436784
 31
0.0
  0
LINE
  8
0
 10
134.287043
 20
268.436784
 30
0.0
 11
134.308363
 21
268.470782
 31
0.0
  0
LINE
  8
0
 10
134.308363
 20
268.470782
 30
0.0
 11
134.332361
 21
268.496467
 31
0.0
  0
LINE
  8
0
 10
134.332361
 20
268.496467
 30
0.0
 11
134.337626
 21
268.500634
 31
0.0
  0
LINE
  8
0
 10
134.806509
 20
268.427609
 30
0.0
 11
134.77907
 21
268.368013
 31
0.0
  0
LINE
  8
0
 10
134.77907
 20
268.368013
 30
0.0
 11
134.768977
 21
268.305973
 31
0.0
  0
LINE
  8
0
 10
134.908842
 20
268.390184
 30
0.0
 11
134.881402
 21
268.330588
 31
0.0
  0
LINE
  8
0
 10
134.881402
 20
268.330588
 30
0.0
 11
134.871309
 21
268.268549
 31
0.0
  0
LINE
  8
0
 10
134.26458
 20
266.893078
 30
0.0
 11
134.579131
 21
266.779512
 31
0.0
  0
LINE
  8
0
 10
134.579131
 20
266.779512
 30
0.0
 11
134.62214
 21
266.763984
 31
0.0
  0
LINE
  8
0
 10
134.252128
 20
266.90654
 30
0.0
 11
134.252128
 21
267.58535
 31
0.0
  0
LINE
  8
0
 10
134.252128
 20
267.58535
 30
0.0
 11
134.252128
 21
268.258361
 31
0.0
  0
LINE
  8
0
 10
134.26458
 20
266.893078
 30
0.0
 11
134.26458
 21
267.514784
 31
0.0
  0
LINE
  8
0
 10
134.26458
 20
267.514784
 30
0.0
 11
134.26458
 21
268.25062
 31
0.0
  0
LINE
  8
0
 10
134.227586
 20
266.805604
 30
0.0
 11
134.235166
 21
266.823404
 31
0.0
  0
LINE
  8
0
 10
134.235166
 20
266.823404
 30
0.0
 11
134.246984
 21
266.862721
 31
0.0
  0
LINE
  8
0
 10
134.246984
 20
266.862721
 30
0.0
 11
134.251064
 21
266.889049
 31
0.0
  0
LINE
  8
0
 10
134.251064
 20
266.889049
 30
0.0
 11
134.252128
 21
266.906536
 31
0.0
  0
LINE
  8
0
 10
134.192806
 20
266.733084
 30
0.0
 11
134.507357
 21
266.619517
 31
0.0
  0
LINE
  8
0
 10
134.507357
 20
266.619517
 30
0.0
 11
134.546109
 21
266.605526
 31
0.0
  0
LINE
  8
0
 10
134.24348
 20
266.802363
 30
0.0
 11
134.192806
 21
266.733084
 31
0.0
  0
LINE
  8
0
 10
134.24348
 20
266.802363
 30
0.0
 11
134.229828
 21
266.805866
 31
0.0
  0
LINE
  8
0
 10
134.229828
 20
266.805866
 30
0.0
 11
134.252594
 21
266.903614
 31
0.0
  0
LINE
  8
0
 10
134.174838
 20
266.730942
 30
0.0
 11
134.175111
 21
266.731149
 31
0.0
  0
LINE
  8
0
 10
134.175111
 20
266.731149
 30
0.0
 11
134.176578
 21
266.732323
 31
0.0
  0
LINE
  8
0
 10
134.176578
 20
266.732323
 30
0.0
 11
134.189495
 21
266.744587
 31
0.0
  0
LINE
  8
0
 10
134.189495
 20
266.744587
 30
0.0
 11
134.209528
 21
266.77072
 31
0.0
  0
LINE
  8
0
 10
134.209528
 20
266.77072
 30
0.0
 11
134.227586
 21
266.805604
 31
0.0
  0
LINE
  8
0
 10
134.227586
 20
266.805604
 30
0.0
 11
134.229828
 21
266.805866
 31
0.0
  0
LINE
  8
0
 10
134.175271
 20
266.731253
 30
0.0
 11
134.17484
 21
266.730943
 31
0.0
  0
LINE
  8
0
 10
134.175271
 20
266.731253
 30
0.0
 11
134.229828
 21
266.805866
 31
0.0
  0
LINE
  8
0
 10
134.192806
 20
266.733084
 30
0.0
 11
134.175271
 21
266.731253
 31
0.0
  0
LINE
  8
0
 10
134.26458
 20
266.893078
 30
0.0
 11
134.24348
 21
266.802363
 31
0.0
  0
LINE
  8
0
 10
134.252594
 20
266.903614
 30
0.0
 11
134.26458
 21
266.893078
 31
0.0
  0
LINE
  8
0
 10
134.252128
 20
266.906536
 30
0.0
 11
134.252594
 21
266.903614
 31
0.0
  0
LINE
  8
0
 10
134.286515
 20
268.248109
 30
0.0
 11
134.282793
 21
268.250103
 31
0.0
  0
LINE
  8
0
 10
134.282793
 20
268.250103
 30
0.0
 11
134.267379
 21
268.267085
 31
0.0
  0
LINE
  8
0
 10
134.267379
 20
268.267085
 30
0.0
 11
134.258393
 21
268.294391
 31
0.0
  0
LINE
  8
0
 10
134.258393
 20
268.294391
 30
0.0
 11
134.25639
 21
268.319547
 31
0.0
  0
LINE
  8
0
 10
134.258008
 20
268.266589
 30
0.0
 11
134.262003
 21
268.269106
 31
0.0
  0
LINE
  8
0
 10
134.26458
 20
268.25062
 30
0.0
 11
134.25671
 21
268.252568
 31
0.0
  0
LINE
  8
0
 10
134.25671
 20
268.252568
 30
0.0
 11
134.252634
 21
268.256173
 31
0.0
  0
LINE
  8
0
 10
134.252634
 20
268.256173
 30
0.0
 11
134.252713
 21
268.260886
 31
0.0
  0
LINE
  8
0
 10
134.252713
 20
268.260886
 30
0.0
 11
134.257387
 21
268.266128
 31
0.0
  0
LINE
  8
0
 10
134.94899
 20
267.995121
 30
0.0
 11
134.971064
 21
268.018536
 31
0.0
  0
LINE
  8
0
 10
134.971064
 20
268.018536
 30
0.0
 11
134.988468
 21
268.055999
 31
0.0
  0
LINE
  8
0
 10
134.988468
 20
268.055999
 30
0.0
 11
134.99488
 21
268.095111
 31
0.0
  0
LINE
  8
0
 10
134.95163
 20
267.983637
 30
0.0
 11
134.981387
 21
268.020068
 31
0.0
  0
LINE
  8
0
 10
134.981387
 20
268.020068
 30
0.0
 11
135.001006
 21
268.073992
 31
0.0
  0
LINE
  8
0
 10
135.001006
 20
268.073992
 30
0.0
 11
135.001521
 21
268.123337
 31
0.0
  0
LINE
  8
0
 10
135.00118
 20
268.123056
 30
0.0
 11
134.96311
 21
268.071331
 31
0.0
  0
LINE
  8
0
 10
134.96311
 20
268.071331
 30
0.0
 11
134.947341
 21
268.003042
 31
0.0
  0
LINE
  8
0
 10
134.947341
 20
268.003042
 30
0.0
 11
134.954554
 21
267.968402
 31
0.0
  0
LINE
  8
0
 10
134.954554
 20
267.968402
 30
0.0
 11
134.974261
 21
267.953765
 31
0.0
  0
LINE
  8
0
 10
134.974261
 20
267.953765
 30
0.0
 11
135.00118
 21
267.963053
 31
0.0
  0
LINE
  8
0
 10
135.013025
 20
267.641465
 30
0.0
 11
135.010422
 21
267.74796
 31
0.0
  0
LINE
  8
0
 10
135.010422
 20
267.74796
 30
0.0
 11
134.961868
 21
267.792907
 31
0.0
  0
LINE
  8
0
 10
134.768977
 20
267.899553
 30
0.0
 11
134.776595
 21
267.857395
 31
0.0
  0
LINE
  8
0
 10
134.776595
 20
267.857395
 30
0.0
 11
134.797832
 21
267.835507
 31
0.0
  0
LINE
  8
0
 10
134.871309
 20
267.862129
 30
0.0
 11
134.881402
 21
267.81509
 31
0.0
  0
LINE
  8
0
 10
134.881402
 20
267.81509
 30
0.0
 11
134.908842
 21
267.79628
 31
0.0
  0
LINE
  8
0
 10
134.910693
 20
267.67889
 30
0.0
 11
134.915416
 21
267.745339
 31
0.0
  0
LINE
  8
0
 10
134.915416
 20
267.745339
 30
0.0
 11
134.903335
 21
267.797093
 31
0.0
  0
LINE
  8
0
 10
135.00118
 20
267.963053
 30
0.0
 11
135.032826
 21
268.001851
 31
0.0
  0
LINE
  8
0
 10
135.032826
 20
268.001851
 30
0.0
 11
135.052384
 21
268.056387
 31
0.0
  0
LINE
  8
0
 10
135.052384
 20
268.056387
 30
0.0
 11
135.052384
 21
268.105831
 31
0.0
  0
LINE
  8
0
 10
135.052384
 20
268.105831
 30
0.0
 11
135.032826
 21
268.131296
 31
0.0
  0
LINE
  8
0
 10
135.032826
 20
268.131296
 30
0.0
 11
135.00118
 21
268.123056
 31
0.0
  0
LINE
  8
0
 10
134.99488
 20
268.095111
 30
0.0
 11
134.994234
 21
268.105903
 31
0.0
  0
LINE
  8
0
 10
134.994234
 20
268.105903
 30
0.0
 11
134.992958
 21
268.111885
 31
0.0
  0
LINE
  8
0
 10
134.826787
 20
268.459032
 30
0.0
 11
134.640548
 21
268.51596
 31
0.0
  0
LINE
  8
0
 10
134.640548
 20
268.51596
 30
0.0
 11
134.391326
 21
268.59214
 31
0.0
  0
LINE
  8
0
 10
134.391326
 20
268.59214
 30
0.0
 11
134.390929
 21
268.592261
 31
0.0
  0
LINE
  8
0
 10
134.783591
 20
268.38123
 30
0.0
 11
134.607337
 21
268.435106
 31
0.0
  0
LINE
  8
0
 10
134.607337
 20
268.435106
 30
0.0
 11
134.358115
 21
268.511286
 31
0.0
  0
LINE
  8
0
 10
134.358115
 20
268.511286
 30
0.0
 11
134.353753
 21
268.512619
 31
0.0
  0
LINE
  8
0
 10
134.910693
 20
268.737281
 30
0.0
 11
134.767851
 21
269.069238
 31
0.0
  0
LINE
  8
0
 10
134.767851
 20
269.069238
 30
0.0
 11
134.53388
 21
269.215369
 31
0.0
  0
LINE
  8
0
 10
135.013025
 20
268.699856
 30
0.0
 11
134.727056
 21
269.183803
 31
0.0
  0
LINE
  8
0
 10
134.727056
 20
269.183803
 30
0.0
 11
134.258344
 21
269.260393
 31
0.0
  0
LINE
  8
0
 10
134.26458
 20
269.262028
 30
0.0
 11
134.26458
 21
268.681373
 31
0.0
  0
LINE
  8
0
 10
134.257387
 20
269.260131
 30
0.0
 11
134.257387
 21
268.710922
 31
0.0
  0
LINE
  8
0
 10
134.22547
 20
269.243601
 30
0.0
 11
134.170415
 21
269.180189
 31
0.0
  0
LINE
  8
0
 10
134.170415
 20
269.180189
 30
0.0
 11
134.130841
 21
269.089617
 31
0.0
  0
LINE
  8
0
 10
134.038964
 20
268.886771
 30
0.0
 11
134.075667
 21
268.929045
 31
0.0
  0
LINE
  8
0
 10
134.075667
 20
268.929045
 30
0.0
 11
134.10205
 21
268.989427
 31
0.0
  0
LINE
  8
0
 10
133.898543
 20
268.995702
 30
0.0
 11
133.897897
 21
269.006494
 31
0.0
  0
LINE
  8
0
 10
133.897897
 20
269.006494
 30
0.0
 11
133.896621
 21
269.012476
 31
0.0
  0
LINE
  8
0
 10
133.904843
 20
268.863644
 30
0.0
 11
133.936489
 21
268.902442
 31
0.0
  0
LINE
  8
0
 10
133.936489
 20
268.902442
 30
0.0
 11
133.956047
 21
268.956978
 31
0.0
  0
LINE
  8
0
 10
133.956047
 20
268.956978
 30
0.0
 11
133.956047
 21
269.006422
 31
0.0
  0
LINE
  8
0
 10
133.956047
 20
269.006422
 30
0.0
 11
133.936489
 21
269.031887
 31
0.0
  0
LINE
  8
0
 10
133.936489
 20
269.031887
 30
0.0
 11
133.904843
 21
269.023647
 31
0.0
  0
LINE
  8
0
 10
134.337218
 20
268.510189
 30
0.0
 11
134.338501
 21
268.511205
 31
0.0
  0
LINE
  8
0
 10
134.338501
 20
268.511205
 30
0.0
 11
134.348474
 21
268.521379
 31
0.0
  0
LINE
  8
0
 10
134.348474
 20
268.521379
 30
0.0
 11
134.35732
 21
268.534337
 31
0.0
  0
LINE
  8
0
 10
134.35732
 20
268.534337
 30
0.0
 11
134.364966
 21
268.549766
 31
0.0
  0
LINE
  8
0
 10
134.337218
 20
268.510189
 30
0.0
 11
134.36694
 21
268.550105
 31
0.0
  0
LINE
  8
0
 10
134.380248
 20
268.546921
 30
0.0
 11
134.36694
 21
268.550105
 31
0.0
  0
LINE
  8
0
 10
134.390929
 20
268.592261
 30
0.0
 11
134.380248
 21
268.546921
 31
0.0
  0
LINE
  8
0
 10
134.326391
 20
268.502142
 30
0.0
 11
134.331766
 21
268.506137
 31
0.0
  0
LINE
  8
0
 10
134.331766
 20
268.506137
 30
0.0
 11
134.337142
 21
268.510133
 31
0.0
  0
LINE
  8
0
 10
134.343002
 20
268.504629
 30
0.0
 11
134.32639
 21
268.502142
 31
0.0
  0
LINE
  8
0
 10
134.321015
 20
268.498146
 30
0.0
 11
134.337626
 21
268.500634
 31
0.0
  0
LINE
  8
0
 10
134.32639
 20
268.502142
 30
0.0
 11
134.323702
 21
268.500144
 31
0.0
  0
LINE
  8
0
 10
134.323702
 20
268.500144
 30
0.0
 11
134.321013
 21
268.498145
 31
0.0
  0
LINE
  8
0
 10
134.337142
 20
268.510133
 30
0.0
 11
134.337218
 21
268.510189
 31
0.0
  0
LINE
  8
0
 10
134.353753
 20
268.512619
 30
0.0
 11
134.337142
 21
268.510133
 31
0.0
  0
LINE
  8
0
 10
134.380248
 20
268.546921
 30
0.0
 11
134.353753
 21
268.512619
 31
0.0
  0
LINE
  8
0
 10
134.337626
 20
268.500634
 30
0.0
 11
134.343002
 21
268.504629
 31
0.0
  0
LINE
  8
0
 10
134.343002
 20
268.504629
 30
0.0
 11
134.353753
 21
268.512619
 31
0.0
  0
LINE
  8
0
 10
134.26458
 20
268.681373
 30
0.0
 11
134.25671
 21
268.68857
 31
0.0
  0
LINE
  8
0
 10
134.25671
 20
268.68857
 30
0.0
 11
134.252634
 21
268.696643
 31
0.0
  0
LINE
  8
0
 10
134.252634
 20
268.696643
 30
0.0
 11
134.252713
 21
268.70449
 31
0.0
  0
LINE
  8
0
 10
134.252713
 20
268.70449
 30
0.0
 11
134.257387
 21
268.710922
 31
0.0
  0
LINE
  8
0
 10
134.378477
 20
268.605723
 30
0.0
 11
134.378477
 21
268.605945
 31
0.0
  0
LINE
  8
0
 10
134.364966
 20
268.549766
 30
0.0
 11
134.370344
 21
268.562655
 31
0.0
  0
LINE
  8
0
 10
134.370344
 20
268.562655
 30
0.0
 11
134.375961
 21
268.582569
 31
0.0
  0
LINE
  8
0
 10
134.375961
 20
268.582569
 30
0.0
 11
134.377997
 21
268.596658
 31
0.0
  0
LINE
  8
0
 10
134.377997
 20
268.596658
 30
0.0
 11
134.378477
 21
268.605716
 31
0.0
  0
LINE
  8
0
 10
134.364966
 20
268.549765
 30
0.0
 11
134.36694
 21
268.550105
 31
0.0
  0
LINE
  8
0
 10
134.378477
 20
268.605723
 30
0.0
 11
134.378942
 21
268.602797
 31
0.0
  0
LINE
  8
0
 10
134.390929
 20
268.592261
 30
0.0
 11
134.390929
 21
268.5977
 31
0.0
  0
LINE
  8
0
 10
134.36694
 20
268.550105
 30
0.0
 11
134.378942
 21
268.602797
 31
0.0
  0
LINE
  8
0
 10
134.378942
 20
268.602797
 30
0.0
 11
134.390929
 21
268.592261
 31
0.0
  0
LINE
  8
0
 10
134.258344
 20
269.260393
 30
0.0
 11
134.242107
 21
269.254044
 31
0.0
  0
LINE
  8
0
 10
134.242107
 20
269.254044
 30
0.0
 11
134.22547
 21
269.243601
 31
0.0
  0
LINE
  8
0
 10
134.961868
 20
268.472374
 30
0.0
 11
135.010422
 21
268.589492
 31
0.0
  0
LINE
  8
0
 10
135.010422
 20
268.589492
 30
0.0
 11
135.013025
 21
268.699856
 31
0.0
  0
LINE
  8
0
 10
134.859535
 20
268.509799
 30
0.0
 11
134.90809
 21
268.626917
 31
0.0
  0
LINE
  8
0
 10
134.90809
 20
268.626917
 30
0.0
 11
134.910693
 21
268.737281
 31
0.0
  0
LINE
  8
0
 10
135.060087
 20
271.024957
 30
0.0
 11
135.066079
 21
271.010709
 31
0.0
  0
LINE
  8
0
 10
135.066079
 20
271.010709
 30
0.0
 11
135.074489
 21
270.997425
 31
0.0
  0
LINE
  8
0
 10
137.0858
 20
267.339115
 30
0.0
 11
137.084726
 21
267.343792
 31
0.0
  0
LINE
  8
0
 10
137.084726
 20
267.343792
 30
0.0
 11
137.075102
 21
267.352296
 31
0.0
  0
LINE
  8
0
 10
137.060716
 20
272.241937
 30
0.0
 11
137.085588
 21
272.204999
 31
0.0
  0
LINE
  8
0
 10
137.085588
 20
272.204999
 30
0.0
 11
137.075102
 21
272.143554
 31
0.0
  0
ENDSEC
  0
EOF
