  0
SECTION
  2
HEADER
  9
$ACADVER
  1
AC1009
  9
$INSBASE
 10
0.0
 20
0.0
 30
0.0
  9
$EXTMIN
 10
108.102251
 20
251.829519
 30
0.0
  9
$EXTMAX
 10
117.438806
 20
263.472563
 30
0.0
  9
$LIMMIN
 10
108.102251
 20
251.829519
  9
$LIMMAX
 10
117.438806
 20
263.472563
  9
$ORTHOMODE
 70
     0
  9
$REGENMODE
 70
     1
  9
$FILLMODE
 70
     1
  9
$QTEXTMODE
 70
     0
  9
$MIRRTEXT
 70
     1
  9
$DRAGMODE
 70
     2
  9
$LTSCALE
 40
1.0
  9
$OSMODE
 70
     0
  9
$ATTMODE
 70
     1
  9
$TEXTSIZE
 40
3.5
  9
$TRACEWID
 40
0.5
  9
$TEXTSTYLE
  7
STANDARD
  9
$CLAYER
  8
0
  9
$CELTYPE
  6
BYLAYER
  9
$CECOLOR
 62
   256
  9
$DIMSCALE
 40
1.0
  9
$DIMASZ
 40
0.18
  9
$DIMEXO
 40
0.0625
  9
$DIMDLI
 40
0.38
  9
$DIMRND
 40
0.0
  9
$DIMDLE
 40
0.0
  9
$DIMEXE
 40
0.18
  9
$DIMTP
 40
0.0
  9
$DIMTM
 40
0.0
  9
$DIMTXT
 40
0.18
  9
$DIMCEN
 40
0.09
  9
$DIMTSZ
 40
0.0
  9
$DIMTOL
 70
     0
  9
$DIMLIM
 70
     0
  9
$DIMTIH
 70
     1
  9
$DIMTOH
 70
     1
  9
$DIMSE1
 70
     0
  9
$DIMSE2
 70
     0
  9
$DIMTAD
 70
     0
  9
$DIMZIN
 70
     0
  9
$DIMBLK
  1

  9
$DIMASO
 70
     1
  9
$DIMSHO
 70
     1
  9
$DIMPOST
  1

  9
$DIMAPOST
  1

  9
$DIMALT
 70
     0
  9
$DIMALTD
 70
     2
  9
$DIMALTF
 40
25.4
  9
$DIMLFAC
 40
1.0
  9
$DIMTOFL
 70
     0
  9
$DIMTVP
 40
0.0
  9
$DIMTIX
 70
     0
  9
$DIMSOXD
 70
     0
  9
$DIMSAH
 70
     0
  9
$DIMBLK1
  1

  9
$DIMBLK2
  1

  9
$DIMSTYLE
  2
*UNNAMED
  9
$DIMCLRD
 70
     0
  9
$DIMCLRE
 70
     0
  9
$DIMCLRT
 70
     0
  9
$DIMTFAC
 40
1.0
  9
$DIMGAP
 40
0.09
  9
$LUNITS
 70
     2
  9
$LUPREC
 70
     4
  9
$SKETCHINC
 40
0.1
  9
$FILLETRAD
 40
2.0
  9
$AUNITS
 70
     0
  9
$AUPREC
 70
     0
  9
$MENU
  1
ACAD
  9
$ELEVATION
 40
0.0
  9
$PELEVATION
 40
0.0
  9
$THICKNESS
 40
0.0
  9
$LIMCHECK
 70
     0
  9
$BLIPMODE
 70
     1
  9
$CHAMFERA
 40
0.0
  9
$CHAMFERB
 40
0.0
  9
$SKPOLY
 70
     0
  9
$TDCREATE
 40
2450948.652821875
  9
$TDUPDATE
 40
2450948.652821875
  9
$TDINDWG
 40
0.0000000000
  9
$TDUSRTIMER
 40
0.0000000000
  9
$USRTIMER
 70
     1
  9
$ANGBASE
 50
0.0
  9
$ANGDIR
 70
     0
  9
$PDMODE
 70
     0
  9
$PDSIZE
 40
0.0
  9
$PLINEWID
 40
0.0
  9
$COORDS
 70
     2
  9
$SPLFRAME
 70
     0
  9
$SPLINETYPE
 70
     6
  9
$SPLINESEGS
 70
     8
  9
$ATTDIA
 70
     0
  9
$ATTREQ
 70
     1
  9
$HANDLING
 70
     0
  9
$HANDSEED
  5
0
  9
$SURFTAB1
 70
     6
  9
$SURFTAB2
 70
     6
  9
$SURFTYPE
 70
     6
  9
$SURFU
 70
     6
  9
$SURFV
 70
     6
  9
$UCSNAME
  2

  9
$UCSORG
 10
0.0
 20
0.0
 30
0.0
  9
$UCSXDIR
 10
1.0
 20
0.0
 30
0.0
  9
$UCSYDIR
 10
0.0
 20
1.0
 30
0.0
  9
$PUCSNAME
  2

  9
$PUCSORG
 10
0.0
 20
0.0
 30
0.0
  9
$PUCSXDIR
 10
1.0
 20
0.0
 30
0.0
  9
$PUCSYDIR
 10
0.0
 20
1.0
 30
0.0
  9
$USERI1
 70
     0
  9
$USERI2
 70
     0
  9
$USERI3
 70
     0
  9
$USERI4
 70
     0
  9
$USERI5
 70
     0
  9
$USERR1
 40
0.0
  9
$USERR2
 40
0.0
  9
$USERR3
 40
0.0
  9
$USERR4
 40
0.0
  9
$USERR5
 40
0.0
  9
$WORLDVIEW
 70
     1
  9
$SHADEDGE
 70
     3
  9
$SHADEDIF
 70
    70
  9
$TILEMODE
 70
     1
  9
$MAXACTVP
 70
    16
  9
$PINSBASE
 10
0.0
 20
0.0
 30
0.0
  9
$PLIMCHECK
 70
     0
  9
$PEXTMIN
 10
1.000000E+20
 20
1.000000E+20
 30
1.000000E+20
  9
$PEXTMAX
 10
-1.000000E+20
 20
-1.000000E+20
 30
-1.000000E+20
  9
$PLIMMIN
 10
0.0
 20
0.0
  9
$PLIMMAX
 10
420.0
 20
297.0
  9
$UNITMODE
 70
     0
  9
$VISRETAIN
 70
     0
  9
$PLINEGEN
 70
     0
  9
$PSLTSCALE
 70
     1
  9
$TREEDEPTH
 70
  3020
  9
$DWGCODEPAGE
  3
iso8859-1
  0
ENDSEC
  0
SECTION
  2
TABLES
  0
TABLE
  2
VPORT
 70
     2
  0
VPORT
  2
*ACTIVE
 70
     0
 10
0.0
 20
0.0
 11
1.0
 21
1.0
 12
119.36536
 22
256.854984
 13
0.0
 23
0.0
 14
1.0
 24
1.0
 15
0.0
 25
0.0
 16
0.0
 26
0.0
 36
1.0
 17
0.0
 27
0.0
 37
0.0
 40
17.567167
 41
1.748359
 42
50.0
 43
0.0
 44
0.0
 50
0.0
 51
0.0
 71
     0
 72
   100
 73
     1
 74
     0
 75
     0
 76
     0
 77
     0
 78
     0
  0
ENDTAB
  0
TABLE
  2
LTYPE
 70
     1
  0
LTYPE
  2
CONTINUOUS
 70
    64
  3
Solid line
 72
    65
 73
     0
 40
0.0
  0
ENDTAB
  0
TABLE
  2
LAYER
 70
     1
  0
LAYER
  2
0
 70
    64
 62
     7
  6
CONTINUOUS
  0
ENDTAB
  0
TABLE
  2
STYLE
 70
     1
  0
STYLE
  2
STANDARD
 70
     0
 40
0.0
 41
1.0
 50
0.0
 71
     0
 42
3.5
  3
txt
  4

  0
ENDTAB
  0
TABLE
  2
VIEW
 70
     0
  0
ENDTAB
  0
TABLE
  2
UCS
 70
     0
  0
ENDTAB
  0
TABLE
  2
APPID
 70
     1
  0
APPID
  2
ACAD
 70
    64
  0
ENDTAB
  0
TABLE
  2
DIMSTYLE
 70
     0
  0
ENDTAB
  0
ENDSEC
  0
SECTION
  2
BLOCKS
  0
ENDSEC
  0
SECTION
  2
ENTITIES
  0
LINE
  8
0
 10
114.059691
 20
258.344344
 30
0.0
 11
114.072426
 21
258.342261
 31
0.0
  0
LINE
  8
0
 10
114.078726
 20
258.210203
 30
0.0
 11
114.029176
 21
258.230787
 31
0.0
  0
LINE
  8
0
 10
112.963354
 20
256.040962
 30
0.0
 11
112.976089
 21
256.03888
 31
0.0
  0
LINE
  8
0
 10
112.982389
 20
255.906822
 30
0.0
 11
112.932839
 21
255.927405
 31
0.0
  0
LINE
  8
0
 10
112.963354
 20
259.244935
 30
0.0
 11
112.976089
 21
259.242852
 31
0.0
  0
LINE
  8
0
 10
112.982389
 20
259.110794
 30
0.0
 11
112.932839
 21
259.131378
 31
0.0
  0
LINE
  8
0
 10
113.364064
 20
258.495257
 30
0.0
 11
113.84652
 21
258.273573
 31
0.0
  0
LINE
  8
0
 10
108.493568
 20
251.841409
 30
0.0
 11
117.43817
 21
258.488954
 31
0.0
  0
LINE
  8
0
 10
117.438806
 20
258.490219
 30
0.0
 11
117.438806
 21
263.342735
 31
0.0
  0
LINE
  8
0
 10
112.910839
 20
256.214495
 30
0.0
 11
112.384383
 21
256.360478
 31
0.0
  0
LINE
  8
0
 10
113.159443
 20
256.2646
 30
0.0
 11
113.057111
 21
256.302025
 31
0.0
  0
LINE
  8
0
 10
112.697733
 20
258.957348
 30
0.0
 11
112.800065
 21
258.919923
 31
0.0
  0
LINE
  8
0
 10
113.875375
 20
258.082658
 30
0.0
 11
113.977707
 21
258.045233
 31
0.0
  0
LINE
  8
0
 10
108.183506
 20
253.298077
 30
0.0
 11
108.237801
 21
253.338429
 31
0.0
  0
LINE
  8
0
 10
108.183506
 20
252.978072
 30
0.0
 11
108.183506
 21
253.298077
 31
0.0
  0
LINE
  8
0
 10
108.183506
 20
253.298077
 30
0.0
 11
108.122106
 21
253.314933
 31
0.0
  0
LINE
  8
0
 10
108.122106
 20
253.314933
 30
0.0
 11
108.102251
 21
253.36787
 31
0.0
  0
LINE
  8
0
 10
108.122106
 20
253.006126
 30
0.0
 11
108.122106
 21
253.314933
 31
0.0
  0
LINE
  8
0
 10
108.102251
 20
253.36787
 30
0.0
 11
108.179649
 21
253.425392
 31
0.0
  0
LINE
  8
0
 10
108.102251
 20
253.071196
 30
0.0
 11
108.102251
 21
253.36787
 31
0.0
  0
LINE
  8
0
 10
108.122106
 20
253.006126
 30
0.0
 11
108.102251
 21
253.071196
 31
0.0
  0
LINE
  8
0
 10
108.183506
 20
252.978072
 30
0.0
 11
108.122106
 21
253.006126
 31
0.0
  0
LINE
  8
0
 10
108.183506
 20
252.978072
 30
0.0
 11
108.237801
 21
253.018424
 31
0.0
  0
LINE
  8
0
 10
108.102251
 20
255.714576
 30
0.0
 11
108.102251
 21
255.429747
 31
0.0
  0
LINE
  8
0
 10
108.102251
 20
255.429747
 30
0.0
 11
108.122106
 21
255.358517
 31
0.0
  0
LINE
  8
0
 10
108.102251
 20
255.714576
 30
0.0
 11
108.122106
 21
255.661638
 31
0.0
  0
LINE
  8
0
 10
108.179649
 20
255.772097
 30
0.0
 11
108.102251
 21
255.714576
 31
0.0
  0
LINE
  8
0
 10
113.303016
 20
256.174263
 30
0.0
 11
113.200684
 21
256.211688
 31
0.0
  0
LINE
  8
0
 10
112.751122
 20
255.847756
 30
0.0
 11
112.64879
 21
255.885181
 31
0.0
  0
LINE
  8
0
 10
112.656493
 20
255.693773
 30
0.0
 11
112.55416
 21
255.731198
 31
0.0
  0
LINE
  8
0
 10
112.623619
 20
255.67698
 30
0.0
 11
112.521286
 21
255.714405
 31
0.0
  0
LINE
  8
0
 10
112.779913
 20
255.947947
 30
0.0
 11
112.67758
 21
255.985372
 31
0.0
  0
LINE
  8
0
 10
112.842999
 20
256.050603
 30
0.0
 11
112.740667
 21
256.088027
 31
0.0
  0
LINE
  8
0
 10
112.877422
 20
256.189663
 30
0.0
 11
112.740667
 21
256.088027
 31
0.0
  0
LINE
  8
0
 10
112.67758
 20
255.985372
 30
0.0
 11
112.64879
 21
255.885181
 31
0.0
  0
LINE
  8
0
 10
112.066873
 20
256.08582
 30
0.0
 11
112.218832
 21
256.059235
 31
0.0
  0
LINE
  8
0
 10
112.338393
 20
256.347505
 30
0.0
 11
112.877422
 21
256.189663
 31
0.0
  0
LINE
  8
0
 10
112.257157
 20
256.166418
 30
0.0
 11
112.678427
 21
255.988255
 31
0.0
  0
LINE
  8
0
 10
113.11651
 20
256.253873
 30
0.0
 11
113.014177
 21
256.291298
 31
0.0
  0
LINE
  8
0
 10
113.33589
 20
256.206334
 30
0.0
 11
113.233558
 21
256.243758
 31
0.0
  0
LINE
  8
0
 10
114.090571
 20
257.888615
 30
0.0
 11
113.988239
 21
257.92604
 31
0.0
  0
LINE
  8
0
 10
112.877422
 20
256.189663
 30
0.0
 11
113.014177
 21
256.291298
 31
0.0
  0
LINE
  8
0
 10
113.333936
 20
258.566697
 30
0.0
 11
113.846523
 21
258.349913
 31
0.0
  0
LINE
  8
0
 10
113.468475
 20
258.84485
 30
0.0
 11
113.342126
 21
258.928523
 31
0.0
  0
LINE
  8
0
 10
113.415172
 20
258.747784
 30
0.0
 11
113.857584
 21
258.618233
 31
0.0
  0
LINE
  8
0
 10
113.334933
 20
258.513278
 30
0.0
 11
113.335554
 21
258.513739
 31
0.0
  0
LINE
  8
0
 10
113.362976
 20
258.495754
 30
0.0
 11
113.342126
 21
258.49777
 31
0.0
  0
LINE
  8
0
 10
112.779913
 20
258.939536
 30
0.0
 11
112.67758
 21
258.976961
 31
0.0
  0
LINE
  8
0
 10
112.751122
 20
258.996932
 30
0.0
 11
112.679032
 21
259.023297
 31
0.0
  0
LINE
  8
0
 10
114.090571
 20
258.947006
 30
0.0
 11
113.988239
 21
258.984431
 31
0.0
  0
LINE
  8
0
 10
113.948855
 20
258.109279
 30
0.0
 11
113.846523
 21
258.146703
 31
0.0
  0
LINE
  8
0
 10
113.846523
 20
258.146703
 30
0.0
 11
113.846523
 21
258.349913
 31
0.0
  0
LINE
  8
0
 10
113.846523
 20
258.553123
 30
0.0
 11
113.846523
 21
258.349913
 31
0.0
  0
LINE
  8
0
 10
111.88394
 20
256.846149
 30
0.0
 11
111.896675
 21
256.844066
 31
0.0
  0
LINE
  8
0
 10
111.902975
 20
256.712008
 30
0.0
 11
111.853425
 21
256.732592
 31
0.0
  0
LINE
  8
0
 10
113.208387
 20
256.187591
 30
0.0
 11
113.179596
 21
256.244988
 31
0.0
  0
LINE
  8
0
 10
113.986388
 20
258.04343
 30
0.0
 11
114.039414
 21
258.040057
 31
0.0
  0
LINE
  8
0
 10
113.948855
 20
258.109279
 30
0.0
 11
113.948855
 21
258.515699
 31
0.0
  0
LINE
  8
0
 10
113.208387
 20
259.336767
 30
0.0
 11
113.179596
 21
259.236577
 31
0.0
  0
LINE
  8
0
 10
112.842999
 20
258.93065
 30
0.0
 11
113.11651
 21
259.133921
 31
0.0
  0
LINE
  8
0
 10
112.751122
 20
258.996932
 30
0.0
 11
112.779913
 21
258.939536
 31
0.0
  0
LINE
  8
0
 10
111.973121
 20
257.141093
 30
0.0
 11
111.920095
 21
257.144466
 31
0.0
  0
LINE
  8
0
 10
111.973121
 20
256.547189
 30
0.0
 11
111.920095
 21
256.464999
 31
0.0
  0
LINE
  8
0
 10
112.751122
 20
255.847756
 30
0.0
 11
112.779913
 21
255.947947
 31
0.0
  0
LINE
  8
0
 10
112.842999
 20
256.050603
 30
0.0
 11
113.11651
 21
256.253873
 31
0.0
  0
LINE
  8
0
 10
108.532036
 20
251.89113
 30
0.0
 11
108.532036
 21
256.682388
 31
0.0
  0
LINE
  8
0
 10
108.532036
 20
256.682388
 30
0.0
 11
117.427472
 21
263.293393
 31
0.0
  0
LINE
  8
0
 10
117.427472
 20
263.293393
 30
0.0
 11
117.427472
 21
258.502135
 31
0.0
  0
LINE
  8
0
 10
117.427472
 20
258.502135
 30
0.0
 11
108.532036
 21
251.89113
 31
0.0
  0
LINE
  8
0
 10
113.948855
 20
258.515699
 30
0.0
 11
113.846523
 21
258.553123
 31
0.0
  0
LINE
  8
0
 10
113.937081
 20
258.756949
 30
0.0
 11
113.884055
 21
258.674759
 31
0.0
  0
LINE
  8
0
 10
114.039414
 20
258.719524
 30
0.0
 11
113.937081
 21
258.756949
 31
0.0
  0
LINE
  8
0
 10
113.986388
 20
258.637334
 30
0.0
 11
114.039414
 21
258.719524
 31
0.0
  0
LINE
  8
0
 10
113.986388
 20
258.637334
 30
0.0
 11
113.884055
 21
258.674759
 31
0.0
  0
LINE
  8
0
 10
112.67758
 20
258.976961
 30
0.0
 11
112.659683
 21
259.012641
 31
0.0
  0
LINE
  8
0
 10
112.010653
 20
256.668825
 30
0.0
 11
112.010653
 21
257.075245
 31
0.0
  0
LINE
  8
0
 10
108.122106
 20
255.358517
 30
0.0
 11
108.183506
 21
255.324777
 31
0.0
  0
LINE
  8
0
 10
108.122106
 20
255.661638
 30
0.0
 11
108.122106
 21
255.358517
 31
0.0
  0
LINE
  8
0
 10
108.122106
 20
255.661638
 30
0.0
 11
108.183506
 21
255.644783
 31
0.0
  0
LINE
  8
0
 10
116.017073
 20
262.585956
 30
0.0
 11
116.017073
 21
262.666636
 31
0.0
  0
LINE
  8
0
 10
115.412457
 20
262.289804
 30
0.0
 11
115.881307
 21
262.638248
 31
0.0
  0
LINE
  8
0
 10
115.951905
 20
262.686291
 30
0.0
 11
115.881307
 21
262.638248
 31
0.0
  0
LINE
  8
0
 10
115.412457
 20
262.289804
 30
0.0
 11
115.412457
 21
262.174796
 31
0.0
  0
LINE
  8
0
 10
115.474891
 20
262.331778
 30
0.0
 11
115.412457
 21
262.289804
 31
0.0
  0
LINE
  8
0
 10
115.532522
 20
262.225843
 30
0.0
 11
115.532522
 21
262.306523
 31
0.0
  0
LINE
  8
0
 10
113.252172
 20
260.684299
 30
0.0
 11
112.693591
 21
260.269167
 31
0.0
  0
LINE
  8
0
 10
111.939845
 20
259.708991
 30
0.0
 11
112.498426
 21
260.124123
 31
0.0
  0
LINE
  8
0
 10
112.634192
 20
260.152511
 30
0.0
 11
112.634192
 21
260.071831
 31
0.0
  0
LINE
  8
0
 10
112.498426
 20
260.124123
 30
0.0
 11
112.569025
 21
260.172165
 31
0.0
  0
LINE
  8
0
 10
111.939845
 20
259.593983
 30
0.0
 11
111.939845
 21
259.708991
 31
0.0
  0
LINE
  8
0
 10
111.939845
 20
259.708991
 30
0.0
 11
112.002279
 21
259.750965
 31
0.0
  0
LINE
  8
0
 10
112.05991
 20
259.72571
 30
0.0
 11
112.05991
 21
259.64503
 31
0.0
  0
LINE
  8
0
 10
109.77956
 20
258.103487
 30
0.0
 11
109.31071
 21
257.755042
 31
0.0
  0
LINE
  8
0
 10
109.31071
 20
257.640034
 30
0.0
 11
109.31071
 21
257.755042
 31
0.0
  0
LINE
  8
0
 10
109.31071
 20
257.755042
 30
0.0
 11
109.373144
 21
257.797016
 31
0.0
  0
LINE
  8
0
 10
109.373144
 20
257.797016
 30
0.0
 11
109.430775
 21
257.771761
 31
0.0
  0
LINE
  8
0
 10
109.850158
 20
258.151529
 30
0.0
 11
109.373144
 21
257.797016
 31
0.0
  0
LINE
  8
0
 10
109.430775
 20
257.771761
 30
0.0
 11
109.430775
 21
257.691081
 31
0.0
  0
LINE
  8
0
 10
109.430775
 20
257.771761
 30
0.0
 11
109.915325
 21
258.131875
 31
0.0
  0
LINE
  8
0
 10
109.915325
 20
258.131875
 30
0.0
 11
109.915325
 21
258.051195
 31
0.0
  0
LINE
  8
0
 10
109.850158
 20
258.151529
 30
0.0
 11
109.915325
 21
258.131875
 31
0.0
  0
LINE
  8
0
 10
109.77956
 20
258.103487
 30
0.0
 11
109.850158
 21
258.151529
 31
0.0
  0
LINE
  8
0
 10
112.002279
 20
259.750965
 30
0.0
 11
112.05991
 21
259.72571
 31
0.0
  0
LINE
  8
0
 10
112.002279
 20
259.750965
 30
0.0
 11
112.569025
 21
260.172165
 31
0.0
  0
LINE
  8
0
 10
112.569025
 20
260.172165
 30
0.0
 11
112.634192
 21
260.152511
 31
0.0
  0
LINE
  8
0
 10
112.05991
 20
259.72571
 30
0.0
 11
112.634192
 21
260.152511
 31
0.0
  0
LINE
  8
0
 10
112.693591
 20
260.269167
 30
0.0
 11
112.693591
 21
260.154159
 31
0.0
  0
LINE
  8
0
 10
112.756024
 20
260.311142
 30
0.0
 11
112.693591
 21
260.269167
 31
0.0
  0
LINE
  8
0
 10
112.813655
 20
260.205206
 30
0.0
 11
112.813655
 21
260.285886
 31
0.0
  0
LINE
  8
0
 10
113.387937
 20
260.712687
 30
0.0
 11
112.813655
 21
260.285886
 31
0.0
  0
LINE
  8
0
 10
112.813655
 20
260.285886
 30
0.0
 11
112.756024
 21
260.311142
 31
0.0
  0
LINE
  8
0
 10
113.32277
 20
260.732342
 30
0.0
 11
112.756024
 21
260.311142
 31
0.0
  0
LINE
  8
0
 10
113.387937
 20
260.632007
 30
0.0
 11
113.387937
 21
260.712687
 31
0.0
  0
LINE
  8
0
 10
113.387937
 20
260.712687
 30
0.0
 11
113.32277
 21
260.732342
 31
0.0
  0
LINE
  8
0
 10
113.32277
 20
260.732342
 30
0.0
 11
113.252172
 21
260.684299
 31
0.0
  0
LINE
  8
0
 10
116.017073
 20
262.666636
 30
0.0
 11
115.532522
 21
262.306523
 31
0.0
  0
LINE
  8
0
 10
115.532522
 20
262.306523
 30
0.0
 11
115.474891
 21
262.331778
 31
0.0
  0
LINE
  8
0
 10
115.474891
 20
262.331778
 30
0.0
 11
115.951905
 21
262.686291
 31
0.0
  0
LINE
  8
0
 10
116.017073
 20
262.666636
 30
0.0
 11
115.951905
 21
262.686291
 31
0.0
  0
LINE
  8
0
 10
109.430775
 20
257.691081
 30
0.0
 11
109.915325
 21
258.051195
 31
0.0
  0
LINE
  8
0
 10
112.05991
 20
259.64503
 30
0.0
 11
109.915325
 21
258.051195
 31
0.0
  0
LINE
  8
0
 10
112.05991
 20
259.64503
 30
0.0
 11
112.634192
 21
260.071831
 31
0.0
  0
LINE
  8
0
 10
112.634192
 20
260.071831
 30
0.0
 11
112.813655
 21
260.205206
 31
0.0
  0
LINE
  8
0
 10
113.387937
 20
260.632007
 30
0.0
 11
112.813655
 21
260.205206
 31
0.0
  0
LINE
  8
0
 10
113.387937
 20
260.632007
 30
0.0
 11
115.532522
 21
262.225843
 31
0.0
  0
LINE
  8
0
 10
116.017073
 20
262.585956
 30
0.0
 11
115.532522
 21
262.225843
 31
0.0
  0
LINE
  8
0
 10
116.017073
 20
262.585956
 30
0.0
 11
117.210046
 21
263.472563
 31
0.0
  0
LINE
  8
0
 10
117.413086
 20
263.391776
 30
0.0
 11
117.210046
 21
263.472563
 31
0.0
  0
LINE
  8
0
 10
108.445876
 20
256.727429
 30
0.0
 11
117.413086
 21
263.391776
 31
0.0
  0
LINE
  8
0
 10
108.445876
 20
251.829519
 30
0.0
 11
108.237801
 21
251.899084
 31
0.0
  0
LINE
  8
0
 10
108.237801
 20
251.899084
 30
0.0
 11
108.237801
 21
253.018424
 31
0.0
  0
LINE
  8
0
 10
108.237801
 20
253.338429
 30
0.0
 11
108.237801
 21
253.018424
 31
0.0
  0
LINE
  8
0
 10
108.237801
 20
253.338429
 30
0.0
 11
108.237801
 21
255.365129
 31
0.0
  0
LINE
  8
0
 10
108.237801
 20
256.804475
 30
0.0
 11
108.445876
 21
256.727429
 31
0.0
  0
LINE
  8
0
 10
108.445876
 20
251.829519
 30
0.0
 11
108.445876
 21
256.727429
 31
0.0
  0
LINE
  8
0
 10
108.183506
 20
255.324777
 30
0.0
 11
108.237801
 21
255.365129
 31
0.0
  0
LINE
  8
0
 10
108.183506
 20
255.644783
 30
0.0
 11
108.183506
 21
255.324777
 31
0.0
  0
LINE
  8
0
 10
108.183506
 20
255.644783
 30
0.0
 11
108.237801
 21
255.685135
 31
0.0
  0
LINE
  8
0
 10
108.237801
 20
255.365129
 30
0.0
 11
108.237801
 21
255.685135
 31
0.0
  0
LINE
  8
0
 10
108.237801
 20
256.804475
 30
0.0
 11
108.237801
 21
255.685135
 31
0.0
  0
LINE
  8
0
 10
109.430775
 20
257.691081
 30
0.0
 11
108.237801
 21
256.804475
 31
0.0
  0
LINE
  8
0
 10
113.270352
 20
256.980234
 30
0.0
 11
112.851959
 21
256.669288
 31
0.0
  0
LINE
  8
0
 10
112.851959
 20
256.669288
 30
0.0
 11
112.422264
 21
256.349943
 31
0.0
  0
LINE
  8
0
 10
113.252384
 20
256.978091
 30
0.0
 11
112.795576
 21
256.638596
 31
0.0
  0
LINE
  8
0
 10
112.795576
 20
256.638596
 30
0.0
 11
112.411276
 21
256.352988
 31
0.0
  0
LINE
  8
0
 10
111.868937
 20
257.295908
 30
0.0
 11
112.154907
 21
258.204915
 31
0.0
  0
LINE
  8
0
 10
112.154907
 20
258.204915
 30
0.0
 11
112.623619
 21
258.97819
 31
0.0
  0
LINE
  8
0
 10
108.237995
 20
253.431133
 30
0.0
 11
108.208257
 21
253.431697
 31
0.0
  0
LINE
  8
0
 10
108.208257
 20
253.431697
 30
0.0
 11
108.179649
 21
253.425392
 31
0.0
  0
LINE
  8
0
 10
108.532036
 20
251.89113
 30
0.0
 11
108.492207
 21
251.840417
 31
0.0
  0
LINE
  8
0
 10
108.492207
 20
251.840417
 30
0.0
 11
108.445876
 21
251.829519
 31
0.0
  0
LINE
  8
0
 10
108.237995
 20
255.777838
 30
0.0
 11
108.208257
 21
255.778403
 31
0.0
  0
LINE
  8
0
 10
108.208257
 20
255.778403
 30
0.0
 11
108.179649
 21
255.772097
 31
0.0
  0
LINE
  8
0
 10
108.532036
 20
256.682388
 30
0.0
 11
108.492207
 21
256.70644
 31
0.0
  0
LINE
  8
0
 10
108.492207
 20
256.70644
 30
0.0
 11
108.445876
 21
256.727429
 31
0.0
  0
LINE
  8
0
 10
109.325111
 20
257.612502
 30
0.0
 11
109.316701
 21
257.625786
 31
0.0
  0
LINE
  8
0
 10
109.316701
 20
257.625786
 30
0.0
 11
109.31071
 21
257.640034
 31
0.0
  0
LINE
  8
0
 10
112.751122
 20
255.847756
 30
0.0
 11
112.711548
 21
255.757185
 31
0.0
  0
LINE
  8
0
 10
112.711548
 20
255.757185
 30
0.0
 11
112.656493
 21
255.693773
 31
0.0
  0
LINE
  8
0
 10
112.623619
 20
255.67698
 30
0.0
 11
112.154907
 21
255.753571
 31
0.0
  0
LINE
  8
0
 10
112.154907
 20
255.753571
 30
0.0
 11
111.868937
 21
256.237518
 31
0.0
  0
LINE
  8
0
 10
112.64879
 20
255.885181
 30
0.0
 11
112.609215
 21
255.794609
 31
0.0
  0
LINE
  8
0
 10
112.609215
 20
255.794609
 30
0.0
 11
112.55416
 21
255.731198
 31
0.0
  0
LINE
  8
0
 10
112.521286
 20
255.714405
 30
0.0
 11
112.372396
 21
255.691862
 31
0.0
  0
LINE
  8
0
 10
112.372396
 20
255.691862
 30
0.0
 11
112.246247
 21
255.738645
 31
0.0
  0
LINE
  8
0
 10
112.55416
 20
255.731198
 30
0.0
 11
112.537524
 21
255.720755
 31
0.0
  0
LINE
  8
0
 10
112.537524
 20
255.720755
 30
0.0
 11
112.521286
 21
255.714405
 31
0.0
  0
LINE
  8
0
 10
112.656493
 20
255.693773
 30
0.0
 11
112.639856
 21
255.68333
 31
0.0
  0
LINE
  8
0
 10
112.639856
 20
255.68333
 30
0.0
 11
112.623619
 21
255.67698
 31
0.0
  0
LINE
  8
0
 10
112.011922
 20
255.995545
 30
0.0
 11
112.039545
 21
256.074471
 31
0.0
  0
LINE
  8
0
 10
112.039545
 20
256.074471
 30
0.0
 11
112.046217
 21
256.081661
 31
0.0
  0
LINE
  8
0
 10
112.046217
 20
256.081661
 30
0.0
 11
112.055715
 21
256.085675
 31
0.0
  0
LINE
  8
0
 10
112.055715
 20
256.085675
 30
0.0
 11
112.066873
 21
256.08582
 31
0.0
  0
LINE
  8
0
 10
111.902975
 20
256.712008
 30
0.0
 11
111.876056
 21
256.70272
 31
0.0
  0
LINE
  8
0
 10
111.876056
 20
256.70272
 30
0.0
 11
111.856349
 21
256.717357
 31
0.0
  0
LINE
  8
0
 10
111.856349
 20
256.717357
 30
0.0
 11
111.849136
 21
256.751997
 31
0.0
  0
LINE
  8
0
 10
111.902975
 20
256.872011
 30
0.0
 11
111.934621
 21
256.880251
 31
0.0
  0
LINE
  8
0
 10
111.934621
 20
256.880251
 30
0.0
 11
111.954179
 21
256.854786
 31
0.0
  0
LINE
  8
0
 10
111.954179
 20
256.854786
 30
0.0
 11
111.954179
 21
256.805342
 31
0.0
  0
LINE
  8
0
 10
111.954179
 20
256.805342
 30
0.0
 11
111.934621
 21
256.750806
 31
0.0
  0
LINE
  8
0
 10
111.934621
 20
256.750806
 30
0.0
 11
111.902975
 21
256.712008
 31
0.0
  0
LINE
  8
0
 10
111.903316
 20
256.872292
 30
0.0
 11
111.902801
 21
256.822947
 31
0.0
  0
LINE
  8
0
 10
111.902801
 20
256.822947
 30
0.0
 11
111.883182
 21
256.769023
 31
0.0
  0
LINE
  8
0
 10
111.883182
 20
256.769023
 30
0.0
 11
111.853425
 21
256.732592
 31
0.0
  0
LINE
  8
0
 10
111.868937
 20
256.237518
 30
0.0
 11
111.87154
 21
256.347881
 31
0.0
  0
LINE
  8
0
 10
111.87154
 20
256.347881
 30
0.0
 11
111.920095
 21
256.464999
 31
0.0
  0
LINE
  8
0
 10
112.010653
 20
256.668825
 30
0.0
 11
112.000561
 21
256.606785
 31
0.0
  0
LINE
  8
0
 10
112.000561
 20
256.606785
 30
0.0
 11
111.973121
 21
256.547189
 31
0.0
  0
LINE
  8
0
 10
111.920095
 20
257.144466
 30
0.0
 11
111.87154
 21
257.189414
 31
0.0
  0
LINE
  8
0
 10
111.87154
 20
257.189414
 30
0.0
 11
111.868937
 21
257.295908
 31
0.0
  0
LINE
  8
0
 10
111.849136
 20
256.751997
 30
0.0
 11
111.864905
 21
256.820286
 31
0.0
  0
LINE
  8
0
 10
111.864905
 20
256.820286
 30
0.0
 11
111.902975
 21
256.872011
 31
0.0
  0
LINE
  8
0
 10
111.896675
 20
256.844066
 30
0.0
 11
111.890263
 21
256.804954
 31
0.0
  0
LINE
  8
0
 10
111.890263
 20
256.804954
 30
0.0
 11
111.872859
 21
256.767491
 31
0.0
  0
LINE
  8
0
 10
111.872859
 20
256.767491
 30
0.0
 11
111.850785
 21
256.744076
 31
0.0
  0
LINE
  8
0
 10
111.894753
 20
256.86084
 30
0.0
 11
111.896029
 21
256.854858
 31
0.0
  0
LINE
  8
0
 10
111.896029
 20
256.854858
 30
0.0
 11
111.896675
 21
256.844066
 31
0.0
  0
LINE
  8
0
 10
111.973121
 20
257.141093
 30
0.0
 11
112.000561
 21
257.122283
 31
0.0
  0
LINE
  8
0
 10
112.000561
 20
257.122283
 30
0.0
 11
112.010653
 21
257.075245
 31
0.0
  0
LINE
  8
0
 10
112.222493
 20
256.061956
 30
0.0
 11
112.222874
 21
256.061802
 31
0.0
  0
LINE
  8
0
 10
112.222874
 20
256.061802
 30
0.0
 11
112.462809
 21
255.964919
 31
0.0
  0
LINE
  8
0
 10
112.462809
 20
255.964919
 30
0.0
 11
112.649984
 21
255.889341
 31
0.0
  0
LINE
  8
0
 10
112.257157
 20
256.142455
 30
0.0
 11
112.261356
 21
256.140759
 31
0.0
  0
LINE
  8
0
 10
112.261356
 20
256.140759
 30
0.0
 11
112.501291
 21
256.043877
 31
0.0
  0
LINE
  8
0
 10
112.501291
 20
256.043877
 30
0.0
 11
112.674315
 21
255.974012
 31
0.0
  0
LINE
  8
0
 10
112.338393
 20
256.347505
 30
0.0
 11
112.31505
 21
256.325066
 31
0.0
  0
LINE
  8
0
 10
112.31505
 20
256.325066
 30
0.0
 11
112.292859
 21
256.29292
 31
0.0
  0
LINE
  8
0
 10
112.292859
 20
256.29292
 30
0.0
 11
112.274827
 21
256.254715
 31
0.0
  0
LINE
  8
0
 10
112.274827
 20
256.254715
 30
0.0
 11
112.26261
 21
256.213954
 31
0.0
  0
LINE
  8
0
 10
112.26261
 20
256.213954
 30
0.0
 11
112.259977
 21
256.200043
 31
0.0
  0
LINE
  8
0
 10
112.248545
 20
256.210379
 30
0.0
 11
112.254841
 21
256.238418
 31
0.0
  0
LINE
  8
0
 10
112.254841
 20
256.238418
 30
0.0
 11
112.264822
 21
256.266674
 31
0.0
  0
LINE
  8
0
 10
112.264822
 20
256.266674
 30
0.0
 11
112.289278
 21
256.310939
 31
0.0
  0
LINE
  8
0
 10
112.289278
 20
256.310939
 30
0.0
 11
112.316957
 21
256.341228
 31
0.0
  0
LINE
  8
0
 10
112.316957
 20
256.341228
 30
0.0
 11
112.355202
 21
256.360968
 31
0.0
  0
LINE
  8
0
 10
112.355202
 20
256.360968
 30
0.0
 11
112.384383
 21
256.360478
 31
0.0
  0
LINE
  8
0
 10
112.234511
 20
256.100059
 30
0.0
 11
112.206569
 21
256.061379
 31
0.0
  0
LINE
  8
0
 10
112.247715
 20
256.09665
 30
0.0
 11
112.222493
 21
256.061956
 31
0.0
  0
LINE
  8
0
 10
112.232515
 20
256.099672
 30
0.0
 11
112.225269
 21
256.08493
 31
0.0
  0
LINE
  8
0
 10
112.225269
 20
256.08493
 30
0.0
 11
112.216768
 21
256.072206
 31
0.0
  0
LINE
  8
0
 10
112.216768
 20
256.072206
 30
0.0
 11
112.206624
 21
256.061522
 31
0.0
  0
LINE
  8
0
 10
112.206624
 20
256.061522
 30
0.0
 11
112.206477
 21
256.061396
 31
0.0
  0
LINE
  8
0
 10
112.222493
 20
256.061956
 30
0.0
 11
112.206939
 21
256.061309
 31
0.0
  0
LINE
  8
0
 10
112.218832
 20
256.059235
 30
0.0
 11
112.222493
 21
256.061956
 31
0.0
  0
LINE
  8
0
 10
112.232515
 20
256.099671
 30
0.0
 11
112.234511
 21
256.100059
 31
0.0
  0
LINE
  8
0
 10
112.248545
 20
256.210379
 30
0.0
 11
112.259977
 21
256.200043
 31
0.0
  0
LINE
  8
0
 10
112.245972
 20
256.179767
 30
0.0
 11
112.257157
 21
256.166418
 31
0.0
  0
LINE
  8
0
 10
112.259977
 20
256.200043
 30
0.0
 11
112.258696
 21
256.191389
 31
0.0
  0
LINE
  8
0
 10
112.258696
 20
256.191389
 30
0.0
 11
112.257797
 21
256.182875
 31
0.0
  0
LINE
  8
0
 10
112.257797
 20
256.182875
 30
0.0
 11
112.257283
 21
256.17454
 31
0.0
  0
LINE
  8
0
 10
112.257283
 20
256.17454
 30
0.0
 11
112.257157
 21
256.166418
 31
0.0
  0
LINE
  8
0
 10
112.24596
 20
256.15533
 30
0.0
 11
112.246288
 21
256.152882
 31
0.0
  0
LINE
  8
0
 10
112.246288
 20
256.152882
 30
0.0
 11
112.257157
 21
256.142455
 31
0.0
  0
LINE
  8
0
 10
112.257157
 20
256.142455
 30
0.0
 11
112.257157
 21
256.166418
 31
0.0
  0
LINE
  8
0
 10
112.257157
 20
256.142455
 30
0.0
 11
112.247715
 21
256.09665
 31
0.0
  0
LINE
  8
0
 10
112.246288
 20
256.152882
 30
0.0
 11
112.234511
 21
256.100059
 31
0.0
  0
LINE
  8
0
 10
112.247715
 20
256.09665
 30
0.0
 11
112.234511
 21
256.100059
 31
0.0
  0
LINE
  8
0
 10
112.245972
 20
256.17977
 30
0.0
 11
112.246984
 21
256.19471
 31
0.0
  0
LINE
  8
0
 10
112.246984
 20
256.19471
 30
0.0
 11
112.248523
 21
256.210221
 31
0.0
  0
LINE
  8
0
 10
112.24596
 20
256.155337
 30
0.0
 11
112.24596
 21
256.167319
 31
0.0
  0
LINE
  8
0
 10
112.24596
 20
256.167319
 30
0.0
 11
112.24596
 21
256.179301
 31
0.0
  0
LINE
  8
0
 10
112.24596
 20
256.155332
 30
0.0
 11
112.245798
 21
256.150465
 31
0.0
  0
LINE
  8
0
 10
112.245798
 20
256.150465
 30
0.0
 11
112.24336
 21
256.131785
 31
0.0
  0
LINE
  8
0
 10
112.24336
 20
256.131785
 30
0.0
 11
112.237696
 21
256.112067
 31
0.0
  0
LINE
  8
0
 10
112.237696
 20
256.112067
 30
0.0
 11
112.232515
 21
256.099672
 31
0.0
  0
LINE
  8
0
 10
112.384385
 20
256.360478
 30
0.0
 11
112.379195
 21
256.361499
 31
0.0
  0
LINE
  8
0
 10
112.379195
 20
256.361499
 30
0.0
 11
112.356325
 21
256.357854
 31
0.0
  0
LINE
  8
0
 10
112.356325
 20
256.357854
 30
0.0
 11
112.338393
 21
256.347505
 31
0.0
  0
LINE
  8
0
 10
112.67758
 20
255.985372
 30
0.0
 11
112.703963
 21
256.045753
 31
0.0
  0
LINE
  8
0
 10
112.703963
 20
256.045753
 30
0.0
 11
112.740667
 21
256.088027
 31
0.0
  0
LINE
  8
0
 10
112.656493
 20
259.010261
 30
0.0
 11
112.711548
 21
259.028682
 31
0.0
  0
LINE
  8
0
 10
112.711548
 20
259.028682
 30
0.0
 11
112.751122
 21
258.996932
 31
0.0
  0
LINE
  8
0
 10
112.697723
 20
258.957351
 30
0.0
 11
112.68639
 21
258.964595
 31
0.0
  0
LINE
  8
0
 10
112.68639
 20
258.964595
 30
0.0
 11
112.67758
 21
258.976961
 31
0.0
  0
LINE
  8
0
 10
112.623619
 20
258.97819
 30
0.0
 11
112.639856
 21
258.995975
 31
0.0
  0
LINE
  8
0
 10
112.639856
 20
258.995975
 30
0.0
 11
112.656493
 21
259.010261
 31
0.0
  0
LINE
  8
0
 10
111.954246
 20
259.566451
 30
0.0
 11
111.945837
 21
259.579735
 31
0.0
  0
LINE
  8
0
 10
111.945837
 20
259.579735
 30
0.0
 11
111.939845
 21
259.593983
 31
0.0
  0
LINE
  8
0
 10
112.707992
 20
260.126628
 30
0.0
 11
112.699582
 21
260.139911
 31
0.0
  0
LINE
  8
0
 10
112.699582
 20
260.139911
 30
0.0
 11
112.693591
 21
260.154159
 31
0.0
  0
LINE
  8
0
 10
113.342126
 20
258.49777
 30
0.0
 11
113.342126
 21
257.761934
 31
0.0
  0
LINE
  8
0
 10
113.342126
 20
257.761934
 30
0.0
 11
113.342126
 21
257.140228
 31
0.0
  0
LINE
  8
0
 10
114.090571
 20
257.888615
 30
0.0
 11
113.804602
 21
256.979609
 31
0.0
  0
LINE
  8
0
 10
113.804602
 20
256.979609
 30
0.0
 11
113.33589
 21
256.206334
 31
0.0
  0
LINE
  8
0
 10
113.988239
 20
257.92604
 30
0.0
 11
113.70227
 21
257.017034
 31
0.0
  0
LINE
  8
0
 10
113.70227
 20
257.017034
 30
0.0
 11
113.233558
 21
256.243758
 31
0.0
  0
LINE
  8
0
 10
113.329674
 20
258.505511
 30
0.0
 11
113.329674
 21
257.8325
 31
0.0
  0
LINE
  8
0
 10
113.329674
 20
257.8325
 30
0.0
 11
113.329674
 21
257.15369
 31
0.0
  0
LINE
  8
0
 10
113.623655
 20
256.852676
 30
0.0
 11
113.584903
 21
256.866667
 31
0.0
  0
LINE
  8
0
 10
113.584903
 20
256.866667
 30
0.0
 11
113.270352
 21
256.980234
 31
0.0
  0
LINE
  8
0
 10
113.699686
 20
257.011134
 30
0.0
 11
113.656677
 21
257.026662
 31
0.0
  0
LINE
  8
0
 10
113.656677
 20
257.026662
 30
0.0
 11
113.342126
 21
257.140228
 31
0.0
  0
LINE
  8
0
 10
113.11651
 20
256.253873
 30
0.0
 11
113.153213
 21
256.266154
 31
0.0
  0
LINE
  8
0
 10
113.153213
 20
256.266154
 30
0.0
 11
113.179596
 21
256.244988
 31
0.0
  0
LINE
  8
0
 10
112.982389
 20
255.906822
 30
0.0
 11
112.95547
 21
255.897534
 31
0.0
  0
LINE
  8
0
 10
112.95547
 20
255.897534
 30
0.0
 11
112.935763
 21
255.912171
 31
0.0
  0
LINE
  8
0
 10
112.935763
 20
255.912171
 30
0.0
 11
112.92855
 21
255.946811
 31
0.0
  0
LINE
  8
0
 10
112.92855
 20
255.946811
 30
0.0
 11
112.944319
 21
256.0151
 31
0.0
  0
LINE
  8
0
 10
112.944319
 20
256.0151
 30
0.0
 11
112.982389
 21
256.066825
 31
0.0
  0
LINE
  8
0
 10
112.98273
 20
256.067106
 30
0.0
 11
112.982215
 21
256.017761
 31
0.0
  0
LINE
  8
0
 10
112.982215
 20
256.017761
 30
0.0
 11
112.962596
 21
255.963837
 31
0.0
  0
LINE
  8
0
 10
112.962596
 20
255.963837
 30
0.0
 11
112.932839
 21
255.927405
 31
0.0
  0
LINE
  8
0
 10
112.976089
 20
256.03888
 30
0.0
 11
112.969677
 21
255.999768
 31
0.0
  0
LINE
  8
0
 10
112.969677
 20
255.999768
 30
0.0
 11
112.952273
 21
255.962305
 31
0.0
  0
LINE
  8
0
 10
112.952273
 20
255.962305
 30
0.0
 11
112.930199
 21
255.93889
 31
0.0
  0
LINE
  8
0
 10
112.779913
 20
255.947947
 30
0.0
 11
112.806295
 21
256.008328
 31
0.0
  0
LINE
  8
0
 10
112.806295
 20
256.008328
 30
0.0
 11
112.842999
 21
256.050603
 31
0.0
  0
LINE
  8
0
 10
112.982389
 20
256.066825
 30
0.0
 11
113.014035
 21
256.075065
 31
0.0
  0
LINE
  8
0
 10
113.014035
 20
256.075065
 30
0.0
 11
113.033593
 21
256.0496
 31
0.0
  0
LINE
  8
0
 10
113.033593
 20
256.0496
 30
0.0
 11
113.033593
 21
256.000156
 31
0.0
  0
LINE
  8
0
 10
113.033593
 20
256.000156
 30
0.0
 11
113.014035
 21
255.94562
 31
0.0
  0
LINE
  8
0
 10
113.014035
 20
255.94562
 30
0.0
 11
112.982389
 21
255.906822
 31
0.0
  0
LINE
  8
0
 10
112.974167
 20
256.055654
 30
0.0
 11
112.975443
 21
256.049672
 31
0.0
  0
LINE
  8
0
 10
112.975443
 20
256.049672
 30
0.0
 11
112.976089
 21
256.03888
 31
0.0
  0
LINE
  8
0
 10
113.014177
 20
256.291298
 30
0.0
 11
113.036802
 21
256.302676
 31
0.0
  0
LINE
  8
0
 10
113.036802
 20
256.302676
 30
0.0
 11
113.057121
 21
256.302022
 31
0.0
  0
LINE
  8
0
 10
113.33589
 20
256.206334
 30
0.0
 11
113.319653
 21
256.188549
 31
0.0
  0
LINE
  8
0
 10
113.319653
 20
256.188549
 30
0.0
 11
113.303016
 21
256.174263
 31
0.0
  0
LINE
  8
0
 10
113.303016
 20
256.174263
 30
0.0
 11
113.247961
 21
256.155842
 31
0.0
  0
LINE
  8
0
 10
113.247961
 20
256.155842
 30
0.0
 11
113.208387
 21
256.187591
 31
0.0
  0
LINE
  8
0
 10
113.233558
 20
256.243758
 30
0.0
 11
113.21732
 21
256.225973
 31
0.0
  0
LINE
  8
0
 10
113.21732
 20
256.225973
 30
0.0
 11
113.200684
 21
256.211688
 31
0.0
  0
LINE
  8
0
 10
113.200684
 20
256.211688
 30
0.0
 11
113.199071
 21
256.210507
 31
0.0
  0
LINE
  8
0
 10
113.199071
 20
256.210507
 30
0.0
 11
113.197458
 21
256.209362
 31
0.0
  0
LINE
  8
0
 10
113.307374
 20
257.053016
 30
0.0
 11
113.33014
 21
257.150764
 31
0.0
  0
LINE
  8
0
 10
113.321026
 20
257.049513
 30
0.0
 11
113.307374
 21
257.053016
 31
0.0
  0
LINE
  8
0
 10
113.321026
 20
257.049513
 30
0.0
 11
113.270352
 21
256.980234
 31
0.0
  0
LINE
  8
0
 10
113.329674
 20
257.153686
 30
0.0
 11
113.32861
 21
257.136199
 31
0.0
  0
LINE
  8
0
 10
113.32861
 20
257.136199
 30
0.0
 11
113.32453
 21
257.109871
 31
0.0
  0
LINE
  8
0
 10
113.32453
 20
257.109871
 30
0.0
 11
113.312712
 21
257.070554
 31
0.0
  0
LINE
  8
0
 10
113.312712
 20
257.070554
 30
0.0
 11
113.305132
 21
257.052754
 31
0.0
  0
LINE
  8
0
 10
113.270352
 20
256.980234
 30
0.0
 11
113.252817
 21
256.978403
 31
0.0
  0
LINE
  8
0
 10
113.252817
 20
256.978403
 30
0.0
 11
113.307374
 21
257.053016
 31
0.0
  0
LINE
  8
0
 10
113.252817
 20
256.978403
 30
0.0
 11
113.252386
 21
256.978093
 31
0.0
  0
LINE
  8
0
 10
113.305132
 20
257.052754
 30
0.0
 11
113.307374
 21
257.053016
 31
0.0
  0
LINE
  8
0
 10
113.305132
 20
257.052754
 30
0.0
 11
113.287074
 21
257.01787
 31
0.0
  0
LINE
  8
0
 10
113.287074
 20
257.01787
 30
0.0
 11
113.267041
 21
256.991737
 31
0.0
  0
LINE
  8
0
 10
113.267041
 20
256.991737
 30
0.0
 11
113.254124
 21
256.979473
 31
0.0
  0
LINE
  8
0
 10
113.254124
 20
256.979473
 30
0.0
 11
113.252657
 21
256.978299
 31
0.0
  0
LINE
  8
0
 10
113.252657
 20
256.978299
 30
0.0
 11
113.252384
 21
256.978092
 31
0.0
  0
LINE
  8
0
 10
113.329674
 20
257.153686
 30
0.0
 11
113.33014
 21
257.150764
 31
0.0
  0
LINE
  8
0
 10
113.33014
 20
257.150764
 30
0.0
 11
113.342126
 21
257.140228
 31
0.0
  0
LINE
  8
0
 10
113.342126
 20
257.140228
 30
0.0
 11
113.321026
 21
257.049513
 31
0.0
  0
LINE
  8
0
 10
113.208387
 20
259.336767
 30
0.0
 11
113.247961
 21
259.427339
 31
0.0
  0
LINE
  8
0
 10
113.247961
 20
259.427339
 30
0.0
 11
113.303016
 21
259.490751
 31
0.0
  0
LINE
  8
0
 10
113.33589
 20
259.507543
 30
0.0
 11
113.804602
 21
259.430953
 31
0.0
  0
LINE
  8
0
 10
113.804602
 20
259.430953
 30
0.0
 11
114.090571
 21
258.947006
 31
0.0
  0
LINE
  8
0
 10
113.334933
 20
259.507281
 30
0.0
 11
113.334933
 21
258.958072
 31
0.0
  0
LINE
  8
0
 10
113.342126
 20
259.509178
 30
0.0
 11
113.342126
 21
258.928523
 31
0.0
  0
LINE
  8
0
 10
113.431299
 20
258.759769
 30
0.0
 11
113.435661
 21
258.758436
 31
0.0
  0
LINE
  8
0
 10
113.435661
 20
258.758436
 30
0.0
 11
113.684883
 21
258.682256
 31
0.0
  0
LINE
  8
0
 10
113.684883
 20
258.682256
 30
0.0
 11
113.861137
 21
258.62838
 31
0.0
  0
LINE
  8
0
 10
113.468475
 20
258.839411
 30
0.0
 11
113.468872
 21
258.83929
 31
0.0
  0
LINE
  8
0
 10
113.468872
 20
258.83929
 30
0.0
 11
113.718094
 21
258.76311
 31
0.0
  0
LINE
  8
0
 10
113.718094
 20
258.76311
 30
0.0
 11
113.904333
 21
258.706182
 31
0.0
  0
LINE
  8
0
 10
113.333936
 20
258.566697
 30
0.0
 11
113.335939
 21
258.541541
 31
0.0
  0
LINE
  8
0
 10
113.335939
 20
258.541541
 30
0.0
 11
113.344925
 21
258.514235
 31
0.0
  0
LINE
  8
0
 10
113.344925
 20
258.514235
 30
0.0
 11
113.360339
 21
258.497253
 31
0.0
  0
LINE
  8
0
 10
113.360339
 20
258.497253
 30
0.0
 11
113.364061
 21
258.495259
 31
0.0
  0
LINE
  8
0
 10
113.364064
 20
258.495257
 30
0.0
 11
113.343367
 21
258.511312
 31
0.0
  0
LINE
  8
0
 10
113.343367
 20
258.511312
 30
0.0
 11
113.327945
 21
258.540967
 31
0.0
  0
LINE
  8
0
 10
113.327945
 20
258.540967
 30
0.0
 11
113.322741
 21
258.580174
 31
0.0
  0
LINE
  8
0
 10
113.322741
 20
258.580174
 30
0.0
 11
113.328014
 21
258.624617
 31
0.0
  0
LINE
  8
0
 10
113.328014
 20
258.624617
 30
0.0
 11
113.345756
 21
258.676283
 31
0.0
  0
LINE
  8
0
 10
113.345756
 20
258.676283
 30
0.0
 11
113.37018
 21
258.71678
 31
0.0
  0
LINE
  8
0
 10
113.37018
 20
258.71678
 30
0.0
 11
113.398561
 21
258.745296
 31
0.0
  0
LINE
  8
0
 10
113.334933
 20
258.513278
 30
0.0
 11
113.330259
 21
258.508036
 31
0.0
  0
LINE
  8
0
 10
113.330259
 20
258.508036
 30
0.0
 11
113.33018
 21
258.503323
 31
0.0
  0
LINE
  8
0
 10
113.33018
 20
258.503323
 30
0.0
 11
113.334256
 21
258.499718
 31
0.0
  0
LINE
  8
0
 10
113.334256
 20
258.499718
 30
0.0
 11
113.342126
 21
258.49777
 31
0.0
  0
LINE
  8
0
 10
113.335554
 20
258.513739
 30
0.0
 11
113.339549
 21
258.516256
 31
0.0
  0
LINE
  8
0
 10
113.179596
 20
259.236577
 30
0.0
 11
113.153213
 21
259.176195
 31
0.0
  0
LINE
  8
0
 10
113.153213
 20
259.176195
 30
0.0
 11
113.11651
 21
259.133921
 31
0.0
  0
LINE
  8
0
 10
112.842999
 20
258.93065
 30
0.0
 11
112.806295
 21
258.918369
 31
0.0
  0
LINE
  8
0
 10
112.806295
 20
258.918369
 30
0.0
 11
112.779913
 21
258.939536
 31
0.0
  0
LINE
  8
0
 10
112.982389
 20
259.110794
 30
0.0
 11
112.95547
 21
259.101506
 31
0.0
  0
LINE
  8
0
 10
112.95547
 20
259.101506
 30
0.0
 11
112.935763
 21
259.116143
 31
0.0
  0
LINE
  8
0
 10
112.935763
 20
259.116143
 30
0.0
 11
112.92855
 21
259.150783
 31
0.0
  0
LINE
  8
0
 10
112.92855
 20
259.150783
 30
0.0
 11
112.944319
 21
259.219072
 31
0.0
  0
LINE
  8
0
 10
112.944319
 20
259.219072
 30
0.0
 11
112.982389
 21
259.270797
 31
0.0
  0
LINE
  8
0
 10
112.98273
 20
259.271078
 30
0.0
 11
112.982215
 21
259.221733
 31
0.0
  0
LINE
  8
0
 10
112.982215
 20
259.221733
 30
0.0
 11
112.962596
 21
259.167809
 31
0.0
  0
LINE
  8
0
 10
112.962596
 20
259.167809
 30
0.0
 11
112.932839
 21
259.131378
 31
0.0
  0
LINE
  8
0
 10
112.976089
 20
259.242852
 30
0.0
 11
112.969677
 21
259.20374
 31
0.0
  0
LINE
  8
0
 10
112.969677
 20
259.20374
 30
0.0
 11
112.952273
 21
259.166277
 31
0.0
  0
LINE
  8
0
 10
112.952273
 20
259.166277
 30
0.0
 11
112.930199
 21
259.142862
 31
0.0
  0
LINE
  8
0
 10
112.982389
 20
259.270797
 30
0.0
 11
113.014035
 21
259.279037
 31
0.0
  0
LINE
  8
0
 10
113.014035
 20
259.279037
 30
0.0
 11
113.033593
 21
259.253572
 31
0.0
  0
LINE
  8
0
 10
113.033593
 20
259.253572
 30
0.0
 11
113.033593
 21
259.204128
 31
0.0
  0
LINE
  8
0
 10
113.033593
 20
259.204128
 30
0.0
 11
113.014035
 21
259.149592
 31
0.0
  0
LINE
  8
0
 10
113.014035
 20
259.149592
 30
0.0
 11
112.982389
 21
259.110794
 31
0.0
  0
LINE
  8
0
 10
112.974167
 20
259.259626
 30
0.0
 11
112.975443
 21
259.253644
 31
0.0
  0
LINE
  8
0
 10
112.975443
 20
259.253644
 30
0.0
 11
112.976089
 21
259.242852
 31
0.0
  0
LINE
  8
0
 10
113.457794
 20
258.794071
 30
0.0
 11
113.431299
 21
258.759769
 31
0.0
  0
LINE
  8
0
 10
113.414764
 20
258.757339
 30
0.0
 11
113.444486
 21
258.797255
 31
0.0
  0
LINE
  8
0
 10
113.442512
 20
258.796916
 30
0.0
 11
113.434866
 21
258.781487
 31
0.0
  0
LINE
  8
0
 10
113.434866
 20
258.781487
 30
0.0
 11
113.42602
 21
258.768529
 31
0.0
  0
LINE
  8
0
 10
113.42602
 20
258.768529
 30
0.0
 11
113.416047
 21
258.758355
 31
0.0
  0
LINE
  8
0
 10
113.416047
 20
258.758355
 30
0.0
 11
113.414764
 21
258.757339
 31
0.0
  0
LINE
  8
0
 10
113.415172
 20
258.747784
 30
0.0
 11
113.409907
 21
258.743617
 31
0.0
  0
LINE
  8
0
 10
113.409907
 20
258.743617
 30
0.0
 11
113.385909
 21
258.717932
 31
0.0
  0
LINE
  8
0
 10
113.385909
 20
258.717932
 30
0.0
 11
113.364589
 21
258.683934
 31
0.0
  0
LINE
  8
0
 10
113.364589
 20
258.683934
 30
0.0
 11
113.347896
 21
258.644733
 31
0.0
  0
LINE
  8
0
 10
113.347896
 20
258.644733
 30
0.0
 11
113.337362
 21
258.603929
 31
0.0
  0
LINE
  8
0
 10
113.337362
 20
258.603929
 30
0.0
 11
113.333936
 21
258.566697
 31
0.0
  0
LINE
  8
0
 10
113.398561
 20
258.745296
 30
0.0
 11
113.415172
 21
258.747784
 31
0.0
  0
LINE
  8
0
 10
113.420548
 20
258.751779
 30
0.0
 11
113.403936
 21
258.749292
 31
0.0
  0
LINE
  8
0
 10
113.414688
 20
258.757283
 30
0.0
 11
113.409312
 21
258.753287
 31
0.0
  0
LINE
  8
0
 10
113.409312
 20
258.753287
 30
0.0
 11
113.403937
 21
258.749292
 31
0.0
  0
LINE
  8
0
 10
113.398559
 20
258.745295
 30
0.0
 11
113.401248
 21
258.747294
 31
0.0
  0
LINE
  8
0
 10
113.401248
 20
258.747294
 30
0.0
 11
113.403936
 21
258.749292
 31
0.0
  0
LINE
  8
0
 10
113.420548
 20
258.751779
 30
0.0
 11
113.431299
 21
258.759769
 31
0.0
  0
LINE
  8
0
 10
113.415172
 20
258.747784
 30
0.0
 11
113.420548
 21
258.751779
 31
0.0
  0
LINE
  8
0
 10
113.431299
 20
258.759769
 30
0.0
 11
113.414688
 21
258.757283
 31
0.0
  0
LINE
  8
0
 10
113.414688
 20
258.757283
 30
0.0
 11
113.414764
 21
258.757339
 31
0.0
  0
LINE
  8
0
 10
113.334933
 20
258.958072
 30
0.0
 11
113.330259
 21
258.95164
 31
0.0
  0
LINE
  8
0
 10
113.330259
 20
258.95164
 30
0.0
 11
113.33018
 21
258.943793
 31
0.0
  0
LINE
  8
0
 10
113.33018
 20
258.943793
 30
0.0
 11
113.334256
 21
258.93572
 31
0.0
  0
LINE
  8
0
 10
113.334256
 20
258.93572
 30
0.0
 11
113.342126
 21
258.928523
 31
0.0
  0
LINE
  8
0
 10
113.468475
 20
258.839411
 30
0.0
 11
113.457794
 21
258.794071
 31
0.0
  0
LINE
  8
0
 10
113.456488
 20
258.849947
 30
0.0
 11
113.468475
 21
258.839411
 31
0.0
  0
LINE
  8
0
 10
113.444486
 20
258.797255
 30
0.0
 11
113.456488
 21
258.849947
 31
0.0
  0
LINE
  8
0
 10
113.457794
 20
258.794071
 30
0.0
 11
113.444486
 21
258.797255
 31
0.0
  0
LINE
  8
0
 10
113.468475
 20
258.839411
 30
0.0
 11
113.468475
 21
258.84485
 31
0.0
  0
LINE
  8
0
 10
113.456023
 20
258.852873
 30
0.0
 11
113.456488
 21
258.849947
 31
0.0
  0
LINE
  8
0
 10
113.442512
 20
258.796915
 30
0.0
 11
113.444486
 21
258.797255
 31
0.0
  0
LINE
  8
0
 10
113.456023
 20
258.852866
 30
0.0
 11
113.455543
 21
258.843808
 31
0.0
  0
LINE
  8
0
 10
113.455543
 20
258.843808
 30
0.0
 11
113.453507
 21
258.829719
 31
0.0
  0
LINE
  8
0
 10
113.453507
 20
258.829719
 30
0.0
 11
113.44789
 21
258.809805
 31
0.0
  0
LINE
  8
0
 10
113.44789
 20
258.809805
 30
0.0
 11
113.442512
 21
258.796916
 31
0.0
  0
LINE
  8
0
 10
113.456023
 20
258.852873
 30
0.0
 11
113.456023
 21
258.853095
 31
0.0
  0
LINE
  8
0
 10
113.948855
 20
258.515699
 30
0.0
 11
113.958948
 21
258.577738
 31
0.0
  0
LINE
  8
0
 10
113.958948
 20
258.577738
 30
0.0
 11
113.986388
 21
258.637334
 31
0.0
  0
LINE
  8
0
 10
113.846523
 20
258.553123
 30
0.0
 11
113.856616
 21
258.615163
 31
0.0
  0
LINE
  8
0
 10
113.856616
 20
258.615163
 30
0.0
 11
113.884055
 21
258.674759
 31
0.0
  0
LINE
  8
0
 10
113.875378
 20
258.082657
 30
0.0
 11
113.854141
 21
258.104545
 31
0.0
  0
LINE
  8
0
 10
113.854141
 20
258.104545
 30
0.0
 11
113.846523
 21
258.146703
 31
0.0
  0
LINE
  8
0
 10
113.986388
 20
258.04343
 30
0.0
 11
113.958948
 21
258.06224
 31
0.0
  0
LINE
  8
0
 10
113.958948
 20
258.06224
 30
0.0
 11
113.948855
 21
258.109279
 31
0.0
  0
LINE
  8
0
 10
114.039414
 20
258.040057
 30
0.0
 11
114.087968
 21
257.99511
 31
0.0
  0
LINE
  8
0
 10
114.087968
 20
257.99511
 30
0.0
 11
114.090571
 21
257.888615
 31
0.0
  0
LINE
  8
0
 10
113.980881
 20
258.044243
 30
0.0
 11
113.992962
 21
257.992489
 31
0.0
  0
LINE
  8
0
 10
113.992962
 20
257.992489
 30
0.0
 11
113.988239
 21
257.92604
 31
0.0
  0
LINE
  8
0
 10
114.078726
 20
258.210203
 30
0.0
 11
114.051807
 21
258.200915
 31
0.0
  0
LINE
  8
0
 10
114.051807
 20
258.200915
 30
0.0
 11
114.0321
 21
258.215552
 31
0.0
  0
LINE
  8
0
 10
114.0321
 20
258.215552
 30
0.0
 11
114.024887
 21
258.250192
 31
0.0
  0
LINE
  8
0
 10
114.024887
 20
258.250192
 30
0.0
 11
114.040656
 21
258.318481
 31
0.0
  0
LINE
  8
0
 10
114.040656
 20
258.318481
 30
0.0
 11
114.078726
 21
258.370206
 31
0.0
  0
LINE
  8
0
 10
114.079067
 20
258.370487
 30
0.0
 11
114.078552
 21
258.321142
 31
0.0
  0
LINE
  8
0
 10
114.078552
 20
258.321142
 30
0.0
 11
114.058933
 21
258.267218
 31
0.0
  0
LINE
  8
0
 10
114.058933
 20
258.267218
 30
0.0
 11
114.029176
 21
258.230787
 31
0.0
  0
LINE
  8
0
 10
114.072426
 20
258.342261
 30
0.0
 11
114.066014
 21
258.303149
 31
0.0
  0
LINE
  8
0
 10
114.066014
 20
258.303149
 30
0.0
 11
114.04861
 21
258.265686
 31
0.0
  0
LINE
  8
0
 10
114.04861
 20
258.265686
 30
0.0
 11
114.026536
 21
258.242271
 31
0.0
  0
LINE
  8
0
 10
114.078726
 20
258.370206
 30
0.0
 11
114.110372
 21
258.378446
 31
0.0
  0
LINE
  8
0
 10
114.110372
 20
258.378446
 30
0.0
 11
114.12993
 21
258.352981
 31
0.0
  0
LINE
  8
0
 10
114.12993
 20
258.352981
 30
0.0
 11
114.12993
 21
258.303537
 31
0.0
  0
LINE
  8
0
 10
114.12993
 20
258.303537
 30
0.0
 11
114.110372
 21
258.249001
 31
0.0
  0
LINE
  8
0
 10
114.110372
 20
258.249001
 30
0.0
 11
114.078726
 21
258.210203
 31
0.0
  0
LINE
  8
0
 10
114.070504
 20
258.359035
 30
0.0
 11
114.07178
 21
258.353053
 31
0.0
  0
LINE
  8
0
 10
114.07178
 20
258.353053
 30
0.0
 11
114.072426
 21
258.342261
 31
0.0
  0
LINE
  8
0
 10
113.611426
 20
259.462519
 30
0.0
 11
113.845397
 21
259.316388
 31
0.0
  0
LINE
  8
0
 10
113.845397
 20
259.316388
 30
0.0
 11
113.988239
 21
258.984431
 31
0.0
  0
LINE
  8
0
 10
114.090571
 20
258.947006
 30
0.0
 11
114.087968
 21
258.836642
 31
0.0
  0
LINE
  8
0
 10
114.087968
 20
258.836642
 30
0.0
 11
114.039414
 21
258.719524
 31
0.0
  0
LINE
  8
0
 10
113.988239
 20
258.984431
 30
0.0
 11
113.985636
 21
258.874067
 31
0.0
  0
LINE
  8
0
 10
113.985636
 20
258.874067
 30
0.0
 11
113.937081
 21
258.756949
 31
0.0
  0
LINE
  8
0
 10
113.303016
 20
259.490751
 30
0.0
 11
113.319653
 21
259.501194
 31
0.0
  0
LINE
  8
0
 10
113.319653
 20
259.501194
 30
0.0
 11
113.33589
 21
259.507543
 31
0.0
  0
LINE
  8
0
 10
115.426859
 20
262.147264
 30
0.0
 11
115.418449
 21
262.160548
 31
0.0
  0
LINE
  8
0
 10
115.418449
 20
262.160548
 30
0.0
 11
115.412457
 21
262.174796
 31
0.0
  0
LINE
  8
0
 10
117.427472
 20
258.502135
 30
0.0
 11
117.437096
 21
258.493631
 31
0.0
  0
LINE
  8
0
 10
117.437096
 20
258.493631
 30
0.0
 11
117.43817
 21
258.488954
 31
0.0
  0
LINE
  8
0
 10
117.427472
 20
263.293393
 30
0.0
 11
117.437958
 21
263.354838
 31
0.0
  0
LINE
  8
0
 10
117.437958
 20
263.354838
 30
0.0
 11
117.413086
 21
263.391776
 31
0.0
  0
ENDSEC
  0
EOF
