  0
SECTION
  2
HEADER
  9
$ACADVER
  1
AC1009
  9
$INSBASE
 10
0.0
 20
0.0
 30
0.0
  9
$EXTMIN
 10
-400.915212
 20
123.094436
 30
0.0
  9
$EXTMAX
 10
-36.49014
 20
803.094437
 30
0.0
  9
$LIMMIN
 10
-255.542103
 20
382.878269
  9
$LIMMAX
 10
-167.337429
 20
552.878269
  9
$ORTHOMODE
 70
     1
  9
$REGENMODE
 70
     1
  9
$FILLMODE
 70
     1
  9
$QTEXTMODE
 70
     0
  9
$MIRRTEXT
 70
     1
  9
$DRAGMODE
 70
     2
  9
$LTSCALE
 40
1.0
  9
$OSMODE
 70
     0
  9
$ATTMODE
 70
     1
  9
$TEXTSIZE
 40
3.5
  9
$TRACEWID
 40
0.5
  9
$TEXTSTYLE
  7
STANDARD
  9
$CLAYER
  8
0
  9
$CELTYPE
  6
BYLAYER
  9
$CECOLOR
 62
   256
  9
$DIMSCALE
 40
1.0
  9
$DIMASZ
 40
0.18
  9
$DIMEXO
 40
0.0625
  9
$DIMDLI
 40
0.38
  9
$DIMRND
 40
0.0
  9
$DIMDLE
 40
0.0
  9
$DIMEXE
 40
0.18
  9
$DIMTP
 40
0.0
  9
$DIMTM
 40
0.0
  9
$DIMTXT
 40
0.18
  9
$DIMCEN
 40
0.09
  9
$DIMTSZ
 40
0.0
  9
$DIMTOL
 70
     0
  9
$DIMLIM
 70
     0
  9
$DIMTIH
 70
     1
  9
$DIMTOH
 70
     1
  9
$DIMSE1
 70
     0
  9
$DIMSE2
 70
     0
  9
$DIMTAD
 70
     0
  9
$DIMZIN
 70
     0
  9
$DIMBLK
  1

  9
$DIMASO
 70
     1
  9
$DIMSHO
 70
     1
  9
$DIMPOST
  1

  9
$DIMAPOST
  1

  9
$DIMALT
 70
     0
  9
$DIMALTD
 70
     2
  9
$DIMALTF
 40
25.4
  9
$DIMLFAC
 40
1.0
  9
$DIMTOFL
 70
     0
  9
$DIMTVP
 40
0.0
  9
$DIMTIX
 70
     0
  9
$DIMSOXD
 70
     0
  9
$DIMSAH
 70
     0
  9
$DIMBLK1
  1

  9
$DIMBLK2
  1

  9
$DIMSTYLE
  2
*UNNAMED
  9
$DIMCLRD
 70
     0
  9
$DIMCLRE
 70
     0
  9
$DIMCLRT
 70
     0
  9
$DIMTFAC
 40
1.0
  9
$DIMGAP
 40
0.09
  9
$LUNITS
 70
     2
  9
$LUPREC
 70
     4
  9
$SKETCHINC
 40
0.1
  9
$FILLETRAD
 40
2.0
  9
$AUNITS
 70
     0
  9
$AUPREC
 70
     0
  9
$MENU
  1
ACAD
  9
$ELEVATION
 40
0.0
  9
$PELEVATION
 40
0.0
  9
$THICKNESS
 40
0.0
  9
$LIMCHECK
 70
     0
  9
$BLIPMODE
 70
     1
  9
$CHAMFERA
 40
0.0
  9
$CHAMFERB
 40
0.0
  9
$SKPOLY
 70
     0
  9
$TDCREATE
 40
2450948.650555555
  9
$TDUPDATE
 40
2450948.651425810
  9
$TDINDWG
 40
0.0003006944
  9
$TDUSRTIMER
 40
0.0003006944
  9
$USRTIMER
 70
     1
  9
$ANGBASE
 50
0.0
  9
$ANGDIR
 70
     0
  9
$PDMODE
 70
     0
  9
$PDSIZE
 40
0.0
  9
$PLINEWID
 40
0.0
  9
$COORDS
 70
     2
  9
$SPLFRAME
 70
     0
  9
$SPLINETYPE
 70
     6
  9
$SPLINESEGS
 70
     8
  9
$ATTDIA
 70
     0
  9
$ATTREQ
 70
     1
  9
$HANDLING
 70
     0
  9
$HANDSEED
  5
0
  9
$SURFTAB1
 70
     6
  9
$SURFTAB2
 70
     6
  9
$SURFTYPE
 70
     6
  9
$SURFU
 70
     6
  9
$SURFV
 70
     6
  9
$UCSNAME
  2

  9
$UCSORG
 10
0.0
 20
0.0
 30
0.0
  9
$UCSXDIR
 10
1.0
 20
0.0
 30
0.0
  9
$UCSYDIR
 10
0.0
 20
1.0
 30
0.0
  9
$PUCSNAME
  2

  9
$PUCSORG
 10
0.0
 20
0.0
 30
0.0
  9
$PUCSXDIR
 10
1.0
 20
0.0
 30
0.0
  9
$PUCSYDIR
 10
0.0
 20
1.0
 30
0.0
  9
$USERI1
 70
     0
  9
$USERI2
 70
     0
  9
$USERI3
 70
     0
  9
$USERI4
 70
     0
  9
$USERI5
 70
     0
  9
$USERR1
 40
0.0
  9
$USERR2
 40
0.0
  9
$USERR3
 40
0.0
  9
$USERR4
 40
0.0
  9
$USERR5
 40
0.0
  9
$WORLDVIEW
 70
     1
  9
$SHADEDGE
 70
     3
  9
$SHADEDIF
 70
    70
  9
$TILEMODE
 70
     1
  9
$MAXACTVP
 70
    16
  9
$PINSBASE
 10
0.0
 20
0.0
 30
0.0
  9
$PLIMCHECK
 70
     0
  9
$PEXTMIN
 10
1.000000E+20
 20
1.000000E+20
 30
1.000000E+20
  9
$PEXTMAX
 10
-1.000000E+20
 20
-1.000000E+20
 30
-1.000000E+20
  9
$PLIMMIN
 10
0.0
 20
0.0
  9
$PLIMMAX
 10
420.0
 20
297.0
  9
$UNITMODE
 70
     0
  9
$VISRETAIN
 70
     0
  9
$PLINEGEN
 70
     0
  9
$PSLTSCALE
 70
     1
  9
$TREEDEPTH
 70
  3020
  9
$DWGCODEPAGE
  3
iso8859-1
  0
ENDSEC
  0
SECTION
  2
TABLES
  0
TABLE
  2
VPORT
 70
     2
  0
VPORT
  2
*ACTIVE
 70
     0
 10
0.0
 20
0.0
 11
1.0
 21
1.0
 12
296.166425
 22
446.653322
 13
0.0
 23
0.0
 14
1.0
 24
1.0
 15
0.0
 25
0.0
 16
0.0
 26
0.0
 36
1.0
 17
0.0
 27
0.0
 37
0.0
 40
1049.179473
 41
1.748359
 42
50.0
 43
0.0
 44
0.0
 50
0.0
 51
0.0
 71
     0
 72
   100
 73
     1
 74
     0
 75
     0
 76
     0
 77
     0
 78
     0
  0
ENDTAB
  0
TABLE
  2
LTYPE
 70
     1
  0
LTYPE
  2
CONTINUOUS
 70
    64
  3
Solid line
 72
    65
 73
     0
 40
0.0
  0
ENDTAB
  0
TABLE
  2
LAYER
 70
     1
  0
LAYER
  2
0
 70
    64
 62
     7
  6
CONTINUOUS
  0
ENDTAB
  0
TABLE
  2
STYLE
 70
     1
  0
STYLE
  2
STANDARD
 70
     0
 40
0.0
 41
1.0
 50
0.0
 71
     0
 42
3.5
  3
txt
  4

  0
ENDTAB
  0
TABLE
  2
VIEW
 70
     0
  0
ENDTAB
  0
TABLE
  2
UCS
 70
     0
  0
ENDTAB
  0
TABLE
  2
APPID
 70
     1
  0
APPID
  2
ACAD
 70
    64
  0
ENDTAB
  0
TABLE
  2
DIMSTYLE
 70
     0
  0
ENDTAB
  0
ENDSEC
  0
SECTION
  2
BLOCKS
  0
ENDSEC
  0
SECTION
  2
ENTITIES
  0
LINE
  8
0
 10
-120.904241
 20
271.094437
 30
0.0
 11
-120.904241
 21
234.694437
 31
0.0
  0
LINE
  8
0
 10
-96.904241
 20
252.494437
 30
0.0
 11
-96.904241
 21
268.494437
 31
0.0
  0
LINE
  8
0
 10
-96.904241
 20
268.494437
 30
0.0
 11
-96.904241
 21
271.094437
 31
0.0
  0
LINE
  8
0
 10
-115.304241
 20
268.294437
 30
0.0
 11
-115.304241
 21
252.694437
 31
0.0
  0
LINE
  8
0
 10
-102.504241
 20
268.294437
 30
0.0
 11
-102.504241
 21
252.694437
 31
0.0
  0
LINE
  8
0
 10
-96.904241
 20
249.894437
 30
0.0
 11
-96.904241
 21
252.494437
 31
0.0
  0
LINE
  8
0
 10
-310.904241
 20
329.094437
 30
0.0
 11
-310.904241
 21
221.094437
 31
0.0
  0
LINE
  8
0
 10
-306.904241
 20
333.094437
 30
0.0
 11
-290.864041
 21
333.094437
 31
0.0
  0
LINE
  8
0
 10
-307.304241
 20
339.494437
 30
0.0
 11
-292.161097
 21
339.494437
 31
0.0
  0
LINE
  8
0
 10
-298.904241
 20
323.094437
 30
0.0
 11
-298.904241
 21
331.094437
 31
0.0
  0
LINE
  8
0
 10
-293.469929
 20
330.488553
 30
0.0
 11
-290.864041
 21
333.094437
 31
0.0
  0
LINE
  8
0
 10
-290.864041
 20
353.094437
 30
0.0
 11
-306.904241
 21
353.094437
 31
0.0
  0
LINE
  8
0
 10
-292.161097
 20
346.694437
 30
0.0
 11
-307.304241
 21
346.694437
 31
0.0
  0
LINE
  8
0
 10
-298.904241
 20
355.094437
 30
0.0
 11
-298.904241
 21
363.094437
 31
0.0
  0
LINE
  8
0
 10
-290.864041
 20
353.094437
 30
0.0
 11
-293.469929
 21
355.700325
 31
0.0
  0
LINE
  8
0
 10
-310.904241
 20
569.094437
 30
0.0
 11
-310.904241
 21
477.094437
 31
0.0
  0
LINE
  8
0
 10
-111.304241
 20
245.894437
 30
0.0
 11
-100.904241
 21
245.894437
 31
0.0
  0
LINE
  8
0
 10
-114.104241
 20
251.494437
 30
0.0
 11
-103.704241
 21
251.494437
 31
0.0
  0
LINE
  8
0
 10
-116.904241
 20
275.094437
 30
0.0
 11
-100.904241
 21
275.094437
 31
0.0
  0
LINE
  8
0
 10
-72.904241
 20
230.550129
 30
0.0
 11
-72.904241
 21
211.094437
 31
0.0
  0
LINE
  8
0
 10
-114.104241
 20
269.494437
 30
0.0
 11
-103.704241
 21
269.494437
 31
0.0
  0
LINE
  8
0
 10
-82.904241
 20
225.812281
 30
0.0
 11
-82.904241
 21
215.094437
 31
0.0
  0
LINE
  8
0
 10
-96.175749
 20
226.694437
 30
0.0
 11
-112.904241
 21
226.694437
 31
0.0
  0
LINE
  8
0
 10
-97.304241
 20
233.094437
 30
0.0
 11
-111.304241
 21
233.094437
 31
0.0
  0
LINE
  8
0
 10
-83.640405
 20
238.067669
 30
0.0
 11
-97.304241
 21
233.094437
 31
0.0
  0
LINE
  8
0
 10
-115.304241
 20
241.894437
 30
0.0
 11
-115.304241
 21
237.094437
 31
0.0
  0
LINE
  8
0
 10
-312.904241
 20
203.094437
 30
0.0
 11
-80.904241
 21
203.094437
 31
0.0
  0
LINE
  8
0
 10
-320.904241
 20
211.094437
 30
0.0
 11
-320.904241
 21
715.094437
 31
0.0
  0
LINE
  8
0
 10
-310.904241
 20
705.094437
 30
0.0
 11
-310.904241
 21
597.094437
 31
0.0
  0
LINE
  8
0
 10
-88.272322
 20
229.571052
 30
0.0
 11
-96.175749
 21
226.694437
 31
0.0
  0
LINE
  8
0
 10
-295.490028
 20
332.508651
 30
0.0
 11
-293.469929
 21
330.488553
 31
0.0
  0
LINE
  8
0
 10
-287.918456
 20
329.251797
 30
0.0
 11
-295.490028
 21
321.680224
 31
0.0
  0
LINE
  8
0
 10
-287.918456
 20
356.937078
 30
0.0
 11
-295.490028
 21
364.508651
 31
0.0
  0
LINE
  8
0
 10
-295.490028
 20
353.680224
 30
0.0
 11
-293.469929
 21
355.700325
 31
0.0
  0
LINE
  8
0
 10
-298.904241
 20
443.094437
 30
0.0
 11
-298.904241
 21
451.094437
 31
0.0
  0
LINE
  8
0
 10
-293.469929
 20
450.488553
 30
0.0
 11
-290.864041
 21
453.094437
 31
0.0
  0
LINE
  8
0
 10
-298.904241
 20
475.094437
 30
0.0
 11
-298.904241
 21
483.094437
 31
0.0
  0
LINE
  8
0
 10
-290.864041
 20
473.094437
 30
0.0
 11
-293.469929
 21
475.700325
 31
0.0
  0
LINE
  8
0
 10
-295.490028
 20
452.508651
 30
0.0
 11
-293.469929
 21
450.488553
 31
0.0
  0
LINE
  8
0
 10
-287.918456
 20
449.251797
 30
0.0
 11
-295.490028
 21
441.680224
 31
0.0
  0
LINE
  8
0
 10
-287.918456
 20
476.937078
 30
0.0
 11
-295.490028
 21
484.508651
 31
0.0
  0
LINE
  8
0
 10
-295.490028
 20
473.680224
 30
0.0
 11
-293.469929
 21
475.700325
 31
0.0
  0
LINE
  8
0
 10
-290.864041
 20
473.094437
 30
0.0
 11
-306.904241
 21
473.094437
 31
0.0
  0
LINE
  8
0
 10
-292.161097
 20
466.694437
 30
0.0
 11
-307.304241
 21
466.694437
 31
0.0
  0
LINE
  8
0
 10
-307.304241
 20
459.494437
 30
0.0
 11
-292.161097
 21
459.494437
 31
0.0
  0
LINE
  8
0
 10
-306.904241
 20
453.094437
 30
0.0
 11
-290.864041
 21
453.094437
 31
0.0
  0
LINE
  8
0
 10
-290.864041
 20
473.094437
 30
0.0
 11
-306.904241
 21
473.094437
 31
0.0
  0
LINE
  8
0
 10
-298.904241
 20
563.094437
 30
0.0
 11
-298.904241
 21
571.094437
 31
0.0
  0
LINE
  8
0
 10
-293.469929
 20
570.488553
 30
0.0
 11
-290.864041
 21
573.094437
 31
0.0
  0
LINE
  8
0
 10
-298.904241
 20
595.094437
 30
0.0
 11
-298.904241
 21
603.094437
 31
0.0
  0
LINE
  8
0
 10
-290.864041
 20
593.094437
 30
0.0
 11
-293.469929
 21
595.700325
 31
0.0
  0
LINE
  8
0
 10
-295.490028
 20
572.508651
 30
0.0
 11
-293.469929
 21
570.488553
 31
0.0
  0
LINE
  8
0
 10
-287.918456
 20
569.251797
 30
0.0
 11
-295.490028
 21
561.680224
 31
0.0
  0
LINE
  8
0
 10
-287.918456
 20
596.937078
 30
0.0
 11
-295.490028
 21
604.508651
 31
0.0
  0
LINE
  8
0
 10
-295.490028
 20
593.680224
 30
0.0
 11
-293.469929
 21
595.700325
 31
0.0
  0
LINE
  8
0
 10
-290.864041
 20
593.094437
 30
0.0
 11
-306.904241
 21
593.094437
 31
0.0
  0
LINE
  8
0
 10
-292.161097
 20
586.694437
 30
0.0
 11
-307.304241
 21
586.694437
 31
0.0
  0
LINE
  8
0
 10
-307.304241
 20
579.494437
 30
0.0
 11
-292.161097
 21
579.494437
 31
0.0
  0
LINE
  8
0
 10
-306.904241
 20
573.094437
 30
0.0
 11
-290.864041
 21
573.094437
 31
0.0
  0
LINE
  8
0
 10
-306.904241
 20
573.094437
 30
0.0
 11
-290.864041
 21
573.094437
 31
0.0
  0
LINE
  8
0
 10
-310.904241
 20
449.094437
 30
0.0
 11
-310.904241
 21
357.094437
 31
0.0
  0
LINE
  8
0
 10
-120.904241
 20
691.494437
 30
0.0
 11
-120.904241
 21
655.094437
 31
0.0
  0
LINE
  8
0
 10
-96.904241
 20
657.694437
 30
0.0
 11
-96.904241
 21
673.694437
 31
0.0
  0
LINE
  8
0
 10
-96.904241
 20
655.094437
 30
0.0
 11
-96.904241
 21
657.694437
 31
0.0
  0
LINE
  8
0
 10
-115.304241
 20
673.494437
 30
0.0
 11
-115.304241
 21
657.894437
 31
0.0
  0
LINE
  8
0
 10
-102.504241
 20
673.494437
 30
0.0
 11
-102.504241
 21
657.894437
 31
0.0
  0
LINE
  8
0
 10
-96.904241
 20
673.694437
 30
0.0
 11
-96.904241
 21
676.294437
 31
0.0
  0
LINE
  8
0
 10
-100.904241
 20
680.294437
 30
0.0
 11
-111.304241
 21
680.294437
 31
0.0
  0
LINE
  8
0
 10
-103.704241
 20
674.694437
 30
0.0
 11
-114.104241
 21
674.694437
 31
0.0
  0
LINE
  8
0
 10
-100.904241
 20
651.094437
 30
0.0
 11
-116.904241
 21
651.094437
 31
0.0
  0
LINE
  8
0
 10
-72.904241
 20
715.094437
 30
0.0
 11
-72.904241
 21
695.638745
 31
0.0
  0
LINE
  8
0
 10
-103.704241
 20
656.694437
 30
0.0
 11
-114.104241
 21
656.694437
 31
0.0
  0
LINE
  8
0
 10
-82.904241
 20
711.094437
 30
0.0
 11
-82.904241
 21
700.376593
 31
0.0
  0
LINE
  8
0
 10
-112.904241
 20
699.494437
 30
0.0
 11
-96.175749
 21
699.494437
 31
0.0
  0
LINE
  8
0
 10
-111.304241
 20
693.094437
 30
0.0
 11
-97.304241
 21
693.094437
 31
0.0
  0
LINE
  8
0
 10
-97.304241
 20
693.094437
 30
0.0
 11
-83.640405
 21
688.121205
 31
0.0
  0
LINE
  8
0
 10
-115.304241
 20
689.094437
 30
0.0
 11
-115.304241
 21
684.294437
 31
0.0
  0
LINE
  8
0
 10
-96.175749
 20
699.494437
 30
0.0
 11
-88.272322
 21
696.617823
 31
0.0
  0
LINE
  8
0
 10
-302.904241
 20
713.094437
 30
0.0
 11
-84.904241
 21
713.094437
 31
0.0
  0
LINE
  8
0
 10
-80.904241
 20
723.094437
 30
0.0
 11
-312.904241
 21
723.094437
 31
0.0
  0
LINE
  8
0
 10
-302.904241
 20
713.094437
 30
0.0
 11
-84.904241
 21
713.094437
 31
0.0
  0
LINE
  8
0
 10
-84.904241
 20
213.094437
 30
0.0
 11
-302.904241
 21
213.094437
 31
0.0
  0
ARC
  8
0
 10
-292.161097
 20
333.494437
 30
0.0
 40
6.0
 50
315.0
 51
90.0
  0
ARC
  8
0
 10
-296.904241
 20
323.094437
 30
0.0
 40
2.0
 50
270.0
 51
315.0
  0
ARC
  8
0
 10
-296.904241
 20
331.094437
 30
0.0
 40
2.0
 50
45.0
 51
180.0
  0
ARC
  8
0
 10
-292.161097
 20
352.694437
 30
0.0
 40
6.0
 50
270.0
 51
45.0
  0
ARC
  8
0
 10
-296.904241
 20
363.094437
 30
0.0
 40
2.0
 50
90.0
 51
180.0
  0
ARC
  8
0
 10
-296.904241
 20
355.094437
 30
0.0
 40
2.0
 50
180.0
 51
315.0
  0
ARC
  8
0
 10
-296.904241
 20
363.094437
 30
0.0
 40
2.0
 50
45.0
 51
90.0
  0
ARC
  8
0
 10
-296.904241
 20
323.094437
 30
0.0
 40
2.0
 50
180.0
 51
270.0
  0
ARC
  8
0
 10
-114.104241
 20
252.694437
 30
0.0
 40
1.2
 50
180.0
 51
189.594068
  0
ARC
  8
0
 10
-114.104241
 20
268.294437
 30
0.0
 40
1.2
 50
90.0
 51
170.405932
  0
ARC
  8
0
 10
-103.704241
 20
252.694437
 30
0.0
 40
1.2
 50
270.0
 51
350.405932
  0
ARC
  8
0
 10
-103.704241
 20
268.294437
 30
0.0
 40
1.2
 50
0.0
 51
9.594068
  0
ARC
  8
0
 10
-307.304241
 20
343.094437
 30
0.0
 40
3.6
 50
90.0
 51
270.0
  0
ARC
  8
0
 10
-306.904241
 20
357.094437
 30
0.0
 40
4.0
 50
180.0
 51
270.0
  0
ARC
  8
0
 10
-306.904241
 20
329.094437
 30
0.0
 40
4.0
 50
90.0
 51
180.0
  0
ARC
  8
0
 10
-114.104241
 20
252.694437
 30
0.0
 40
1.2
 50
189.594068
 51
270.0
  0
ARC
  8
0
 10
-103.704241
 20
252.694437
 30
0.0
 40
1.2
 50
350.405932
 51
0.0
  0
ARC
  8
0
 10
-111.304241
 20
241.894437
 30
0.0
 40
4.0
 50
90.0
 51
180.0
  0
ARC
  8
0
 10
-100.904241
 20
249.894437
 30
0.0
 40
4.0
 50
270.0
 51
0.0
  0
ARC
  8
0
 10
-84.904241
 20
215.094437
 30
0.0
 40
2.0
 50
270.0
 51
0.0
  0
ARC
  8
0
 10
-80.904241
 20
211.094437
 30
0.0
 40
8.0
 50
270.0
 51
0.0
  0
ARC
  8
0
 10
-116.904241
 20
271.094437
 30
0.0
 40
4.0
 50
90.0
 51
180.0
  0
ARC
  8
0
 10
-100.904241
 20
271.094437
 30
0.0
 40
4.0
 50
0.0
 51
90.0
  0
ARC
  8
0
 10
-103.704241
 20
268.294437
 30
0.0
 40
1.2
 50
9.594068
 51
90.0
  0
ARC
  8
0
 10
-114.104241
 20
268.294437
 30
0.0
 40
1.2
 50
170.405932
 51
180.0
  0
ARC
  8
0
 10
-111.304241
 20
237.094437
 30
0.0
 40
4.0
 50
180.0
 51
270.0
  0
ARC
  8
0
 10
-112.904241
 20
234.694437
 30
0.0
 40
8.0
 50
180.0
 51
270.0
  0
ARC
  8
0
 10
-86.904241
 20
225.812281
 30
0.0
 40
4.0
 50
0.0
 51
110.0
  0
ARC
  8
0
 10
-312.904241
 20
211.094437
 30
0.0
 40
8.0
 50
180.0
 51
270.0
  0
ARC
  8
0
 10
-302.904241
 20
221.094437
 30
0.0
 40
8.0
 50
180.0
 51
270.0
  0
ARC
  8
0
 10
-80.904241
 20
230.550129
 30
0.0
 40
8.0
 50
359.999999
 51
110.000022
  0
ARC
  8
0
 10
-292.161097
 20
453.494437
 30
0.0
 40
6.0
 50
315.0
 51
90.0
  0
ARC
  8
0
 10
-296.904241
 20
443.094437
 30
0.0
 40
2.0
 50
270.0
 51
315.0
  0
ARC
  8
0
 10
-296.904241
 20
451.094437
 30
0.0
 40
2.0
 50
45.0
 51
180.0
  0
ARC
  8
0
 10
-292.161097
 20
472.694437
 30
0.0
 40
6.0
 50
270.0
 51
45.0
  0
ARC
  8
0
 10
-296.904241
 20
483.094437
 30
0.0
 40
2.0
 50
90.0
 51
180.0
  0
ARC
  8
0
 10
-296.904241
 20
475.094437
 30
0.0
 40
2.0
 50
180.0
 51
315.0
  0
ARC
  8
0
 10
-296.904241
 20
483.094437
 30
0.0
 40
2.0
 50
45.0
 51
90.0
  0
ARC
  8
0
 10
-296.904241
 20
443.094437
 30
0.0
 40
2.0
 50
180.0
 51
270.0
  0
ARC
  8
0
 10
-306.904241
 20
477.094437
 30
0.0
 40
4.0
 50
180.0
 51
270.0
  0
ARC
  8
0
 10
-307.304241
 20
463.094437
 30
0.0
 40
3.6
 50
90.0
 51
270.0
  0
ARC
  8
0
 10
-306.904241
 20
449.094437
 30
0.0
 40
4.0
 50
90.0
 51
180.0
  0
ARC
  8
0
 10
-306.904241
 20
477.094437
 30
0.0
 40
4.0
 50
180.0
 51
270.0
  0
ARC
  8
0
 10
-292.161097
 20
573.494437
 30
0.0
 40
6.0
 50
315.0
 51
90.0
  0
ARC
  8
0
 10
-296.904241
 20
563.094437
 30
0.0
 40
2.0
 50
270.0
 51
315.0
  0
ARC
  8
0
 10
-296.904241
 20
571.094437
 30
0.0
 40
2.0
 50
45.0
 51
180.0
  0
ARC
  8
0
 10
-292.161097
 20
592.694437
 30
0.0
 40
6.0
 50
270.0
 51
45.0
  0
ARC
  8
0
 10
-296.904241
 20
603.094437
 30
0.0
 40
2.0
 50
90.0
 51
180.0
  0
ARC
  8
0
 10
-296.904241
 20
595.094437
 30
0.0
 40
2.0
 50
180.0
 51
315.0
  0
ARC
  8
0
 10
-296.904241
 20
603.094437
 30
0.0
 40
2.0
 50
45.0
 51
90.0
  0
ARC
  8
0
 10
-296.904241
 20
563.094437
 30
0.0
 40
2.0
 50
180.0
 51
270.0
  0
ARC
  8
0
 10
-306.904241
 20
569.094437
 30
0.0
 40
4.0
 50
90.0
 51
180.0
  0
ARC
  8
0
 10
-307.304241
 20
583.094437
 30
0.0
 40
3.6
 50
90.0
 51
270.0
  0
ARC
  8
0
 10
-306.904241
 20
597.094437
 30
0.0
 40
4.0
 50
180.0
 51
270.0
  0
ARC
  8
0
 10
-114.104241
 20
673.494437
 30
0.0
 40
1.2
 50
170.405932
 51
180.0
  0
ARC
  8
0
 10
-114.104241
 20
657.894437
 30
0.0
 40
1.2
 50
189.594068
 51
270.0
  0
ARC
  8
0
 10
-103.704241
 20
673.494437
 30
0.0
 40
1.2
 50
9.594068
 51
90.0
  0
ARC
  8
0
 10
-103.704241
 20
657.894437
 30
0.0
 40
1.2
 50
350.405932
 51
0.0
  0
ARC
  8
0
 10
-114.104241
 20
673.494437
 30
0.0
 40
1.2
 50
90.0
 51
170.405932
  0
ARC
  8
0
 10
-103.704241
 20
673.494437
 30
0.0
 40
1.2
 50
0.0
 51
9.594068
  0
ARC
  8
0
 10
-111.304241
 20
684.294437
 30
0.0
 40
4.0
 50
180.0
 51
270.0
  0
ARC
  8
0
 10
-100.904241
 20
676.294437
 30
0.0
 40
4.0
 50
0.0
 51
90.0
  0
ARC
  8
0
 10
-84.904241
 20
711.094437
 30
0.0
 40
2.0
 50
0.0
 51
90.0
  0
ARC
  8
0
 10
-80.904241
 20
715.094437
 30
0.0
 40
8.0
 50
0.0
 51
90.0
  0
ARC
  8
0
 10
-116.904241
 20
655.094437
 30
0.0
 40
4.0
 50
180.0
 51
270.0
  0
ARC
  8
0
 10
-100.904241
 20
655.094437
 30
0.0
 40
4.0
 50
270.0
 51
0.0
  0
ARC
  8
0
 10
-103.704241
 20
657.894437
 30
0.0
 40
1.2
 50
270.0
 51
350.405932
  0
ARC
  8
0
 10
-114.104241
 20
657.894437
 30
0.0
 40
1.2
 50
180.0
 51
189.594068
  0
ARC
  8
0
 10
-111.304241
 20
689.094437
 30
0.0
 40
4.0
 50
90.0
 51
180.0
  0
ARC
  8
0
 10
-112.904241
 20
691.494437
 30
0.0
 40
8.0
 50
90.0
 51
180.0
  0
ARC
  8
0
 10
-86.904241
 20
700.376593
 30
0.0
 40
4.0
 50
250.0
 51
0.0
  0
ARC
  8
0
 10
-80.904241
 20
695.638745
 30
0.0
 40
8.0
 50
249.999978
 51
0.000001
  0
ARC
  8
0
 10
-312.904241
 20
715.094437
 30
0.0
 40
8.0
 50
90.0
 51
180.0
  0
ARC
  8
0
 10
-302.904241
 20
705.094437
 30
0.0
 40
8.0
 50
90.0
 51
180.0
  0
LINE
  8
0
 10
-127.63243
 20
459.522116
 30
0.0
 11
-138.147991
 21
453.450342
 31
0.0
  0
LINE
  8
0
 10
-127.63243
 20
459.522116
 30
0.0
 11
-127.631661
 21
459.522559
 31
0.0
  0
LINE
  8
0
 10
-127.63243
 20
466.254726
 30
0.0
 11
-138.147991
 21
472.326499
 31
0.0
  0
LINE
  8
0
 10
-127.63243
 20
466.254726
 30
0.0
 11
-127.631661
 21
466.254282
 31
0.0
  0
LINE
  8
0
 10
-127.631661
 20
466.254282
 30
0.0
 11
-127.63243
 21
466.254726
 31
0.0
  0
LINE
  8
0
 10
-138.147991
 20
472.326499
 30
0.0
 11
-127.63243
 21
466.254726
 31
0.0
  0
LINE
  8
0
 10
-127.631661
 20
459.522559
 30
0.0
 11
-127.63243
 21
459.522116
 31
0.0
  0
LINE
  8
0
 10
-138.147991
 20
453.450342
 30
0.0
 11
-127.63243
 21
459.522116
 31
0.0
  0
LINE
  8
0
 10
-140.143988
 20
452.913203
 30
0.0
 11
-271.654929
 21
452.913203
 31
0.0
  0
LINE
  8
0
 10
-271.654929
 20
452.913203
 30
0.0
 11
-140.143988
 21
452.913203
 31
0.0
  0
LINE
  8
0
 10
-255.035393
 20
458.9004
 30
0.0
 11
-274.134034
 21
458.9004
 31
0.0
  0
LINE
  8
0
 10
-274.134034
 20
458.9004
 30
0.0
 11
-255.035393
 21
458.9004
 31
0.0
  0
LINE
  8
0
 10
-255.035393
 20
466.876442
 30
0.0
 11
-274.134034
 21
466.922106
 31
0.0
  0
LINE
  8
0
 10
-274.134034
 20
466.922106
 30
0.0
 11
-255.035393
 21
466.876442
 31
0.0
  0
LINE
  8
0
 10
-140.143988
 20
472.863639
 30
0.0
 11
-271.654929
 21
472.802696
 31
0.0
  0
LINE
  8
0
 10
-271.654929
 20
472.802696
 30
0.0
 11
-140.143988
 21
472.863639
 31
0.0
  0
LINE
  8
0
 10
-278.709253
 20
476.200495
 30
0.0
 11
-293.770608
 21
491.26185
 31
0.0
  0
LINE
  8
0
 10
-293.770608
 20
491.26185
 30
0.0
 11
-278.709253
 21
476.200495
 31
0.0
  0
LINE
  8
0
 10
-296.595357
 20
492.428301
 30
0.0
 11
-306.912247
 21
492.428301
 31
0.0
  0
LINE
  8
0
 10
-306.912247
 20
492.428301
 30
0.0
 11
-296.595357
 21
492.428301
 31
0.0
  0
LINE
  8
0
 10
-298.644592
 20
484.283806
 30
0.0
 11
-302.099447
 21
480.829746
 31
0.0
  0
LINE
  8
0
 10
-302.099447
 20
480.829746
 30
0.0
 11
-298.644592
 21
484.283806
 31
0.0
  0
LINE
  8
0
 10
-301.470135
 20
487.101404
 30
0.0
 11
-304.91625
 21
483.654495
 31
0.0
  0
LINE
  8
0
 10
-304.91625
 20
483.654495
 30
0.0
 11
-301.470135
 21
487.101404
 31
0.0
  0
LINE
  8
0
 10
-304.91625
 20
483.654495
 30
0.0
 11
-306.912247
 21
485.650492
 31
0.0
  0
LINE
  8
0
 10
-306.912247
 20
485.650492
 30
0.0
 11
-304.91625
 21
483.654495
 31
0.0
  0
LINE
  8
0
 10
-306.912247
 20
488.437101
 30
0.0
 11
-306.912247
 21
485.650492
 31
0.0
  0
LINE
  8
0
 10
-299.420107
 20
488.437101
 30
0.0
 11
-306.912247
 21
488.437101
 31
0.0
  0
LINE
  8
0
 10
-299.420107
 20
488.437101
 30
0.0
 11
-281.189152
 21
470.213298
 31
0.0
  0
LINE
  8
0
 10
-306.912247
 20
488.437101
 30
0.0
 11
-299.420107
 21
488.437101
 31
0.0
  0
LINE
  8
0
 10
-306.912247
 20
485.650492
 30
0.0
 11
-306.912247
 21
488.437101
 31
0.0
  0
LINE
  8
0
 10
-310.904241
 20
488.437101
 30
0.0
 11
-310.904241
 21
483.992194
 31
0.0
  0
LINE
  8
0
 10
-310.904241
 20
483.992194
 30
0.0
 11
-310.904241
 21
488.437101
 31
0.0
  0
LINE
  8
0
 10
-307.741793
 20
480.829746
 30
0.0
 11
-310.904241
 21
483.992194
 31
0.0
  0
LINE
  8
0
 10
-310.904241
 20
483.992194
 30
0.0
 11
-307.741793
 21
480.829746
 31
0.0
  0
LINE
  8
0
 10
-310.904241
 20
442.196637
 30
0.0
 11
-310.904241
 21
437.752524
 31
0.0
  0
LINE
  8
0
 10
-310.904241
 20
437.752524
 30
0.0
 11
-310.904241
 21
442.196637
 31
0.0
  0
LINE
  8
0
 10
-278.709253
 20
449.988336
 30
0.0
 11
-293.770608
 21
434.927775
 31
0.0
  0
LINE
  8
0
 10
-293.770608
 20
434.927775
 30
0.0
 11
-278.709253
 21
449.988336
 31
0.0
  0
LINE
  8
0
 10
-306.912247
 20
433.76053
 30
0.0
 11
-296.595357
 21
433.76053
 31
0.0
  0
LINE
  8
0
 10
-296.595357
 20
433.76053
 30
0.0
 11
-306.912247
 21
433.76053
 31
0.0
  0
LINE
  8
0
 10
-281.189152
 20
455.976327
 30
0.0
 11
-299.420107
 21
437.752524
 31
0.0
  0
LINE
  8
0
 10
-299.420107
 20
437.752524
 30
0.0
 11
-281.189152
 21
455.976327
 31
0.0
  0
LINE
  8
0
 10
-306.912247
 20
437.752524
 30
0.0
 11
-299.420107
 21
437.752524
 31
0.0
  0
LINE
  8
0
 10
-306.912247
 20
440.539133
 30
0.0
 11
-306.912247
 21
437.752524
 31
0.0
  0
LINE
  8
0
 10
-304.91625
 20
442.534336
 30
0.0
 11
-306.912247
 21
440.539133
 31
0.0
  0
LINE
  8
0
 10
-306.912247
 20
440.539133
 30
0.0
 11
-304.91625
 21
442.534336
 31
0.0
  0
LINE
  8
0
 10
-306.912247
 20
437.752524
 30
0.0
 11
-306.912247
 21
440.539133
 31
0.0
  0
LINE
  8
0
 10
-299.420107
 20
437.752524
 30
0.0
 11
-306.912247
 21
437.752524
 31
0.0
  0
LINE
  8
0
 10
-304.91625
 20
442.534336
 30
0.0
 11
-301.470135
 21
439.088221
 31
0.0
  0
LINE
  8
0
 10
-301.470135
 20
439.088221
 30
0.0
 11
-304.91625
 21
442.534336
 31
0.0
  0
LINE
  8
0
 10
-301.470135
 20
439.088221
 30
0.0
 11
-301.285792
 21
438.926921
 31
0.0
  0
LINE
  8
0
 10
-301.285792
 20
438.926921
 30
0.0
 11
-301.470135
 21
439.088221
 31
0.0
  0
LINE
  8
0
 10
-301.285792
 20
438.926921
 30
0.0
 11
-301.086351
 21
438.788663
 31
0.0
  0
LINE
  8
0
 10
-301.086351
 20
438.788663
 30
0.0
 11
-301.285792
 21
438.926921
 31
0.0
  0
LINE
  8
0
 10
-301.086351
 20
438.788663
 30
0.0
 11
-300.878964
 21
438.673448
 31
0.0
  0
LINE
  8
0
 10
-300.878964
 20
438.673448
 30
0.0
 11
-301.086351
 21
438.788663
 31
0.0
  0
LINE
  8
0
 10
-300.878964
 20
438.673448
 30
0.0
 11
-300.648535
 21
438.589222
 31
0.0
  0
LINE
  8
0
 10
-300.648535
 20
438.589222
 30
0.0
 11
-300.878964
 21
438.673448
 31
0.0
  0
LINE
  8
0
 10
-300.648535
 20
438.589222
 30
0.0
 11
-300.418105
 21
438.53519
 31
0.0
  0
LINE
  8
0
 10
-300.418105
 20
438.53519
 30
0.0
 11
-300.648535
 21
438.589222
 31
0.0
  0
LINE
  8
0
 10
-300.418105
 20
438.53519
 30
0.0
 11
-300.180524
 21
438.504202
 31
0.0
  0
LINE
  8
0
 10
-300.180524
 20
438.504202
 30
0.0
 11
-300.418105
 21
438.53519
 31
0.0
  0
LINE
  8
0
 10
-300.180524
 20
438.504202
 30
0.0
 11
-299.934203
 21
438.504202
 31
0.0
  0
LINE
  8
0
 10
-299.934203
 20
438.504202
 30
0.0
 11
-300.180524
 21
438.504202
 31
0.0
  0
LINE
  8
0
 10
-299.934203
 20
438.504202
 30
0.0
 11
-299.696622
 21
438.53519
 31
0.0
  0
LINE
  8
0
 10
-299.696622
 20
438.53519
 30
0.0
 11
-299.934203
 21
438.504202
 31
0.0
  0
LINE
  8
0
 10
-299.696622
 20
438.53519
 30
0.0
 11
-299.466192
 21
438.589222
 31
0.0
  0
LINE
  8
0
 10
-299.466192
 20
438.589222
 30
0.0
 11
-299.696622
 21
438.53519
 31
0.0
  0
LINE
  8
0
 10
-299.466192
 20
438.589222
 30
0.0
 11
-299.235763
 21
438.673448
 31
0.0
  0
LINE
  8
0
 10
-299.235763
 20
438.673448
 30
0.0
 11
-299.466192
 21
438.589222
 31
0.0
  0
LINE
  8
0
 10
-299.235763
 20
438.673448
 30
0.0
 11
-299.021225
 21
438.788663
 31
0.0
  0
LINE
  8
0
 10
-299.021225
 20
438.788663
 30
0.0
 11
-299.235763
 21
438.673448
 31
0.0
  0
LINE
  8
0
 10
-299.021225
 20
438.788663
 30
0.0
 11
-298.828935
 21
438.926921
 31
0.0
  0
LINE
  8
0
 10
-298.828935
 20
438.926921
 30
0.0
 11
-299.021225
 21
438.788663
 31
0.0
  0
LINE
  8
0
 10
-298.828935
 20
438.926921
 30
0.0
 11
-298.644592
 21
439.088221
 31
0.0
  0
LINE
  8
0
 10
-298.644592
 20
439.088221
 30
0.0
 11
-298.828935
 21
438.926921
 31
0.0
  0
LINE
  8
0
 10
-298.644592
 20
439.088221
 30
0.0
 11
-298.484086
 21
439.264619
 31
0.0
  0
LINE
  8
0
 10
-298.484086
 20
439.264619
 30
0.0
 11
-298.644592
 21
439.088221
 31
0.0
  0
LINE
  8
0
 10
-298.484086
 20
439.264619
 30
0.0
 11
-298.345828
 21
439.46406
 31
0.0
  0
LINE
  8
0
 10
-298.345828
 20
439.46406
 30
0.0
 11
-298.484086
 21
439.264619
 31
0.0
  0
LINE
  8
0
 10
-298.345828
 20
439.46406
 30
0.0
 11
-298.237764
 21
439.679393
 31
0.0
  0
LINE
  8
0
 10
-298.237764
 20
439.679393
 30
0.0
 11
-298.345828
 21
439.46406
 31
0.0
  0
LINE
  8
0
 10
-298.237764
 20
439.679393
 30
0.0
 11
-298.153538
 21
439.901876
 31
0.0
  0
LINE
  8
0
 10
-298.153538
 20
439.901876
 30
0.0
 11
-298.237764
 21
439.679393
 31
0.0
  0
LINE
  8
0
 10
-298.153538
 20
439.901876
 30
0.0
 11
-298.092355
 21
440.139457
 31
0.0
  0
LINE
  8
0
 10
-298.092355
 20
440.139457
 30
0.0
 11
-298.153538
 21
439.901876
 31
0.0
  0
LINE
  8
0
 10
-298.092355
 20
440.139457
 30
0.0
 11
-298.061366
 21
440.377833
 31
0.0
  0
LINE
  8
0
 10
-298.061366
 20
440.377833
 30
0.0
 11
-298.092355
 21
440.139457
 31
0.0
  0
LINE
  8
0
 10
-298.061366
 20
440.377833
 30
0.0
 11
-298.061366
 21
440.615413
 31
0.0
  0
LINE
  8
0
 10
-298.061366
 20
440.615413
 30
0.0
 11
-298.061366
 21
440.377833
 31
0.0
  0
LINE
  8
0
 10
-298.061366
 20
440.615413
 30
0.0
 11
-298.092355
 21
440.853789
 31
0.0
  0
LINE
  8
0
 10
-298.092355
 20
440.853789
 30
0.0
 11
-298.061366
 21
440.615413
 31
0.0
  0
LINE
  8
0
 10
-298.092355
 20
440.853789
 30
0.0
 11
-298.153538
 21
441.09137
 31
0.0
  0
LINE
  8
0
 10
-298.153538
 20
441.09137
 30
0.0
 11
-298.092355
 21
440.853789
 31
0.0
  0
LINE
  8
0
 10
-298.153538
 20
441.09137
 30
0.0
 11
-298.237764
 21
441.313854
 31
0.0
  0
LINE
  8
0
 10
-298.237764
 20
441.313854
 30
0.0
 11
-298.153538
 21
441.09137
 31
0.0
  0
LINE
  8
0
 10
-298.237764
 20
441.313854
 30
0.0
 11
-298.345828
 21
441.529186
 31
0.0
  0
LINE
  8
0
 10
-298.345828
 20
441.529186
 30
0.0
 11
-298.237764
 21
441.313854
 31
0.0
  0
LINE
  8
0
 10
-298.345828
 20
441.529186
 30
0.0
 11
-298.484086
 21
441.728627
 31
0.0
  0
LINE
  8
0
 10
-298.484086
 20
441.728627
 30
0.0
 11
-298.345828
 21
441.529186
 31
0.0
  0
LINE
  8
0
 10
-302.099447
 20
445.359879
 30
0.0
 11
-298.644592
 21
441.905025
 31
0.0
  0
LINE
  8
0
 10
-302.352919
 20
445.59746
 30
0.0
 11
-302.099447
 21
445.359879
 31
0.0
  0
LINE
  8
0
 10
-302.62864
 20
445.804847
 30
0.0
 11
-302.352919
 21
445.59746
 31
0.0
  0
LINE
  8
0
 10
-302.928199
 20
445.997136
 30
0.0
 11
-302.62864
 21
445.804847
 31
0.0
  0
LINE
  8
0
 10
-303.235703
 20
446.150491
 30
0.0
 11
-302.928199
 21
445.997136
 31
0.0
  0
LINE
  8
0
 10
-303.55751
 20
446.288749
 30
0.0
 11
-303.235703
 21
446.150491
 31
0.0
  0
LINE
  8
0
 10
-303.888057
 20
446.388072
 30
0.0
 11
-303.55751
 21
446.288749
 31
0.0
  0
LINE
  8
0
 10
-304.225756
 20
446.465147
 30
0.0
 11
-303.888057
 21
446.388072
 31
0.0
  0
LINE
  8
0
 10
-304.5714
 20
446.511233
 30
0.0
 11
-304.225756
 21
446.465147
 31
0.0
  0
LINE
  8
0
 10
-304.91625
 20
446.52633
 30
0.0
 11
-304.5714
 21
446.511233
 31
0.0
  0
LINE
  8
0
 10
-305.26984
 20
446.511233
 30
0.0
 11
-304.91625
 21
446.52633
 31
0.0
  0
LINE
  8
0
 10
-305.615484
 20
446.465147
 30
0.0
 11
-305.26984
 21
446.511233
 31
0.0
  0
LINE
  8
0
 10
-305.953183
 20
446.388072
 30
0.0
 11
-305.615484
 21
446.465147
 31
0.0
  0
LINE
  8
0
 10
-306.282936
 20
446.288749
 30
0.0
 11
-305.953183
 21
446.388072
 31
0.0
  0
LINE
  8
0
 10
-306.605537
 20
446.150491
 30
0.0
 11
-306.282936
 21
446.288749
 31
0.0
  0
LINE
  8
0
 10
-306.912247
 20
445.997136
 30
0.0
 11
-306.605537
 21
446.150491
 31
0.0
  0
LINE
  8
0
 10
-307.211805
 20
445.804847
 30
0.0
 11
-306.912247
 21
445.997136
 31
0.0
  0
LINE
  8
0
 10
-307.488321
 20
445.59746
 30
0.0
 11
-307.211805
 21
445.804847
 31
0.0
  0
LINE
  8
0
 10
-307.741793
 20
445.359879
 30
0.0
 11
-307.488321
 21
445.59746
 31
0.0
  0
LINE
  8
0
 10
-310.904241
 20
442.196637
 30
0.0
 11
-307.741793
 21
445.359879
 31
0.0
  0
LINE
  8
0
 10
-307.741793
 20
445.359879
 30
0.0
 11
-310.904241
 21
442.196637
 31
0.0
  0
LINE
  8
0
 10
-307.488321
 20
445.59746
 30
0.0
 11
-307.741793
 21
445.359879
 31
0.0
  0
LINE
  8
0
 10
-307.211805
 20
445.804847
 30
0.0
 11
-307.488321
 21
445.59746
 31
0.0
  0
LINE
  8
0
 10
-306.912247
 20
445.997136
 30
0.0
 11
-307.211805
 21
445.804847
 31
0.0
  0
LINE
  8
0
 10
-306.605537
 20
446.150491
 30
0.0
 11
-306.912247
 21
445.997136
 31
0.0
  0
LINE
  8
0
 10
-306.282936
 20
446.288749
 30
0.0
 11
-306.605537
 21
446.150491
 31
0.0
  0
LINE
  8
0
 10
-305.953183
 20
446.388072
 30
0.0
 11
-306.282936
 21
446.288749
 31
0.0
  0
LINE
  8
0
 10
-305.615484
 20
446.465147
 30
0.0
 11
-305.953183
 21
446.388072
 31
0.0
  0
LINE
  8
0
 10
-305.26984
 20
446.511233
 30
0.0
 11
-305.615484
 21
446.465147
 31
0.0
  0
LINE
  8
0
 10
-304.91625
 20
446.52633
 30
0.0
 11
-305.26984
 21
446.511233
 31
0.0
  0
LINE
  8
0
 10
-304.5714
 20
446.511233
 30
0.0
 11
-304.91625
 21
446.52633
 31
0.0
  0
LINE
  8
0
 10
-304.225756
 20
446.465147
 30
0.0
 11
-304.5714
 21
446.511233
 31
0.0
  0
LINE
  8
0
 10
-303.888057
 20
446.388072
 30
0.0
 11
-304.225756
 21
446.465147
 31
0.0
  0
LINE
  8
0
 10
-303.55751
 20
446.288749
 30
0.0
 11
-303.888057
 21
446.388072
 31
0.0
  0
LINE
  8
0
 10
-303.235703
 20
446.150491
 30
0.0
 11
-303.55751
 21
446.288749
 31
0.0
  0
LINE
  8
0
 10
-302.928199
 20
445.997136
 30
0.0
 11
-303.235703
 21
446.150491
 31
0.0
  0
LINE
  8
0
 10
-302.62864
 20
445.804847
 30
0.0
 11
-302.928199
 21
445.997136
 31
0.0
  0
LINE
  8
0
 10
-302.352919
 20
445.59746
 30
0.0
 11
-302.62864
 21
445.804847
 31
0.0
  0
LINE
  8
0
 10
-302.099447
 20
445.359879
 30
0.0
 11
-302.352919
 21
445.59746
 31
0.0
  0
LINE
  8
0
 10
-298.644592
 20
441.905025
 30
0.0
 11
-302.099447
 21
445.359879
 31
0.0
  0
LINE
  8
0
 10
-298.484086
 20
441.728627
 30
0.0
 11
-298.644592
 21
441.905025
 31
0.0
  0
LINE
  8
0
 10
-298.644592
 20
441.905025
 30
0.0
 11
-298.484086
 21
441.728627
 31
0.0
  0
LINE
  8
0
 10
-274.134034
 20
458.9004
 30
0.0
 11
-274.656076
 21
458.885302
 31
0.0
  0
LINE
  8
0
 10
-274.656076
 20
458.885302
 30
0.0
 11
-274.134034
 21
458.9004
 31
0.0
  0
LINE
  8
0
 10
-274.656076
 20
458.885302
 30
0.0
 11
-275.178118
 21
458.847162
 31
0.0
  0
LINE
  8
0
 10
-275.178118
 20
458.847162
 30
0.0
 11
-274.656076
 21
458.885302
 31
0.0
  0
LINE
  8
0
 10
-275.178118
 20
458.847162
 30
0.0
 11
-275.693009
 21
458.778033
 31
0.0
  0
LINE
  8
0
 10
-275.693009
 20
458.778033
 30
0.0
 11
-275.178118
 21
458.847162
 31
0.0
  0
LINE
  8
0
 10
-275.693009
 20
458.778033
 30
0.0
 11
-276.207105
 21
458.677916
 31
0.0
  0
LINE
  8
0
 10
-276.207105
 20
458.677916
 30
0.0
 11
-275.693009
 21
458.778033
 31
0.0
  0
LINE
  8
0
 10
-276.207105
 20
458.677916
 30
0.0
 11
-276.71405
 21
458.55555
 31
0.0
  0
LINE
  8
0
 10
-276.71405
 20
458.55555
 30
0.0
 11
-276.207105
 21
458.677916
 31
0.0
  0
LINE
  8
0
 10
-276.71405
 20
458.55555
 30
0.0
 11
-277.220201
 21
458.409346
 31
0.0
  0
LINE
  8
0
 10
-277.220201
 20
458.409346
 30
0.0
 11
-276.71405
 21
458.55555
 31
0.0
  0
LINE
  8
0
 10
-277.220201
 20
458.409346
 30
0.0
 11
-277.711254
 21
458.232948
 31
0.0
  0
LINE
  8
0
 10
-277.711254
 20
458.232948
 30
0.0
 11
-277.220201
 21
458.409346
 31
0.0
  0
LINE
  8
0
 10
-277.711254
 20
458.232948
 30
0.0
 11
-278.195157
 21
458.033507
 31
0.0
  0
LINE
  8
0
 10
-278.195157
 20
458.033507
 30
0.0
 11
-277.711254
 21
458.232948
 31
0.0
  0
LINE
  8
0
 10
-278.195157
 20
458.033507
 30
0.0
 11
-278.663167
 21
457.811024
 31
0.0
  0
LINE
  8
0
 10
-278.663167
 20
457.811024
 30
0.0
 11
-278.195157
 21
458.033507
 31
0.0
  0
LINE
  8
0
 10
-278.663167
 20
457.811024
 30
0.0
 11
-279.124026
 21
457.564702
 31
0.0
  0
LINE
  8
0
 10
-279.124026
 20
457.564702
 30
0.0
 11
-278.663167
 21
457.811024
 31
0.0
  0
LINE
  8
0
 10
-279.124026
 20
457.564702
 30
0.0
 11
-279.568994
 21
457.288981
 31
0.0
  0
LINE
  8
0
 10
-279.568994
 20
457.288981
 30
0.0
 11
-279.124026
 21
457.564702
 31
0.0
  0
LINE
  8
0
 10
-279.568994
 20
457.288981
 30
0.0
 11
-279.998864
 21
456.989423
 31
0.0
  0
LINE
  8
0
 10
-279.998864
 20
456.989423
 30
0.0
 11
-279.568994
 21
457.288981
 31
0.0
  0
LINE
  8
0
 10
-279.998864
 20
456.989423
 30
0.0
 11
-280.413637
 21
456.674767
 31
0.0
  0
LINE
  8
0
 10
-280.413637
 20
456.674767
 30
0.0
 11
-279.998864
 21
456.989423
 31
0.0
  0
LINE
  8
0
 10
-280.413637
 20
456.674767
 30
0.0
 11
-280.812519
 21
456.337069
 31
0.0
  0
LINE
  8
0
 10
-280.812519
 20
456.337069
 30
0.0
 11
-280.413637
 21
456.674767
 31
0.0
  0
LINE
  8
0
 10
-280.812519
 20
456.337069
 30
0.0
 11
-281.189152
 21
455.976327
 31
0.0
  0
LINE
  8
0
 10
-281.189152
 20
455.976327
 30
0.0
 11
-280.812519
 21
456.337069
 31
0.0
  0
LINE
  8
0
 10
-280.812519
 20
469.901615
 30
0.0
 11
-281.189152
 21
470.213298
 31
0.0
  0
LINE
  8
0
 10
-280.413637
 20
469.579147
 30
0.0
 11
-280.812519
 21
469.901615
 31
0.0
  0
LINE
  8
0
 10
-279.998864
 20
469.27084
 30
0.0
 11
-280.413637
 21
469.579147
 31
0.0
  0
LINE
  8
0
 10
-279.568994
 20
468.97784
 30
0.0
 11
-279.998864
 21
469.27084
 31
0.0
  0
LINE
  8
0
 10
-279.124026
 20
468.700701
 30
0.0
 11
-279.568994
 21
468.97784
 31
0.0
  0
LINE
  8
0
 10
-278.663167
 20
468.439617
 30
0.0
 11
-279.124026
 21
468.700701
 31
0.0
  0
LINE
  8
0
 10
-278.195157
 20
468.199665
 30
0.0
 11
-278.663167
 21
468.439617
 31
0.0
  0
LINE
  8
0
 10
-277.711254
 20
467.976587
 30
0.0
 11
-278.195157
 21
468.199665
 31
0.0
  0
LINE
  8
0
 10
-277.220201
 20
467.774754
 30
0.0
 11
-277.711254
 21
467.976587
 31
0.0
  0
LINE
  8
0
 10
-276.71405
 20
467.591281
 30
0.0
 11
-277.220201
 21
467.774754
 31
0.0
  0
LINE
  8
0
 10
-276.207105
 20
467.431394
 30
0.0
 11
-276.71405
 21
467.591281
 31
0.0
  0
LINE
  8
0
 10
-275.693009
 20
467.292697
 30
0.0
 11
-276.207105
 21
467.431394
 31
0.0
  0
LINE
  8
0
 10
-275.178118
 20
467.176661
 30
0.0
 11
-275.693009
 21
467.292697
 31
0.0
  0
LINE
  8
0
 10
-274.656076
 20
467.05249
 30
0.0
 11
-275.178118
 21
467.176661
 31
0.0
  0
LINE
  8
0
 10
-274.134034
 20
466.922106
 30
0.0
 11
-274.656076
 21
467.05249
 31
0.0
  0
LINE
  8
0
 10
-274.656076
 20
467.05249
 30
0.0
 11
-274.134034
 21
466.922106
 31
0.0
  0
LINE
  8
0
 10
-275.178118
 20
467.176661
 30
0.0
 11
-274.656076
 21
467.05249
 31
0.0
  0
LINE
  8
0
 10
-275.693009
 20
467.292697
 30
0.0
 11
-275.178118
 21
467.176661
 31
0.0
  0
LINE
  8
0
 10
-276.207105
 20
467.431394
 30
0.0
 11
-275.693009
 21
467.292697
 31
0.0
  0
LINE
  8
0
 10
-276.71405
 20
467.591281
 30
0.0
 11
-276.207105
 21
467.431394
 31
0.0
  0
LINE
  8
0
 10
-277.220201
 20
467.774754
 30
0.0
 11
-276.71405
 21
467.591281
 31
0.0
  0
LINE
  8
0
 10
-277.711254
 20
467.976587
 30
0.0
 11
-277.220201
 21
467.774754
 31
0.0
  0
LINE
  8
0
 10
-278.195157
 20
468.199665
 30
0.0
 11
-277.711254
 21
467.976587
 31
0.0
  0
LINE
  8
0
 10
-278.663167
 20
468.439617
 30
0.0
 11
-278.195157
 21
468.199665
 31
0.0
  0
LINE
  8
0
 10
-279.124026
 20
468.700701
 30
0.0
 11
-278.663167
 21
468.439617
 31
0.0
  0
LINE
  8
0
 10
-279.568994
 20
468.97784
 30
0.0
 11
-279.124026
 21
468.700701
 31
0.0
  0
LINE
  8
0
 10
-279.998864
 20
469.27084
 30
0.0
 11
-279.568994
 21
468.97784
 31
0.0
  0
LINE
  8
0
 10
-280.413637
 20
469.579147
 30
0.0
 11
-279.998864
 21
469.27084
 31
0.0
  0
LINE
  8
0
 10
-280.812519
 20
469.901615
 30
0.0
 11
-280.413637
 21
469.579147
 31
0.0
  0
LINE
  8
0
 10
-281.189152
 20
470.213298
 30
0.0
 11
-280.812519
 21
469.901615
 31
0.0
  0
LINE
  8
0
 10
-298.644592
 20
484.283806
 30
0.0
 11
-298.484086
 21
484.460204
 31
0.0
  0
LINE
  8
0
 10
-298.484086
 20
484.460204
 30
0.0
 11
-298.644592
 21
484.283806
 31
0.0
  0
LINE
  8
0
 10
-298.484086
 20
484.460204
 30
0.0
 11
-298.345828
 21
484.659645
 31
0.0
  0
LINE
  8
0
 10
-298.345828
 20
484.659645
 30
0.0
 11
-298.484086
 21
484.460204
 31
0.0
  0
LINE
  8
0
 10
-298.345828
 20
484.659645
 30
0.0
 11
-298.237764
 21
484.874977
 31
0.0
  0
LINE
  8
0
 10
-298.237764
 20
484.874977
 30
0.0
 11
-298.345828
 21
484.659645
 31
0.0
  0
LINE
  8
0
 10
-298.237764
 20
484.874977
 30
0.0
 11
-298.153538
 21
485.097461
 31
0.0
  0
LINE
  8
0
 10
-298.153538
 20
485.097461
 30
0.0
 11
-298.237764
 21
484.874977
 31
0.0
  0
LINE
  8
0
 10
-298.153538
 20
485.097461
 30
0.0
 11
-298.092355
 21
485.335836
 31
0.0
  0
LINE
  8
0
 10
-298.092355
 20
485.335836
 30
0.0
 11
-298.153538
 21
485.097461
 31
0.0
  0
LINE
  8
0
 10
-298.092355
 20
485.335836
 30
0.0
 11
-298.061366
 21
485.573417
 31
0.0
  0
LINE
  8
0
 10
-298.061366
 20
485.573417
 30
0.0
 11
-298.092355
 21
485.335836
 31
0.0
  0
LINE
  8
0
 10
-298.061366
 20
485.573417
 30
0.0
 11
-298.061366
 21
485.811793
 31
0.0
  0
LINE
  8
0
 10
-298.061366
 20
485.811793
 30
0.0
 11
-298.061366
 21
485.573417
 31
0.0
  0
LINE
  8
0
 10
-298.061366
 20
485.811793
 30
0.0
 11
-298.092355
 21
486.049374
 31
0.0
  0
LINE
  8
0
 10
-298.092355
 20
486.049374
 30
0.0
 11
-298.061366
 21
485.811793
 31
0.0
  0
LINE
  8
0
 10
-298.092355
 20
486.049374
 30
0.0
 11
-298.153538
 21
486.286955
 31
0.0
  0
LINE
  8
0
 10
-298.153538
 20
486.286955
 30
0.0
 11
-298.092355
 21
486.049374
 31
0.0
  0
LINE
  8
0
 10
-298.153538
 20
486.286955
 30
0.0
 11
-298.237764
 21
486.510233
 31
0.0
  0
LINE
  8
0
 10
-298.237764
 20
486.510233
 30
0.0
 11
-298.153538
 21
486.286955
 31
0.0
  0
LINE
  8
0
 10
-298.237764
 20
486.510233
 30
0.0
 11
-298.345828
 21
486.724771
 31
0.0
  0
LINE
  8
0
 10
-298.345828
 20
486.724771
 30
0.0
 11
-298.237764
 21
486.510233
 31
0.0
  0
LINE
  8
0
 10
-298.345828
 20
486.724771
 30
0.0
 11
-298.484086
 21
486.924212
 31
0.0
  0
LINE
  8
0
 10
-298.484086
 20
486.924212
 30
0.0
 11
-298.345828
 21
486.724771
 31
0.0
  0
LINE
  8
0
 10
-298.484086
 20
486.924212
 30
0.0
 11
-298.644592
 21
487.101404
 31
0.0
  0
LINE
  8
0
 10
-298.644592
 20
487.101404
 30
0.0
 11
-298.484086
 21
486.924212
 31
0.0
  0
LINE
  8
0
 10
-298.828935
 20
487.26191
 30
0.0
 11
-298.644592
 21
487.101404
 31
0.0
  0
LINE
  8
0
 10
-299.021225
 20
487.400168
 30
0.0
 11
-298.828935
 21
487.26191
 31
0.0
  0
LINE
  8
0
 10
-299.235763
 20
487.515383
 30
0.0
 11
-299.021225
 21
487.400168
 31
0.0
  0
LINE
  8
0
 10
-299.466192
 20
487.599609
 30
0.0
 11
-299.235763
 21
487.515383
 31
0.0
  0
LINE
  8
0
 10
-299.696622
 20
487.65364
 30
0.0
 11
-299.466192
 21
487.599609
 31
0.0
  0
LINE
  8
0
 10
-299.934203
 20
487.684629
 30
0.0
 11
-299.696622
 21
487.65364
 31
0.0
  0
LINE
  8
0
 10
-300.180524
 20
487.684629
 30
0.0
 11
-299.934203
 21
487.684629
 31
0.0
  0
LINE
  8
0
 10
-300.418105
 20
487.65364
 30
0.0
 11
-300.180524
 21
487.684629
 31
0.0
  0
LINE
  8
0
 10
-300.648535
 20
487.599609
 30
0.0
 11
-300.418105
 21
487.65364
 31
0.0
  0
LINE
  8
0
 10
-300.878964
 20
487.515383
 30
0.0
 11
-300.648535
 21
487.599609
 31
0.0
  0
LINE
  8
0
 10
-301.086351
 20
487.400168
 30
0.0
 11
-300.878964
 21
487.515383
 31
0.0
  0
LINE
  8
0
 10
-301.285792
 20
487.26191
 30
0.0
 11
-301.086351
 21
487.400168
 31
0.0
  0
LINE
  8
0
 10
-301.470135
 20
487.101404
 30
0.0
 11
-301.285792
 21
487.26191
 31
0.0
  0
LINE
  8
0
 10
-301.285792
 20
487.26191
 30
0.0
 11
-301.470135
 21
487.101404
 31
0.0
  0
LINE
  8
0
 10
-301.086351
 20
487.400168
 30
0.0
 11
-301.285792
 21
487.26191
 31
0.0
  0
LINE
  8
0
 10
-300.878964
 20
487.515383
 30
0.0
 11
-301.086351
 21
487.400168
 31
0.0
  0
LINE
  8
0
 10
-300.648535
 20
487.599609
 30
0.0
 11
-300.878964
 21
487.515383
 31
0.0
  0
LINE
  8
0
 10
-300.418105
 20
487.65364
 30
0.0
 11
-300.648535
 21
487.599609
 31
0.0
  0
LINE
  8
0
 10
-300.180524
 20
487.684629
 30
0.0
 11
-300.418105
 21
487.65364
 31
0.0
  0
LINE
  8
0
 10
-299.934203
 20
487.684629
 30
0.0
 11
-300.180524
 21
487.684629
 31
0.0
  0
LINE
  8
0
 10
-299.696622
 20
487.65364
 30
0.0
 11
-299.934203
 21
487.684629
 31
0.0
  0
LINE
  8
0
 10
-299.466192
 20
487.599609
 30
0.0
 11
-299.696622
 21
487.65364
 31
0.0
  0
LINE
  8
0
 10
-299.235763
 20
487.515383
 30
0.0
 11
-299.466192
 21
487.599609
 31
0.0
  0
LINE
  8
0
 10
-299.021225
 20
487.400168
 30
0.0
 11
-299.235763
 21
487.515383
 31
0.0
  0
LINE
  8
0
 10
-298.828935
 20
487.26191
 30
0.0
 11
-299.021225
 21
487.400168
 31
0.0
  0
LINE
  8
0
 10
-298.644592
 20
487.101404
 30
0.0
 11
-298.828935
 21
487.26191
 31
0.0
  0
LINE
  8
0
 10
-293.770608
 20
491.26185
 30
0.0
 11
-294.031232
 21
491.499431
 31
0.0
  0
LINE
  8
0
 10
-294.031232
 20
491.499431
 30
0.0
 11
-293.770608
 21
491.26185
 31
0.0
  0
LINE
  8
0
 10
-294.031232
 20
491.499431
 30
0.0
 11
-294.307748
 21
491.706818
 31
0.0
  0
LINE
  8
0
 10
-294.307748
 20
491.706818
 30
0.0
 11
-294.031232
 21
491.499431
 31
0.0
  0
LINE
  8
0
 10
-294.307748
 20
491.706818
 30
0.0
 11
-294.59936
 21
491.899107
 31
0.0
  0
LINE
  8
0
 10
-294.59936
 20
491.899107
 30
0.0
 11
-294.307748
 21
491.706818
 31
0.0
  0
LINE
  8
0
 10
-294.59936
 20
491.899107
 30
0.0
 11
-294.906865
 21
492.059613
 31
0.0
  0
LINE
  8
0
 10
-294.906865
 20
492.059613
 30
0.0
 11
-294.59936
 21
491.899107
 31
0.0
  0
LINE
  8
0
 10
-294.906865
 20
492.059613
 30
0.0
 11
-295.228672
 21
492.19072
 31
0.0
  0
LINE
  8
0
 10
-295.228672
 20
492.19072
 30
0.0
 11
-294.906865
 21
492.059613
 31
0.0
  0
LINE
  8
0
 10
-295.228672
 20
492.19072
 30
0.0
 11
-295.56637
 21
492.297989
 31
0.0
  0
LINE
  8
0
 10
-295.56637
 20
492.297989
 30
0.0
 11
-295.228672
 21
492.19072
 31
0.0
  0
LINE
  8
0
 10
-295.56637
 20
492.297989
 30
0.0
 11
-295.904863
 21
492.367118
 31
0.0
  0
LINE
  8
0
 10
-295.904863
 20
492.367118
 30
0.0
 11
-295.56637
 21
492.297989
 31
0.0
  0
LINE
  8
0
 10
-295.904863
 20
492.367118
 30
0.0
 11
-296.249713
 21
492.413204
 31
0.0
  0
LINE
  8
0
 10
-296.249713
 20
492.413204
 30
0.0
 11
-295.904863
 21
492.367118
 31
0.0
  0
LINE
  8
0
 10
-296.249713
 20
492.413204
 30
0.0
 11
-296.595357
 21
492.428301
 31
0.0
  0
LINE
  8
0
 10
-296.595357
 20
492.428301
 30
0.0
 11
-296.249713
 21
492.413204
 31
0.0
  0
LINE
  8
0
 10
-306.912247
 20
492.428301
 30
0.0
 11
-307.265837
 21
492.413204
 31
0.0
  0
LINE
  8
0
 10
-307.265837
 20
492.413204
 30
0.0
 11
-306.912247
 21
492.428301
 31
0.0
  0
LINE
  8
0
 10
-307.265837
 20
492.413204
 30
0.0
 11
-307.610687
 21
492.367118
 31
0.0
  0
LINE
  8
0
 10
-307.610687
 20
492.367118
 30
0.0
 11
-307.265837
 21
492.413204
 31
0.0
  0
LINE
  8
0
 10
-307.610687
 20
492.367118
 30
0.0
 11
-307.948386
 21
492.297989
 31
0.0
  0
LINE
  8
0
 10
-307.948386
 20
492.297989
 30
0.0
 11
-307.610687
 21
492.367118
 31
0.0
  0
LINE
  8
0
 10
-307.948386
 20
492.297989
 30
0.0
 11
-308.278933
 21
492.19072
 31
0.0
  0
LINE
  8
0
 10
-308.278933
 20
492.19072
 30
0.0
 11
-307.948386
 21
492.297989
 31
0.0
  0
LINE
  8
0
 10
-308.278933
 20
492.19072
 30
0.0
 11
-308.601534
 21
492.059613
 31
0.0
  0
LINE
  8
0
 10
-308.601534
 20
492.059613
 30
0.0
 11
-308.278933
 21
492.19072
 31
0.0
  0
LINE
  8
0
 10
-308.601534
 20
492.059613
 30
0.0
 11
-308.908244
 21
491.899107
 31
0.0
  0
LINE
  8
0
 10
-308.908244
 20
491.899107
 30
0.0
 11
-308.601534
 21
492.059613
 31
0.0
  0
LINE
  8
0
 10
-308.908244
 20
491.899107
 30
0.0
 11
-309.207802
 21
491.706818
 31
0.0
  0
LINE
  8
0
 10
-309.207802
 20
491.706818
 30
0.0
 11
-308.908244
 21
491.899107
 31
0.0
  0
LINE
  8
0
 10
-309.207802
 20
491.706818
 30
0.0
 11
-309.484318
 21
491.499431
 31
0.0
  0
LINE
  8
0
 10
-309.484318
 20
491.499431
 30
0.0
 11
-309.207802
 21
491.706818
 31
0.0
  0
LINE
  8
0
 10
-309.484318
 20
491.499431
 30
0.0
 11
-309.736996
 21
491.26185
 31
0.0
  0
LINE
  8
0
 10
-309.736996
 20
491.26185
 30
0.0
 11
-309.484318
 21
491.499431
 31
0.0
  0
LINE
  8
0
 10
-309.736996
 20
491.26185
 30
0.0
 11
-309.975371
 21
491.008378
 31
0.0
  0
LINE
  8
0
 10
-309.975371
 20
491.008378
 30
0.0
 11
-309.736996
 21
491.26185
 31
0.0
  0
LINE
  8
0
 10
-309.975371
 20
491.008378
 30
0.0
 11
-310.182758
 21
490.731862
 31
0.0
  0
LINE
  8
0
 10
-310.182758
 20
490.731862
 30
0.0
 11
-309.975371
 21
491.008378
 31
0.0
  0
LINE
  8
0
 10
-310.182758
 20
490.731862
 30
0.0
 11
-310.374253
 21
490.432304
 31
0.0
  0
LINE
  8
0
 10
-310.374253
 20
490.432304
 30
0.0
 11
-310.182758
 21
490.731862
 31
0.0
  0
LINE
  8
0
 10
-310.374253
 20
490.432304
 30
0.0
 11
-310.535554
 21
490.125594
 31
0.0
  0
LINE
  8
0
 10
-310.535554
 20
490.125594
 30
0.0
 11
-310.374253
 21
490.432304
 31
0.0
  0
LINE
  8
0
 10
-310.535554
 20
490.125594
 30
0.0
 11
-310.665866
 21
489.802992
 31
0.0
  0
LINE
  8
0
 10
-310.665866
 20
489.802992
 30
0.0
 11
-310.535554
 21
490.125594
 31
0.0
  0
LINE
  8
0
 10
-310.665866
 20
489.802992
 30
0.0
 11
-310.773929
 21
489.47324
 31
0.0
  0
LINE
  8
0
 10
-310.773929
 20
489.47324
 30
0.0
 11
-310.665866
 21
489.802992
 31
0.0
  0
LINE
  8
0
 10
-310.773929
 20
489.47324
 30
0.0
 11
-310.843058
 21
489.135541
 31
0.0
  0
LINE
  8
0
 10
-310.843058
 20
489.135541
 30
0.0
 11
-310.773929
 21
489.47324
 31
0.0
  0
LINE
  8
0
 10
-310.843058
 20
489.135541
 30
0.0
 11
-310.889144
 21
488.789897
 31
0.0
  0
LINE
  8
0
 10
-310.889144
 20
488.789897
 30
0.0
 11
-310.843058
 21
489.135541
 31
0.0
  0
LINE
  8
0
 10
-310.889144
 20
488.789897
 30
0.0
 11
-310.904241
 21
488.437101
 31
0.0
  0
LINE
  8
0
 10
-310.904241
 20
488.437101
 30
0.0
 11
-310.889144
 21
488.789897
 31
0.0
  0
LINE
  8
0
 10
-307.741793
 20
480.829746
 30
0.0
 11
-307.488321
 21
480.59137
 31
0.0
  0
LINE
  8
0
 10
-307.488321
 20
480.59137
 30
0.0
 11
-307.741793
 21
480.829746
 31
0.0
  0
LINE
  8
0
 10
-307.488321
 20
480.59137
 30
0.0
 11
-307.211805
 21
480.383984
 31
0.0
  0
LINE
  8
0
 10
-307.211805
 20
480.383984
 30
0.0
 11
-307.488321
 21
480.59137
 31
0.0
  0
LINE
  8
0
 10
-307.211805
 20
480.383984
 30
0.0
 11
-306.912247
 21
480.192489
 31
0.0
  0
LINE
  8
0
 10
-306.912247
 20
480.192489
 30
0.0
 11
-307.211805
 21
480.383984
 31
0.0
  0
LINE
  8
0
 10
-306.912247
 20
480.192489
 30
0.0
 11
-306.605537
 21
480.039134
 31
0.0
  0
LINE
  8
0
 10
-306.605537
 20
480.039134
 30
0.0
 11
-306.912247
 21
480.192489
 31
0.0
  0
LINE
  8
0
 10
-306.605537
 20
480.039134
 30
0.0
 11
-306.282936
 21
479.900876
 31
0.0
  0
LINE
  8
0
 10
-306.282936
 20
479.900876
 30
0.0
 11
-306.605537
 21
480.039134
 31
0.0
  0
LINE
  8
0
 10
-306.282936
 20
479.900876
 30
0.0
 11
-305.953183
 21
479.800759
 31
0.0
  0
LINE
  8
0
 10
-305.953183
 20
479.800759
 30
0.0
 11
-306.282936
 21
479.900876
 31
0.0
  0
LINE
  8
0
 10
-305.953183
 20
479.800759
 30
0.0
 11
-305.615484
 21
479.724478
 31
0.0
  0
LINE
  8
0
 10
-305.615484
 20
479.724478
 30
0.0
 11
-305.953183
 21
479.800759
 31
0.0
  0
LINE
  8
0
 10
-305.615484
 20
479.724478
 30
0.0
 11
-305.26984
 21
479.678392
 31
0.0
  0
LINE
  8
0
 10
-305.26984
 20
479.678392
 30
0.0
 11
-305.615484
 21
479.724478
 31
0.0
  0
LINE
  8
0
 10
-305.26984
 20
479.678392
 30
0.0
 11
-304.91625
 21
479.662501
 31
0.0
  0
LINE
  8
0
 10
-304.91625
 20
479.662501
 30
0.0
 11
-305.26984
 21
479.678392
 31
0.0
  0
LINE
  8
0
 10
-304.91625
 20
479.662501
 30
0.0
 11
-304.5714
 21
479.678392
 31
0.0
  0
LINE
  8
0
 10
-304.5714
 20
479.678392
 30
0.0
 11
-304.91625
 21
479.662501
 31
0.0
  0
LINE
  8
0
 10
-304.5714
 20
479.678392
 30
0.0
 11
-304.225756
 21
479.724478
 31
0.0
  0
LINE
  8
0
 10
-304.225756
 20
479.724478
 30
0.0
 11
-304.5714
 21
479.678392
 31
0.0
  0
LINE
  8
0
 10
-304.225756
 20
479.724478
 30
0.0
 11
-303.888057
 21
479.800759
 31
0.0
  0
LINE
  8
0
 10
-303.888057
 20
479.800759
 30
0.0
 11
-304.225756
 21
479.724478
 31
0.0
  0
LINE
  8
0
 10
-303.888057
 20
479.800759
 30
0.0
 11
-303.55751
 21
479.900876
 31
0.0
  0
LINE
  8
0
 10
-303.55751
 20
479.900876
 30
0.0
 11
-303.888057
 21
479.800759
 31
0.0
  0
LINE
  8
0
 10
-303.55751
 20
479.900876
 30
0.0
 11
-303.235703
 21
480.039134
 31
0.0
  0
LINE
  8
0
 10
-303.235703
 20
480.039134
 30
0.0
 11
-303.55751
 21
479.900876
 31
0.0
  0
LINE
  8
0
 10
-303.235703
 20
480.039134
 30
0.0
 11
-302.928199
 21
480.192489
 31
0.0
  0
LINE
  8
0
 10
-302.928199
 20
480.192489
 30
0.0
 11
-303.235703
 21
480.039134
 31
0.0
  0
LINE
  8
0
 10
-302.928199
 20
480.192489
 30
0.0
 11
-302.62864
 21
480.383984
 31
0.0
  0
LINE
  8
0
 10
-302.62864
 20
480.383984
 30
0.0
 11
-302.928199
 21
480.192489
 31
0.0
  0
LINE
  8
0
 10
-302.62864
 20
480.383984
 30
0.0
 11
-302.352919
 21
480.59137
 31
0.0
  0
LINE
  8
0
 10
-302.352919
 20
480.59137
 30
0.0
 11
-302.62864
 21
480.383984
 31
0.0
  0
LINE
  8
0
 10
-302.352919
 20
480.59137
 30
0.0
 11
-302.099447
 21
480.829746
 31
0.0
  0
LINE
  8
0
 10
-302.099447
 20
480.829746
 30
0.0
 11
-302.352919
 21
480.59137
 31
0.0
  0
LINE
  8
0
 10
-138.462647
 20
472.4878
 30
0.0
 11
-138.147991
 21
472.326499
 31
0.0
  0
LINE
  8
0
 10
-138.785248
 20
472.626058
 30
0.0
 11
-138.462647
 21
472.4878
 31
0.0
  0
LINE
  8
0
 10
-139.115001
 20
472.725381
 30
0.0
 11
-138.785248
 21
472.626058
 31
0.0
  0
LINE
  8
0
 10
-139.4527
 20
472.802456
 30
0.0
 11
-139.115001
 21
472.725381
 31
0.0
  0
LINE
  8
0
 10
-139.798344
 20
472.848542
 30
0.0
 11
-139.4527
 21
472.802456
 31
0.0
  0
LINE
  8
0
 10
-140.143988
 20
472.863639
 30
0.0
 11
-139.798344
 21
472.848542
 31
0.0
  0
LINE
  8
0
 10
-139.798344
 20
472.848542
 30
0.0
 11
-140.143988
 21
472.863639
 31
0.0
  0
LINE
  8
0
 10
-139.4527
 20
472.802456
 30
0.0
 11
-139.798344
 21
472.848542
 31
0.0
  0
LINE
  8
0
 10
-139.115001
 20
472.725381
 30
0.0
 11
-139.4527
 21
472.802456
 31
0.0
  0
LINE
  8
0
 10
-138.785248
 20
472.626058
 30
0.0
 11
-139.115001
 21
472.725381
 31
0.0
  0
LINE
  8
0
 10
-138.462647
 20
472.4878
 30
0.0
 11
-138.785248
 21
472.626058
 31
0.0
  0
LINE
  8
0
 10
-138.147991
 20
472.326499
 30
0.0
 11
-138.462647
 21
472.4878
 31
0.0
  0
LINE
  8
0
 10
-139.798344
 20
452.9283
 30
0.0
 11
-140.143988
 21
452.913203
 31
0.0
  0
LINE
  8
0
 10
-139.4527
 20
452.974386
 30
0.0
 11
-139.798344
 21
452.9283
 31
0.0
  0
LINE
  8
0
 10
-139.115001
 20
453.051461
 30
0.0
 11
-139.4527
 21
452.974386
 31
0.0
  0
LINE
  8
0
 10
-138.785248
 20
453.150784
 30
0.0
 11
-139.115001
 21
453.051461
 31
0.0
  0
LINE
  8
0
 10
-138.462647
 20
453.289041
 30
0.0
 11
-138.785248
 21
453.150784
 31
0.0
  0
LINE
  8
0
 10
-138.147991
 20
453.450342
 30
0.0
 11
-138.462647
 21
453.289041
 31
0.0
  0
LINE
  8
0
 10
-138.462647
 20
453.289041
 30
0.0
 11
-138.147991
 21
453.450342
 31
0.0
  0
LINE
  8
0
 10
-138.785248
 20
453.150784
 30
0.0
 11
-138.462647
 21
453.289041
 31
0.0
  0
LINE
  8
0
 10
-139.115001
 20
453.051461
 30
0.0
 11
-138.785248
 21
453.150784
 31
0.0
  0
LINE
  8
0
 10
-139.4527
 20
452.974386
 30
0.0
 11
-139.115001
 21
453.051461
 31
0.0
  0
LINE
  8
0
 10
-139.798344
 20
452.9283
 30
0.0
 11
-139.4527
 21
452.974386
 31
0.0
  0
LINE
  8
0
 10
-140.143988
 20
452.913203
 30
0.0
 11
-139.798344
 21
452.9283
 31
0.0
  0
LINE
  8
0
 10
-271.654929
 20
452.913203
 30
0.0
 11
-272.176971
 21
452.898106
 31
0.0
  0
LINE
  8
0
 10
-272.176971
 20
452.898106
 30
0.0
 11
-271.654929
 21
452.913203
 31
0.0
  0
LINE
  8
0
 10
-272.176971
 20
452.898106
 30
0.0
 11
-272.699013
 21
452.859171
 31
0.0
  0
LINE
  8
0
 10
-272.699013
 20
452.859171
 30
0.0
 11
-272.176971
 21
452.898106
 31
0.0
  0
LINE
  8
0
 10
-272.699013
 20
452.859171
 30
0.0
 11
-273.21311
 21
452.790042
 31
0.0
  0
LINE
  8
0
 10
-273.21311
 20
452.790042
 30
0.0
 11
-272.699013
 21
452.859171
 31
0.0
  0
LINE
  8
0
 10
-273.21311
 20
452.790042
 30
0.0
 11
-273.727206
 21
452.69787
 31
0.0
  0
LINE
  8
0
 10
-273.727206
 20
452.69787
 30
0.0
 11
-273.21311
 21
452.790042
 31
0.0
  0
LINE
  8
0
 10
-273.727206
 20
452.69787
 30
0.0
 11
-274.234151
 21
452.575504
 31
0.0
  0
LINE
  8
0
 10
-274.234151
 20
452.575504
 30
0.0
 11
-273.727206
 21
452.69787
 31
0.0
  0
LINE
  8
0
 10
-274.234151
 20
452.575504
 30
0.0
 11
-274.741096
 21
452.422149
 31
0.0
  0
LINE
  8
0
 10
-274.741096
 20
452.422149
 30
0.0
 11
-274.234151
 21
452.575504
 31
0.0
  0
LINE
  8
0
 10
-274.741096
 20
452.422149
 30
0.0
 11
-275.23215
 21
452.252903
 31
0.0
  0
LINE
  8
0
 10
-275.23215
 20
452.252903
 30
0.0
 11
-274.741096
 21
452.422149
 31
0.0
  0
LINE
  8
0
 10
-275.23215
 20
452.252903
 30
0.0
 11
-275.716052
 21
452.053462
 31
0.0
  0
LINE
  8
0
 10
-275.716052
 20
452.053462
 30
0.0
 11
-275.23215
 21
452.252903
 31
0.0
  0
LINE
  8
0
 10
-275.716052
 20
452.053462
 30
0.0
 11
-276.184062
 21
451.823032
 31
0.0
  0
LINE
  8
0
 10
-276.184062
 20
451.823032
 30
0.0
 11
-275.716052
 21
452.053462
 31
0.0
  0
LINE
  8
0
 10
-276.184062
 20
451.823032
 30
0.0
 11
-276.644922
 21
451.577506
 31
0.0
  0
LINE
  8
0
 10
-276.644922
 20
451.577506
 30
0.0
 11
-276.184062
 21
451.823032
 31
0.0
  0
LINE
  8
0
 10
-276.644922
 20
451.577506
 30
0.0
 11
-277.089889
 21
451.30099
 31
0.0
  0
LINE
  8
0
 10
-277.089889
 20
451.30099
 30
0.0
 11
-276.644922
 21
451.577506
 31
0.0
  0
LINE
  8
0
 10
-277.089889
 20
451.30099
 30
0.0
 11
-277.519759
 21
451.009378
 31
0.0
  0
LINE
  8
0
 10
-277.519759
 20
451.009378
 30
0.0
 11
-277.089889
 21
451.30099
 31
0.0
  0
LINE
  8
0
 10
-277.519759
 20
451.009378
 30
0.0
 11
-277.934533
 21
450.686776
 31
0.0
  0
LINE
  8
0
 10
-277.934533
 20
450.686776
 30
0.0
 11
-277.519759
 21
451.009378
 31
0.0
  0
LINE
  8
0
 10
-277.934533
 20
450.686776
 30
0.0
 11
-278.333414
 21
450.349078
 31
0.0
  0
LINE
  8
0
 10
-278.333414
 20
450.349078
 30
0.0
 11
-277.934533
 21
450.686776
 31
0.0
  0
LINE
  8
0
 10
-278.333414
 20
450.349078
 30
0.0
 11
-278.709253
 21
449.988336
 31
0.0
  0
LINE
  8
0
 10
-278.709253
 20
449.988336
 30
0.0
 11
-278.333414
 21
450.349078
 31
0.0
  0
LINE
  8
0
 10
-294.031232
 20
434.6894
 30
0.0
 11
-293.770608
 21
434.927775
 31
0.0
  0
LINE
  8
0
 10
-294.307748
 20
434.482013
 30
0.0
 11
-294.031232
 21
434.6894
 31
0.0
  0
LINE
  8
0
 10
-294.59936
 20
434.290518
 30
0.0
 11
-294.307748
 21
434.482013
 31
0.0
  0
LINE
  8
0
 10
-294.906865
 20
434.129217
 30
0.0
 11
-294.59936
 21
434.290518
 31
0.0
  0
LINE
  8
0
 10
-295.228672
 20
433.998906
 30
0.0
 11
-294.906865
 21
434.129217
 31
0.0
  0
LINE
  8
0
 10
-295.56637
 20
433.890842
 30
0.0
 11
-295.228672
 21
433.998906
 31
0.0
  0
LINE
  8
0
 10
-295.904863
 20
433.821713
 30
0.0
 11
-295.56637
 21
433.890842
 31
0.0
  0
LINE
  8
0
 10
-296.249713
 20
433.775627
 30
0.0
 11
-295.904863
 21
433.821713
 31
0.0
  0
LINE
  8
0
 10
-296.249713
 20
433.775627
 30
0.0
 11
-296.595357
 21
433.76053
 31
0.0
  0
LINE
  8
0
 10
-294.031232
 20
434.6894
 30
0.0
 11
-293.770608
 21
434.927775
 31
0.0
  0
LINE
  8
0
 10
-294.307748
 20
434.482013
 30
0.0
 11
-294.031232
 21
434.6894
 31
0.0
  0
LINE
  8
0
 10
-294.59936
 20
434.290518
 30
0.0
 11
-294.307748
 21
434.482013
 31
0.0
  0
LINE
  8
0
 10
-294.906865
 20
434.129217
 30
0.0
 11
-294.59936
 21
434.290518
 31
0.0
  0
LINE
  8
0
 10
-295.228672
 20
433.998906
 30
0.0
 11
-294.906865
 21
434.129217
 31
0.0
  0
LINE
  8
0
 10
-295.56637
 20
433.890842
 30
0.0
 11
-295.228672
 21
433.998906
 31
0.0
  0
LINE
  8
0
 10
-295.904863
 20
433.821713
 30
0.0
 11
-295.56637
 21
433.890842
 31
0.0
  0
LINE
  8
0
 10
-296.249713
 20
433.775627
 30
0.0
 11
-295.904863
 21
433.821713
 31
0.0
  0
LINE
  8
0
 10
-296.595357
 20
433.76053
 30
0.0
 11
-296.249713
 21
433.775627
 31
0.0
  0
LINE
  8
0
 10
-307.265837
 20
433.775627
 30
0.0
 11
-306.912247
 21
433.76053
 31
0.0
  0
LINE
  8
0
 10
-307.610687
 20
433.821713
 30
0.0
 11
-307.265837
 21
433.775627
 31
0.0
  0
LINE
  8
0
 10
-307.948386
 20
433.890842
 30
0.0
 11
-307.610687
 21
433.821713
 31
0.0
  0
LINE
  8
0
 10
-308.278933
 20
433.998906
 30
0.0
 11
-307.948386
 21
433.890842
 31
0.0
  0
LINE
  8
0
 10
-308.601534
 20
434.129217
 30
0.0
 11
-308.278933
 21
433.998906
 31
0.0
  0
LINE
  8
0
 10
-308.908244
 20
434.290518
 30
0.0
 11
-308.601534
 21
434.129217
 31
0.0
  0
LINE
  8
0
 10
-309.207802
 20
434.482013
 30
0.0
 11
-308.908244
 21
434.290518
 31
0.0
  0
LINE
  8
0
 10
-309.484318
 20
434.6894
 30
0.0
 11
-309.207802
 21
434.482013
 31
0.0
  0
LINE
  8
0
 10
-309.736996
 20
434.927775
 30
0.0
 11
-309.484318
 21
434.6894
 31
0.0
  0
LINE
  8
0
 10
-309.975371
 20
435.180453
 30
0.0
 11
-309.736996
 21
434.927775
 31
0.0
  0
LINE
  8
0
 10
-310.182758
 20
435.456969
 30
0.0
 11
-309.975371
 21
435.180453
 31
0.0
  0
LINE
  8
0
 10
-310.374253
 20
435.756527
 30
0.0
 11
-310.182758
 21
435.456969
 31
0.0
  0
LINE
  8
0
 10
-310.535554
 20
436.063237
 30
0.0
 11
-310.374253
 21
435.756527
 31
0.0
  0
LINE
  8
0
 10
-310.665866
 20
436.385838
 30
0.0
 11
-310.535554
 21
436.063237
 31
0.0
  0
LINE
  8
0
 10
-310.773929
 20
436.716386
 30
0.0
 11
-310.665866
 21
436.385838
 31
0.0
  0
LINE
  8
0
 10
-310.843058
 20
437.054084
 30
0.0
 11
-310.773929
 21
436.716386
 31
0.0
  0
LINE
  8
0
 10
-310.889144
 20
437.398934
 30
0.0
 11
-310.843058
 21
437.054084
 31
0.0
  0
LINE
  8
0
 10
-310.889144
 20
437.398934
 30
0.0
 11
-310.904241
 21
437.752524
 31
0.0
  0
LINE
  8
0
 10
-307.265837
 20
433.775627
 30
0.0
 11
-306.912247
 21
433.76053
 31
0.0
  0
LINE
  8
0
 10
-307.610687
 20
433.821713
 30
0.0
 11
-307.265837
 21
433.775627
 31
0.0
  0
LINE
  8
0
 10
-307.948386
 20
433.890842
 30
0.0
 11
-307.610687
 21
433.821713
 31
0.0
  0
LINE
  8
0
 10
-308.278933
 20
433.998906
 30
0.0
 11
-307.948386
 21
433.890842
 31
0.0
  0
LINE
  8
0
 10
-308.601534
 20
434.129217
 30
0.0
 11
-308.278933
 21
433.998906
 31
0.0
  0
LINE
  8
0
 10
-308.908244
 20
434.290518
 30
0.0
 11
-308.601534
 21
434.129217
 31
0.0
  0
LINE
  8
0
 10
-309.207802
 20
434.482013
 30
0.0
 11
-308.908244
 21
434.290518
 31
0.0
  0
LINE
  8
0
 10
-309.484318
 20
434.6894
 30
0.0
 11
-309.207802
 21
434.482013
 31
0.0
  0
LINE
  8
0
 10
-309.736996
 20
434.927775
 30
0.0
 11
-309.484318
 21
434.6894
 31
0.0
  0
LINE
  8
0
 10
-309.975371
 20
435.180453
 30
0.0
 11
-309.736996
 21
434.927775
 31
0.0
  0
LINE
  8
0
 10
-310.182758
 20
435.456969
 30
0.0
 11
-309.975371
 21
435.180453
 31
0.0
  0
LINE
  8
0
 10
-310.374253
 20
435.756527
 30
0.0
 11
-310.182758
 21
435.456969
 31
0.0
  0
LINE
  8
0
 10
-310.535554
 20
436.063237
 30
0.0
 11
-310.374253
 21
435.756527
 31
0.0
  0
LINE
  8
0
 10
-310.665866
 20
436.385838
 30
0.0
 11
-310.535554
 21
436.063237
 31
0.0
  0
LINE
  8
0
 10
-310.773929
 20
436.716386
 30
0.0
 11
-310.665866
 21
436.385838
 31
0.0
  0
LINE
  8
0
 10
-310.843058
 20
437.054084
 30
0.0
 11
-310.773929
 21
436.716386
 31
0.0
  0
LINE
  8
0
 10
-310.889144
 20
437.398934
 30
0.0
 11
-310.904241
 21
437.752524
 31
0.0
  0
LINE
  8
0
 10
-310.843058
 20
437.054084
 30
0.0
 11
-310.889144
 21
437.398934
 31
0.0
  0
LINE
  8
0
 10
-278.709253
 20
476.200495
 30
0.0
 11
-278.333414
 21
475.839753
 31
0.0
  0
LINE
  8
0
 10
-278.333414
 20
475.839753
 30
0.0
 11
-278.709253
 21
476.200495
 31
0.0
  0
LINE
  8
0
 10
-278.333414
 20
475.839753
 30
0.0
 11
-277.934533
 21
475.502055
 31
0.0
  0
LINE
  8
0
 10
-277.934533
 20
475.502055
 30
0.0
 11
-278.333414
 21
475.839753
 31
0.0
  0
LINE
  8
0
 10
-277.934533
 20
475.502055
 30
0.0
 11
-277.519759
 21
475.179453
 31
0.0
  0
LINE
  8
0
 10
-277.519759
 20
475.179453
 30
0.0
 11
-277.934533
 21
475.502055
 31
0.0
  0
LINE
  8
0
 10
-277.519759
 20
475.179453
 30
0.0
 11
-277.089889
 21
474.887841
 31
0.0
  0
LINE
  8
0
 10
-277.089889
 20
474.887841
 30
0.0
 11
-277.519759
 21
475.179453
 31
0.0
  0
LINE
  8
0
 10
-277.089889
 20
474.887841
 30
0.0
 11
-276.644922
 21
474.611325
 31
0.0
  0
LINE
  8
0
 10
-276.644922
 20
474.611325
 30
0.0
 11
-277.089889
 21
474.887841
 31
0.0
  0
LINE
  8
0
 10
-276.644922
 20
474.611325
 30
0.0
 11
-276.184062
 21
474.259191
 31
0.0
  0
LINE
  8
0
 10
-276.184062
 20
474.259191
 30
0.0
 11
-276.644922
 21
474.611325
 31
0.0
  0
LINE
  8
0
 10
-276.184062
 20
474.259191
 30
0.0
 11
-275.716052
 21
474.028761
 31
0.0
  0
LINE
  8
0
 10
-275.716052
 20
474.028761
 30
0.0
 11
-276.184062
 21
474.259191
 31
0.0
  0
LINE
  8
0
 10
-275.716052
 20
474.028761
 30
0.0
 11
-275.23215
 21
473.82932
 31
0.0
  0
LINE
  8
0
 10
-275.23215
 20
473.82932
 30
0.0
 11
-275.716052
 21
474.028761
 31
0.0
  0
LINE
  8
0
 10
-275.23215
 20
473.82932
 30
0.0
 11
-274.741096
 21
473.554261
 31
0.0
  0
LINE
  8
0
 10
-274.741096
 20
473.554261
 30
0.0
 11
-275.23215
 21
473.82932
 31
0.0
  0
LINE
  8
0
 10
-274.741096
 20
473.554261
 30
0.0
 11
-274.234151
 21
473.293504
 31
0.0
  0
LINE
  8
0
 10
-274.234151
 20
473.293504
 30
0.0
 11
-274.741096
 21
473.554261
 31
0.0
  0
LINE
  8
0
 10
-273.727206
 20
473.072476
 30
0.0
 11
-274.234151
 21
473.293504
 31
0.0
  0
LINE
  8
0
 10
-273.21311
 20
472.865751
 30
0.0
 11
-273.727206
 21
473.072476
 31
0.0
  0
LINE
  8
0
 10
-272.699013
 20
472.796622
 30
0.0
 11
-273.21311
 21
472.865751
 31
0.0
  0
LINE
  8
0
 10
-272.176971
 20
472.818587
 30
0.0
 11
-272.699013
 21
472.796622
 31
0.0
  0
LINE
  8
0
 10
-271.654929
 20
472.802696
 30
0.0
 11
-272.176971
 21
472.818587
 31
0.0
  0
LINE
  8
0
 10
-272.176971
 20
472.818587
 30
0.0
 11
-271.654929
 21
472.802696
 31
0.0
  0
LINE
  8
0
 10
-272.699013
 20
472.796622
 30
0.0
 11
-272.176971
 21
472.818587
 31
0.0
  0
LINE
  8
0
 10
-273.21311
 20
472.865751
 30
0.0
 11
-272.699013
 21
472.796622
 31
0.0
  0
LINE
  8
0
 10
-273.727206
 20
473.072476
 30
0.0
 11
-273.21311
 21
472.865751
 31
0.0
  0
LINE
  8
0
 10
-274.234151
 20
473.293504
 30
0.0
 11
-273.727206
 21
473.072476
 31
0.0
  0
LINE
  8
0
 10
-140.143988
 20
456.905197
 30
0.0
 11
-243.060205
 21
456.905197
 31
0.0
  0
LINE
  8
0
 10
-129.781013
 20
462.892394
 30
0.0
 11
-140.143988
 21
456.905197
 31
0.0
  0
LINE
  8
0
 10
-140.143988
 20
468.872439
 30
0.0
 11
-129.781013
 21
462.892394
 31
0.0
  0
LINE
  8
0
 10
-129.781013
 20
462.892394
 30
0.0
 11
-140.143988
 21
468.872439
 31
0.0
  0
LINE
  8
0
 10
-140.143988
 20
456.905197
 30
0.0
 11
-129.781013
 21
462.892394
 31
0.0
  0
LINE
  8
0
 10
-243.060205
 20
456.905197
 30
0.0
 11
-140.143988
 21
456.905197
 31
0.0
  0
LINE
  8
0
 10
-255.035393
 20
458.9004
 30
0.0
 11
-254.690543
 21
458.916291
 31
0.0
  0
LINE
  8
0
 10
-254.690543
 20
458.916291
 30
0.0
 11
-255.035393
 21
458.9004
 31
0.0
  0
LINE
  8
0
 10
-254.690543
 20
458.916291
 30
0.0
 11
-254.344898
 21
458.962377
 31
0.0
  0
LINE
  8
0
 10
-254.344898
 20
458.962377
 30
0.0
 11
-254.690543
 21
458.916291
 31
0.0
  0
LINE
  8
0
 10
-254.344898
 20
458.962377
 30
0.0
 11
-253.999254
 21
459.031506
 31
0.0
  0
LINE
  8
0
 10
-253.999254
 20
459.031506
 30
0.0
 11
-254.344898
 21
458.962377
 31
0.0
  0
LINE
  8
0
 10
-253.999254
 20
459.031506
 30
0.0
 11
-253.669501
 21
459.138775
 31
0.0
  0
LINE
  8
0
 10
-253.669501
 20
459.138775
 30
0.0
 11
-253.999254
 21
459.031506
 31
0.0
  0
LINE
  8
0
 10
-253.669501
 20
459.138775
 30
0.0
 11
-253.3469
 21
459.269087
 31
0.0
  0
LINE
  8
0
 10
-253.3469
 20
459.269087
 30
0.0
 11
-253.669501
 21
459.138775
 31
0.0
  0
LINE
  8
0
 10
-253.3469
 20
459.269087
 30
0.0
 11
-253.039395
 21
459.430388
 31
0.0
  0
LINE
  8
0
 10
-253.039395
 20
459.430388
 30
0.0
 11
-253.3469
 21
459.269087
 31
0.0
  0
LINE
  8
0
 10
-253.039395
 20
459.430388
 30
0.0
 11
-252.747783
 21
459.621883
 31
0.0
  0
LINE
  8
0
 10
-252.747783
 20
459.621883
 30
0.0
 11
-253.039395
 21
459.430388
 31
0.0
  0
LINE
  8
0
 10
-252.747783
 20
459.621883
 30
0.0
 11
-252.472062
 21
459.829269
 31
0.0
  0
LINE
  8
0
 10
-252.472062
 20
459.829269
 30
0.0
 11
-252.747783
 21
459.621883
 31
0.0
  0
LINE
  8
0
 10
-252.472062
 20
459.829269
 30
0.0
 11
-252.210643
 21
460.067645
 31
0.0
  0
LINE
  8
0
 10
-252.210643
 20
460.067645
 30
0.0
 11
-252.472062
 21
459.829269
 31
0.0
  0
LINE
  8
0
 10
-252.210643
 20
460.067645
 30
0.0
 11
-251.980214
 21
460.321117
 31
0.0
  0
LINE
  8
0
 10
-251.980214
 20
460.321117
 30
0.0
 11
-252.210643
 21
460.067645
 31
0.0
  0
LINE
  8
0
 10
-251.980214
 20
460.321117
 30
0.0
 11
-251.765676
 21
460.596838
 31
0.0
  0
LINE
  8
0
 10
-251.765676
 20
460.596838
 30
0.0
 11
-251.980214
 21
460.321117
 31
0.0
  0
LINE
  8
0
 10
-251.765676
 20
460.596838
 30
0.0
 11
-251.581332
 21
460.896397
 31
0.0
  0
LINE
  8
0
 10
-251.581332
 20
460.896397
 30
0.0
 11
-251.765676
 21
460.596838
 31
0.0
  0
LINE
  8
0
 10
-251.581332
 20
460.896397
 30
0.0
 11
-251.420032
 21
461.203901
 31
0.0
  0
LINE
  8
0
 10
-251.420032
 20
461.203901
 30
0.0
 11
-251.581332
 21
460.896397
 31
0.0
  0
LINE
  8
0
 10
-251.420032
 20
461.203901
 30
0.0
 11
-251.28972
 21
461.525708
 31
0.0
  0
LINE
  8
0
 10
-251.28972
 20
461.525708
 30
0.0
 11
-251.420032
 21
461.203901
 31
0.0
  0
LINE
  8
0
 10
-251.28972
 20
461.525708
 30
0.0
 11
-251.182451
 21
461.856255
 31
0.0
  0
LINE
  8
0
 10
-251.182451
 20
461.856255
 30
0.0
 11
-251.28972
 21
461.525708
 31
0.0
  0
LINE
  8
0
 10
-251.182451
 20
461.856255
 30
0.0
 11
-251.105376
 21
462.193954
 31
0.0
  0
LINE
  8
0
 10
-251.105376
 20
462.193954
 30
0.0
 11
-251.182451
 21
461.856255
 31
0.0
  0
LINE
  8
0
 10
-254.690543
 20
466.861345
 30
0.0
 11
-255.035393
 21
466.876442
 31
0.0
  0
LINE
  8
0
 10
-254.344898
 20
466.815259
 30
0.0
 11
-254.690543
 21
466.861345
 31
0.0
  0
LINE
  8
0
 10
-253.999254
 20
466.74613
 30
0.0
 11
-254.344898
 21
466.815259
 31
0.0
  0
LINE
  8
0
 10
-253.669501
 20
466.638067
 30
0.0
 11
-253.999254
 21
466.74613
 31
0.0
  0
LINE
  8
0
 10
-253.3469
 20
466.507755
 30
0.0
 11
-253.669501
 21
466.638067
 31
0.0
  0
LINE
  8
0
 10
-253.039395
 20
466.346454
 30
0.0
 11
-253.3469
 21
466.507755
 31
0.0
  0
LINE
  8
0
 10
-252.747783
 20
466.154959
 30
0.0
 11
-253.039395
 21
466.346454
 31
0.0
  0
LINE
  8
0
 10
-252.472062
 20
465.947572
 30
0.0
 11
-252.747783
 21
466.154959
 31
0.0
  0
LINE
  8
0
 10
-252.210643
 20
465.709992
 30
0.0
 11
-252.472062
 21
465.947572
 31
0.0
  0
LINE
  8
0
 10
-251.980214
 20
465.456519
 30
0.0
 11
-252.210643
 21
465.709992
 31
0.0
  0
LINE
  8
0
 10
-251.765676
 20
465.180003
 30
0.0
 11
-251.980214
 21
465.456519
 31
0.0
  0
LINE
  8
0
 10
-251.581332
 20
464.880445
 30
0.0
 11
-251.765676
 21
465.180003
 31
0.0
  0
LINE
  8
0
 10
-251.420032
 20
464.573735
 30
0.0
 11
-251.581332
 21
464.880445
 31
0.0
  0
LINE
  8
0
 10
-251.28972
 20
464.251134
 30
0.0
 11
-251.420032
 21
464.573735
 31
0.0
  0
LINE
  8
0
 10
-251.182451
 20
463.921381
 30
0.0
 11
-251.28972
 21
464.251134
 31
0.0
  0
LINE
  8
0
 10
-251.105376
 20
463.582888
 30
0.0
 11
-251.182451
 21
463.921381
 31
0.0
  0
LINE
  8
0
 10
-251.05929
 20
463.238038
 30
0.0
 11
-251.105376
 21
463.582888
 31
0.0
  0
LINE
  8
0
 10
-251.044193
 20
462.892394
 30
0.0
 11
-251.05929
 21
463.238038
 31
0.0
  0
LINE
  8
0
 10
-251.05929
 20
462.539598
 30
0.0
 11
-251.044193
 21
462.892394
 31
0.0
  0
LINE
  8
0
 10
-251.105376
 20
462.193954
 30
0.0
 11
-251.05929
 21
462.539598
 31
0.0
  0
LINE
  8
0
 10
-251.05929
 20
462.539598
 30
0.0
 11
-251.105376
 21
462.193954
 31
0.0
  0
LINE
  8
0
 10
-251.044193
 20
462.892394
 30
0.0
 11
-251.05929
 21
462.539598
 31
0.0
  0
LINE
  8
0
 10
-251.05929
 20
463.238038
 30
0.0
 11
-251.044193
 21
462.892394
 31
0.0
  0
LINE
  8
0
 10
-251.105376
 20
463.582888
 30
0.0
 11
-251.05929
 21
463.238038
 31
0.0
  0
LINE
  8
0
 10
-251.182451
 20
463.921381
 30
0.0
 11
-251.105376
 21
463.582888
 31
0.0
  0
LINE
  8
0
 10
-251.28972
 20
464.251134
 30
0.0
 11
-251.182451
 21
463.921381
 31
0.0
  0
LINE
  8
0
 10
-251.420032
 20
464.573735
 30
0.0
 11
-251.28972
 21
464.251134
 31
0.0
  0
LINE
  8
0
 10
-251.581332
 20
464.880445
 30
0.0
 11
-251.420032
 21
464.573735
 31
0.0
  0
LINE
  8
0
 10
-254.690543
 20
466.861345
 30
0.0
 11
-255.035393
 21
466.876442
 31
0.0
  0
LINE
  8
0
 10
-254.344898
 20
466.815259
 30
0.0
 11
-254.690543
 21
466.861345
 31
0.0
  0
LINE
  8
0
 10
-253.999254
 20
466.74613
 30
0.0
 11
-254.344898
 21
466.815259
 31
0.0
  0
LINE
  8
0
 10
-253.669501
 20
466.638067
 30
0.0
 11
-253.999254
 21
466.74613
 31
0.0
  0
LINE
  8
0
 10
-253.3469
 20
466.507755
 30
0.0
 11
-253.669501
 21
466.638067
 31
0.0
  0
LINE
  8
0
 10
-253.039395
 20
466.346454
 30
0.0
 11
-253.3469
 21
466.507755
 31
0.0
  0
LINE
  8
0
 10
-252.747783
 20
466.154959
 30
0.0
 11
-253.039395
 21
466.346454
 31
0.0
  0
LINE
  8
0
 10
-252.472062
 20
465.947572
 30
0.0
 11
-252.747783
 21
466.154959
 31
0.0
  0
LINE
  8
0
 10
-252.210643
 20
465.709992
 30
0.0
 11
-252.472062
 21
465.947572
 31
0.0
  0
LINE
  8
0
 10
-251.980214
 20
465.456519
 30
0.0
 11
-252.210643
 21
465.709992
 31
0.0
  0
LINE
  8
0
 10
-251.765676
 20
465.180003
 30
0.0
 11
-251.980214
 21
465.456519
 31
0.0
  0
LINE
  8
0
 10
-251.581332
 20
464.880445
 30
0.0
 11
-251.765676
 21
465.180003
 31
0.0
  0
LINE
  8
0
 10
-247.052199
 20
460.896397
 30
0.0
 11
-247.052199
 21
464.880445
 31
0.0
  0
LINE
  8
0
 10
-247.052199
 20
464.880445
 30
0.0
 11
-247.052199
 21
460.896397
 31
0.0
  0
LINE
  8
0
 10
-140.143988
 20
468.872439
 30
0.0
 11
-243.060205
 21
468.872439
 31
0.0
  0
LINE
  8
0
 10
-243.060205
 20
468.872439
 30
0.0
 11
-140.143988
 21
468.872439
 31
0.0
  0
LINE
  8
0
 10
-243.060205
 20
468.872439
 30
0.0
 11
-243.413795
 21
468.856547
 31
0.0
  0
LINE
  8
0
 10
-243.413795
 20
468.856547
 30
0.0
 11
-243.060205
 21
468.872439
 31
0.0
  0
LINE
  8
0
 10
-243.413795
 20
468.856547
 30
0.0
 11
-243.759439
 21
468.810462
 31
0.0
  0
LINE
  8
0
 10
-243.759439
 20
468.810462
 30
0.0
 11
-243.413795
 21
468.856547
 31
0.0
  0
LINE
  8
0
 10
-243.759439
 20
468.810462
 30
0.0
 11
-244.097138
 21
468.742127
 31
0.0
  0
LINE
  8
0
 10
-244.097138
 20
468.742127
 30
0.0
 11
-243.759439
 21
468.810462
 31
0.0
  0
LINE
  8
0
 10
-244.097138
 20
468.742127
 30
0.0
 11
-244.426891
 21
468.634064
 31
0.0
  0
LINE
  8
0
 10
-244.426891
 20
468.634064
 30
0.0
 11
-244.097138
 21
468.742127
 31
0.0
  0
LINE
  8
0
 10
-244.426891
 20
468.634064
 30
0.0
 11
-244.749492
 21
468.503752
 31
0.0
  0
LINE
  8
0
 10
-244.749492
 20
468.503752
 30
0.0
 11
-244.426891
 21
468.634064
 31
0.0
  0
LINE
  8
0
 10
-244.749492
 20
468.503752
 30
0.0
 11
-245.056202
 21
468.342451
 31
0.0
  0
LINE
  8
0
 10
-245.056202
 20
468.342451
 30
0.0
 11
-244.749492
 21
468.503752
 31
0.0
  0
LINE
  8
0
 10
-245.056202
 20
468.342451
 30
0.0
 11
-245.35576
 21
468.150956
 31
0.0
  0
LINE
  8
0
 10
-245.35576
 20
468.150956
 30
0.0
 11
-245.056202
 21
468.342451
 31
0.0
  0
LINE
  8
0
 10
-245.35576
 20
468.150956
 30
0.0
 11
-245.632276
 21
467.943569
 31
0.0
  0
LINE
  8
0
 10
-245.632276
 20
467.943569
 30
0.0
 11
-245.35576
 21
468.150956
 31
0.0
  0
LINE
  8
0
 10
-245.632276
 20
467.943569
 30
0.0
 11
-245.885748
 21
467.705194
 31
0.0
  0
LINE
  8
0
 10
-245.885748
 20
467.705194
 30
0.0
 11
-245.632276
 21
467.943569
 31
0.0
  0
LINE
  8
0
 10
-245.885748
 20
467.705194
 30
0.0
 11
-246.123329
 21
467.451721
 31
0.0
  0
LINE
  8
0
 10
-246.123329
 20
467.451721
 30
0.0
 11
-245.885748
 21
467.705194
 31
0.0
  0
LINE
  8
0
 10
-246.123329
 20
467.451721
 30
0.0
 11
-246.330716
 21
467.176001
 31
0.0
  0
LINE
  8
0
 10
-246.330716
 20
467.176001
 30
0.0
 11
-246.123329
 21
467.451721
 31
0.0
  0
LINE
  8
0
 10
-246.330716
 20
467.176001
 30
0.0
 11
-246.522211
 21
466.876442
 31
0.0
  0
LINE
  8
0
 10
-246.522211
 20
466.876442
 30
0.0
 11
-246.330716
 21
467.176001
 31
0.0
  0
LINE
  8
0
 10
-246.522211
 20
466.876442
 30
0.0
 11
-246.683511
 21
466.569732
 31
0.0
  0
LINE
  8
0
 10
-246.683511
 20
466.569732
 30
0.0
 11
-246.522211
 21
466.876442
 31
0.0
  0
LINE
  8
0
 10
-246.683511
 20
466.569732
 30
0.0
 11
-246.814618
 21
466.247131
 31
0.0
  0
LINE
  8
0
 10
-246.814618
 20
466.247131
 30
0.0
 11
-246.683511
 21
466.569732
 31
0.0
  0
LINE
  8
0
 10
-246.814618
 20
466.247131
 30
0.0
 11
-246.921887
 21
465.916584
 31
0.0
  0
LINE
  8
0
 10
-246.921887
 20
465.916584
 30
0.0
 11
-246.814618
 21
466.247131
 31
0.0
  0
LINE
  8
0
 10
-246.921887
 20
465.916584
 30
0.0
 11
-246.991016
 21
465.578885
 31
0.0
  0
LINE
  8
0
 10
-246.991016
 20
465.578885
 30
0.0
 11
-246.921887
 21
465.916584
 31
0.0
  0
LINE
  8
0
 10
-246.991016
 20
465.578885
 30
0.0
 11
-247.037102
 21
465.234035
 31
0.0
  0
LINE
  8
0
 10
-247.037102
 20
465.234035
 30
0.0
 11
-246.991016
 21
465.578885
 31
0.0
  0
LINE
  8
0
 10
-247.037102
 20
465.234035
 30
0.0
 11
-247.052199
 21
464.888391
 31
0.0
  0
LINE
  8
0
 10
-247.052199
 20
464.880445
 30
0.0
 11
-247.037102
 21
465.234035
 31
0.0
  0
LINE
  8
0
 10
-247.052199
 20
460.896397
 30
0.0
 11
-247.037102
 21
460.543601
 31
0.0
  0
LINE
  8
0
 10
-247.052199
 20
460.888451
 30
0.0
 11
-247.052199
 21
460.896397
 31
0.0
  0
LINE
  8
0
 10
-247.037102
 20
460.543601
 30
0.0
 11
-247.052199
 21
460.888451
 31
0.0
  0
LINE
  8
0
 10
-247.037102
 20
460.543601
 30
0.0
 11
-246.991016
 21
460.197957
 31
0.0
  0
LINE
  8
0
 10
-246.991016
 20
460.197957
 30
0.0
 11
-247.037102
 21
460.543601
 31
0.0
  0
LINE
  8
0
 10
-246.991016
 20
460.197957
 30
0.0
 11
-246.921887
 21
459.860258
 31
0.0
  0
LINE
  8
0
 10
-246.921887
 20
459.860258
 30
0.0
 11
-246.991016
 21
460.197957
 31
0.0
  0
LINE
  8
0
 10
-246.921887
 20
459.860258
 30
0.0
 11
-246.814618
 21
459.530505
 31
0.0
  0
LINE
  8
0
 10
-246.814618
 20
459.530505
 30
0.0
 11
-246.921887
 21
459.860258
 31
0.0
  0
LINE
  8
0
 10
-246.814618
 20
459.530505
 30
0.0
 11
-246.683511
 21
459.207904
 31
0.0
  0
LINE
  8
0
 10
-246.683511
 20
459.207904
 30
0.0
 11
-246.814618
 21
459.530505
 31
0.0
  0
LINE
  8
0
 10
-246.683511
 20
459.207904
 30
0.0
 11
-246.522211
 21
458.9004
 31
0.0
  0
LINE
  8
0
 10
-246.522211
 20
458.9004
 30
0.0
 11
-246.683511
 21
459.207904
 31
0.0
  0
LINE
  8
0
 10
-246.522211
 20
458.9004
 30
0.0
 11
-246.330716
 21
458.601636
 31
0.0
  0
LINE
  8
0
 10
-246.330716
 20
458.601636
 30
0.0
 11
-246.522211
 21
458.9004
 31
0.0
  0
LINE
  8
0
 10
-246.330716
 20
458.601636
 30
0.0
 11
-246.123329
 21
458.32512
 31
0.0
  0
LINE
  8
0
 10
-246.123329
 20
458.32512
 30
0.0
 11
-246.330716
 21
458.601636
 31
0.0
  0
LINE
  8
0
 10
-246.123329
 20
458.32512
 30
0.0
 11
-245.885748
 21
458.071648
 31
0.0
  0
LINE
  8
0
 10
-245.885748
 20
458.071648
 30
0.0
 11
-246.123329
 21
458.32512
 31
0.0
  0
LINE
  8
0
 10
-245.885748
 20
458.071648
 30
0.0
 11
-245.632276
 21
457.833272
 31
0.0
  0
LINE
  8
0
 10
-245.632276
 20
457.833272
 30
0.0
 11
-245.885748
 21
458.071648
 31
0.0
  0
LINE
  8
0
 10
-245.632276
 20
457.833272
 30
0.0
 11
-245.35576
 21
457.62668
 31
0.0
  0
LINE
  8
0
 10
-245.35576
 20
457.62668
 30
0.0
 11
-245.632276
 21
457.833272
 31
0.0
  0
LINE
  8
0
 10
-245.35576
 20
457.62668
 30
0.0
 11
-245.056202
 21
457.434391
 31
0.0
  0
LINE
  8
0
 10
-245.056202
 20
457.434391
 30
0.0
 11
-245.35576
 21
457.62668
 31
0.0
  0
LINE
  8
0
 10
-245.056202
 20
457.434391
 30
0.0
 11
-244.749492
 21
457.27309
 31
0.0
  0
LINE
  8
0
 10
-244.749492
 20
457.27309
 30
0.0
 11
-245.056202
 21
457.434391
 31
0.0
  0
LINE
  8
0
 10
-244.749492
 20
457.27309
 30
0.0
 11
-244.426891
 21
457.142778
 31
0.0
  0
LINE
  8
0
 10
-244.426891
 20
457.142778
 30
0.0
 11
-244.749492
 21
457.27309
 31
0.0
  0
LINE
  8
0
 10
-244.426891
 20
457.142778
 30
0.0
 11
-244.097138
 21
457.035509
 31
0.0
  0
LINE
  8
0
 10
-244.097138
 20
457.035509
 30
0.0
 11
-244.426891
 21
457.142778
 31
0.0
  0
LINE
  8
0
 10
-243.413795
 20
456.920294
 30
0.0
 11
-243.060205
 21
456.905197
 31
0.0
  0
LINE
  8
0
 10
-243.759439
 20
456.96638
 30
0.0
 11
-243.413795
 21
456.920294
 31
0.0
  0
LINE
  8
0
 10
-244.097138
 20
457.035509
 30
0.0
 11
-243.759439
 21
456.96638
 31
0.0
  0
LINE
  8
0
 10
-243.759439
 20
456.96638
 30
0.0
 11
-244.097138
 21
457.035509
 31
0.0
  0
LINE
  8
0
 10
-243.413795
 20
456.920294
 30
0.0
 11
-243.759439
 21
456.96638
 31
0.0
  0
LINE
  8
0
 10
-243.06815
 20
456.905197
 30
0.0
 11
-243.413795
 21
456.920294
 31
0.0
  0
LINE
  8
0
 10
-243.060205
 20
456.905197
 30
0.0
 11
-243.06815
 21
456.905197
 31
0.0
  0
LINE
  8
0
 10
-299.420107
 20
488.437101
 30
0.0
 11
-281.189152
 21
470.213298
 31
0.0
  0
LINE
  8
0
 10
-281.189152
 20
470.213298
 30
0.0
 11
-299.420107
 21
488.437101
 31
0.0
  0
ARC
  8
0
 10
-111.56754
 20
462.888421
 30
0.0
 40
12.96683
 50
201.54581
 51
201.549036
  0
ARC
  8
0
 10
-126.232324
 20
457.097305
 30
0.0
 40
2.8
 50
21.549036
 51
120.002497
  0
ARC
  8
0
 10
-111.56754
 20
462.888421
 30
0.0
 40
12.96683
 50
201.549036
 51
158.450964
  0
ARC
  8
0
 10
-126.232324
 20
468.679536
 30
0.0
 40
2.8
 50
239.997503
 51
338.450964
  0
ARC
  8
0
 10
-111.56754
 20
462.888421
 30
0.0
 40
12.96683
 50
158.450964
 51
158.45419
  0
CIRCLE
  8
0
 10
-111.56754
 20
462.888421
 30
0.0
 40
8.980398
  0
LINE
  8
0
 10
-281.189152
 20
350.211901
 30
0.0
 11
-299.420107
 21
368.435704
 31
0.0
  0
LINE
  8
0
 10
-299.420107
 20
368.435704
 30
0.0
 11
-281.189152
 21
350.211901
 31
0.0
  0
LINE
  8
0
 10
-243.060205
 20
336.9038
 30
0.0
 11
-243.06815
 21
336.9038
 31
0.0
  0
LINE
  8
0
 10
-243.06815
 20
336.9038
 30
0.0
 11
-243.413795
 21
336.918897
 31
0.0
  0
LINE
  8
0
 10
-243.413795
 20
336.918897
 30
0.0
 11
-243.759439
 21
336.964983
 31
0.0
  0
LINE
  8
0
 10
-243.759439
 20
336.964983
 30
0.0
 11
-244.097138
 21
337.034112
 31
0.0
  0
LINE
  8
0
 10
-244.097138
 20
337.034112
 30
0.0
 11
-243.759439
 21
336.964983
 31
0.0
  0
LINE
  8
0
 10
-243.759439
 20
336.964983
 30
0.0
 11
-243.413795
 21
336.918897
 31
0.0
  0
LINE
  8
0
 10
-243.413795
 20
336.918897
 30
0.0
 11
-243.060205
 21
336.9038
 31
0.0
  0
LINE
  8
0
 10
-244.097138
 20
337.034112
 30
0.0
 11
-244.426891
 21
337.14138
 31
0.0
  0
LINE
  8
0
 10
-244.426891
 20
337.14138
 30
0.0
 11
-244.097138
 21
337.034112
 31
0.0
  0
LINE
  8
0
 10
-244.426891
 20
337.14138
 30
0.0
 11
-244.749492
 21
337.271692
 31
0.0
  0
LINE
  8
0
 10
-244.749492
 20
337.271692
 30
0.0
 11
-244.426891
 21
337.14138
 31
0.0
  0
LINE
  8
0
 10
-244.749492
 20
337.271692
 30
0.0
 11
-245.056202
 21
337.432993
 31
0.0
  0
LINE
  8
0
 10
-245.056202
 20
337.432993
 30
0.0
 11
-244.749492
 21
337.271692
 31
0.0
  0
LINE
  8
0
 10
-245.056202
 20
337.432993
 30
0.0
 11
-245.35576
 21
337.625283
 31
0.0
  0
LINE
  8
0
 10
-245.35576
 20
337.625283
 30
0.0
 11
-245.056202
 21
337.432993
 31
0.0
  0
LINE
  8
0
 10
-245.35576
 20
337.625283
 30
0.0
 11
-245.632276
 21
337.831875
 31
0.0
  0
LINE
  8
0
 10
-245.632276
 20
337.831875
 30
0.0
 11
-245.35576
 21
337.625283
 31
0.0
  0
LINE
  8
0
 10
-245.632276
 20
337.831875
 30
0.0
 11
-245.885748
 21
338.07025
 31
0.0
  0
LINE
  8
0
 10
-245.885748
 20
338.07025
 30
0.0
 11
-245.632276
 21
337.831875
 31
0.0
  0
LINE
  8
0
 10
-245.885748
 20
338.07025
 30
0.0
 11
-246.123329
 21
338.323723
 31
0.0
  0
LINE
  8
0
 10
-246.123329
 20
338.323723
 30
0.0
 11
-245.885748
 21
338.07025
 31
0.0
  0
LINE
  8
0
 10
-246.123329
 20
338.323723
 30
0.0
 11
-246.330716
 21
338.600238
 31
0.0
  0
LINE
  8
0
 10
-246.330716
 20
338.600238
 30
0.0
 11
-246.123329
 21
338.323723
 31
0.0
  0
LINE
  8
0
 10
-246.330716
 20
338.600238
 30
0.0
 11
-246.522211
 21
338.899002
 31
0.0
  0
LINE
  8
0
 10
-246.522211
 20
338.899002
 30
0.0
 11
-246.330716
 21
338.600238
 31
0.0
  0
LINE
  8
0
 10
-246.522211
 20
338.899002
 30
0.0
 11
-246.683511
 21
339.206506
 31
0.0
  0
LINE
  8
0
 10
-246.683511
 20
339.206506
 30
0.0
 11
-246.522211
 21
338.899002
 31
0.0
  0
LINE
  8
0
 10
-246.683511
 20
339.206506
 30
0.0
 11
-246.814618
 21
339.529108
 31
0.0
  0
LINE
  8
0
 10
-246.814618
 20
339.529108
 30
0.0
 11
-246.683511
 21
339.206506
 31
0.0
  0
LINE
  8
0
 10
-246.814618
 20
339.529108
 30
0.0
 11
-246.921887
 21
339.858861
 31
0.0
  0
LINE
  8
0
 10
-246.921887
 20
339.858861
 30
0.0
 11
-246.814618
 21
339.529108
 31
0.0
  0
LINE
  8
0
 10
-246.921887
 20
339.858861
 30
0.0
 11
-246.991016
 21
340.196559
 31
0.0
  0
LINE
  8
0
 10
-246.991016
 20
340.196559
 30
0.0
 11
-246.921887
 21
339.858861
 31
0.0
  0
LINE
  8
0
 10
-246.991016
 20
340.196559
 30
0.0
 11
-247.037102
 21
340.542204
 31
0.0
  0
LINE
  8
0
 10
-247.037102
 20
340.542204
 30
0.0
 11
-246.991016
 21
340.196559
 31
0.0
  0
LINE
  8
0
 10
-247.037102
 20
340.542204
 30
0.0
 11
-247.052199
 21
340.887053
 31
0.0
  0
LINE
  8
0
 10
-247.052199
 20
340.887053
 30
0.0
 11
-247.052199
 21
340.894999
 31
0.0
  0
LINE
  8
0
 10
-247.052199
 20
340.894999
 30
0.0
 11
-247.037102
 21
340.542204
 31
0.0
  0
LINE
  8
0
 10
-247.052199
 20
344.879048
 30
0.0
 11
-247.037102
 21
345.232638
 31
0.0
  0
LINE
  8
0
 10
-247.037102
 20
345.232638
 30
0.0
 11
-247.052199
 21
344.886993
 31
0.0
  0
LINE
  8
0
 10
-247.037102
 20
345.232638
 30
0.0
 11
-246.991016
 21
345.577488
 31
0.0
  0
LINE
  8
0
 10
-246.991016
 20
345.577488
 30
0.0
 11
-247.037102
 21
345.232638
 31
0.0
  0
LINE
  8
0
 10
-246.991016
 20
345.577488
 30
0.0
 11
-246.921887
 21
345.915186
 31
0.0
  0
LINE
  8
0
 10
-246.921887
 20
345.915186
 30
0.0
 11
-246.991016
 21
345.577488
 31
0.0
  0
LINE
  8
0
 10
-246.921887
 20
345.915186
 30
0.0
 11
-246.814618
 21
346.245733
 31
0.0
  0
LINE
  8
0
 10
-246.814618
 20
346.245733
 30
0.0
 11
-246.921887
 21
345.915186
 31
0.0
  0
LINE
  8
0
 10
-246.814618
 20
346.245733
 30
0.0
 11
-246.683511
 21
346.568335
 31
0.0
  0
LINE
  8
0
 10
-246.683511
 20
346.568335
 30
0.0
 11
-246.814618
 21
346.245733
 31
0.0
  0
LINE
  8
0
 10
-246.683511
 20
346.568335
 30
0.0
 11
-246.522211
 21
346.875045
 31
0.0
  0
LINE
  8
0
 10
-246.522211
 20
346.875045
 30
0.0
 11
-246.683511
 21
346.568335
 31
0.0
  0
LINE
  8
0
 10
-246.522211
 20
346.875045
 30
0.0
 11
-246.330716
 21
347.174603
 31
0.0
  0
LINE
  8
0
 10
-246.330716
 20
347.174603
 30
0.0
 11
-246.522211
 21
346.875045
 31
0.0
  0
LINE
  8
0
 10
-246.330716
 20
347.174603
 30
0.0
 11
-246.123329
 21
347.450324
 31
0.0
  0
LINE
  8
0
 10
-246.123329
 20
347.450324
 30
0.0
 11
-246.330716
 21
347.174603
 31
0.0
  0
LINE
  8
0
 10
-246.123329
 20
347.450324
 30
0.0
 11
-245.885748
 21
347.703797
 31
0.0
  0
LINE
  8
0
 10
-245.885748
 20
347.703797
 30
0.0
 11
-246.123329
 21
347.450324
 31
0.0
  0
LINE
  8
0
 10
-245.885748
 20
347.703797
 30
0.0
 11
-245.632276
 21
347.942172
 31
0.0
  0
LINE
  8
0
 10
-245.632276
 20
347.942172
 30
0.0
 11
-245.885748
 21
347.703797
 31
0.0
  0
LINE
  8
0
 10
-245.632276
 20
347.942172
 30
0.0
 11
-245.35576
 21
348.149559
 31
0.0
  0
LINE
  8
0
 10
-245.35576
 20
348.149559
 30
0.0
 11
-245.632276
 21
347.942172
 31
0.0
  0
LINE
  8
0
 10
-245.35576
 20
348.149559
 30
0.0
 11
-245.056202
 21
348.341054
 31
0.0
  0
LINE
  8
0
 10
-245.056202
 20
348.341054
 30
0.0
 11
-245.35576
 21
348.149559
 31
0.0
  0
LINE
  8
0
 10
-245.056202
 20
348.341054
 30
0.0
 11
-244.749492
 21
348.502354
 31
0.0
  0
LINE
  8
0
 10
-244.749492
 20
348.502354
 30
0.0
 11
-245.056202
 21
348.341054
 31
0.0
  0
LINE
  8
0
 10
-244.749492
 20
348.502354
 30
0.0
 11
-244.426891
 21
348.632666
 31
0.0
  0
LINE
  8
0
 10
-244.426891
 20
348.632666
 30
0.0
 11
-244.749492
 21
348.502354
 31
0.0
  0
LINE
  8
0
 10
-244.426891
 20
348.632666
 30
0.0
 11
-244.097138
 21
348.74073
 31
0.0
  0
LINE
  8
0
 10
-244.097138
 20
348.74073
 30
0.0
 11
-244.426891
 21
348.632666
 31
0.0
  0
LINE
  8
0
 10
-244.097138
 20
348.74073
 30
0.0
 11
-243.759439
 21
348.809064
 31
0.0
  0
LINE
  8
0
 10
-243.759439
 20
348.809064
 30
0.0
 11
-244.097138
 21
348.74073
 31
0.0
  0
LINE
  8
0
 10
-243.759439
 20
348.809064
 30
0.0
 11
-243.413795
 21
348.85515
 31
0.0
  0
LINE
  8
0
 10
-243.413795
 20
348.85515
 30
0.0
 11
-243.759439
 21
348.809064
 31
0.0
  0
LINE
  8
0
 10
-243.413795
 20
348.85515
 30
0.0
 11
-243.060205
 21
348.871042
 31
0.0
  0
LINE
  8
0
 10
-243.060205
 20
348.871042
 30
0.0
 11
-243.413795
 21
348.85515
 31
0.0
  0
LINE
  8
0
 10
-243.060205
 20
348.871042
 30
0.0
 11
-140.143988
 21
348.871042
 31
0.0
  0
LINE
  8
0
 10
-140.143988
 20
348.871042
 30
0.0
 11
-243.060205
 21
348.871042
 31
0.0
  0
LINE
  8
0
 10
-247.052199
 20
344.879048
 30
0.0
 11
-247.052199
 21
340.894999
 31
0.0
  0
LINE
  8
0
 10
-247.052199
 20
340.894999
 30
0.0
 11
-247.052199
 21
344.879048
 31
0.0
  0
LINE
  8
0
 10
-251.581332
 20
344.879048
 30
0.0
 11
-251.765676
 21
345.178606
 31
0.0
  0
LINE
  8
0
 10
-251.765676
 20
345.178606
 30
0.0
 11
-251.980214
 21
345.455122
 31
0.0
  0
LINE
  8
0
 10
-251.980214
 20
345.455122
 30
0.0
 11
-252.210643
 21
345.708594
 31
0.0
  0
LINE
  8
0
 10
-252.210643
 20
345.708594
 30
0.0
 11
-252.472062
 21
345.946175
 31
0.0
  0
LINE
  8
0
 10
-252.472062
 20
345.946175
 30
0.0
 11
-252.747783
 21
346.153562
 31
0.0
  0
LINE
  8
0
 10
-252.747783
 20
346.153562
 30
0.0
 11
-253.039395
 21
346.345057
 31
0.0
  0
LINE
  8
0
 10
-253.039395
 20
346.345057
 30
0.0
 11
-253.3469
 21
346.506357
 31
0.0
  0
LINE
  8
0
 10
-253.3469
 20
346.506357
 30
0.0
 11
-253.669501
 21
346.636669
 31
0.0
  0
LINE
  8
0
 10
-253.669501
 20
346.636669
 30
0.0
 11
-253.999254
 21
346.744733
 31
0.0
  0
LINE
  8
0
 10
-253.999254
 20
346.744733
 30
0.0
 11
-254.344898
 21
346.813862
 31
0.0
  0
LINE
  8
0
 10
-254.344898
 20
346.813862
 30
0.0
 11
-254.690543
 21
346.859948
 31
0.0
  0
LINE
  8
0
 10
-254.690543
 20
346.859948
 30
0.0
 11
-255.035393
 21
346.875045
 31
0.0
  0
LINE
  8
0
 10
-251.581332
 20
344.879048
 30
0.0
 11
-251.420032
 21
344.572338
 31
0.0
  0
LINE
  8
0
 10
-251.420032
 20
344.572338
 30
0.0
 11
-251.28972
 21
344.249736
 31
0.0
  0
LINE
  8
0
 10
-251.28972
 20
344.249736
 30
0.0
 11
-251.182451
 21
343.919984
 31
0.0
  0
LINE
  8
0
 10
-251.182451
 20
343.919984
 30
0.0
 11
-251.105376
 21
343.581491
 31
0.0
  0
LINE
  8
0
 10
-251.105376
 20
343.581491
 30
0.0
 11
-251.05929
 21
343.236641
 31
0.0
  0
LINE
  8
0
 10
-251.05929
 20
343.236641
 30
0.0
 11
-251.044193
 21
342.890996
 31
0.0
  0
LINE
  8
0
 10
-251.044193
 20
342.890996
 30
0.0
 11
-251.05929
 21
342.538201
 31
0.0
  0
LINE
  8
0
 10
-251.05929
 20
342.538201
 30
0.0
 11
-251.105376
 21
342.192556
 31
0.0
  0
LINE
  8
0
 10
-251.105376
 20
342.192556
 30
0.0
 11
-251.05929
 21
342.538201
 31
0.0
  0
LINE
  8
0
 10
-251.05929
 20
342.538201
 30
0.0
 11
-251.044193
 21
342.890996
 31
0.0
  0
LINE
  8
0
 10
-251.044193
 20
342.890996
 30
0.0
 11
-251.05929
 21
343.236641
 31
0.0
  0
LINE
  8
0
 10
-251.05929
 20
343.236641
 30
0.0
 11
-251.105376
 21
343.581491
 31
0.0
  0
LINE
  8
0
 10
-251.105376
 20
343.581491
 30
0.0
 11
-251.182451
 21
343.919984
 31
0.0
  0
LINE
  8
0
 10
-251.182451
 20
343.919984
 30
0.0
 11
-251.28972
 21
344.249736
 31
0.0
  0
LINE
  8
0
 10
-251.28972
 20
344.249736
 30
0.0
 11
-251.420032
 21
344.572338
 31
0.0
  0
LINE
  8
0
 10
-251.420032
 20
344.572338
 30
0.0
 11
-251.581332
 21
344.879048
 31
0.0
  0
LINE
  8
0
 10
-251.581332
 20
344.879048
 30
0.0
 11
-251.765676
 21
345.178606
 31
0.0
  0
LINE
  8
0
 10
-251.765676
 20
345.178606
 30
0.0
 11
-251.980214
 21
345.455122
 31
0.0
  0
LINE
  8
0
 10
-251.980214
 20
345.455122
 30
0.0
 11
-252.210643
 21
345.708594
 31
0.0
  0
LINE
  8
0
 10
-252.210643
 20
345.708594
 30
0.0
 11
-252.472062
 21
345.946175
 31
0.0
  0
LINE
  8
0
 10
-252.472062
 20
345.946175
 30
0.0
 11
-252.747783
 21
346.153562
 31
0.0
  0
LINE
  8
0
 10
-252.747783
 20
346.153562
 30
0.0
 11
-253.039395
 21
346.345057
 31
0.0
  0
LINE
  8
0
 10
-253.039395
 20
346.345057
 30
0.0
 11
-253.3469
 21
346.506357
 31
0.0
  0
LINE
  8
0
 10
-253.3469
 20
346.506357
 30
0.0
 11
-253.669501
 21
346.636669
 31
0.0
  0
LINE
  8
0
 10
-253.669501
 20
346.636669
 30
0.0
 11
-253.999254
 21
346.744733
 31
0.0
  0
LINE
  8
0
 10
-253.999254
 20
346.744733
 30
0.0
 11
-254.344898
 21
346.813862
 31
0.0
  0
LINE
  8
0
 10
-254.344898
 20
346.813862
 30
0.0
 11
-254.690543
 21
346.859948
 31
0.0
  0
LINE
  8
0
 10
-254.690543
 20
346.859948
 30
0.0
 11
-255.035393
 21
346.875045
 31
0.0
  0
LINE
  8
0
 10
-251.105376
 20
342.192556
 30
0.0
 11
-251.182451
 21
341.854858
 31
0.0
  0
LINE
  8
0
 10
-251.182451
 20
341.854858
 30
0.0
 11
-251.105376
 21
342.192556
 31
0.0
  0
LINE
  8
0
 10
-251.182451
 20
341.854858
 30
0.0
 11
-251.28972
 21
341.52431
 31
0.0
  0
LINE
  8
0
 10
-251.28972
 20
341.52431
 30
0.0
 11
-251.182451
 21
341.854858
 31
0.0
  0
LINE
  8
0
 10
-251.28972
 20
341.52431
 30
0.0
 11
-251.420032
 21
341.202504
 31
0.0
  0
LINE
  8
0
 10
-251.420032
 20
341.202504
 30
0.0
 11
-251.28972
 21
341.52431
 31
0.0
  0
LINE
  8
0
 10
-251.420032
 20
341.202504
 30
0.0
 11
-251.581332
 21
340.894999
 31
0.0
  0
LINE
  8
0
 10
-251.581332
 20
340.894999
 30
0.0
 11
-251.420032
 21
341.202504
 31
0.0
  0
LINE
  8
0
 10
-251.581332
 20
340.894999
 30
0.0
 11
-251.765676
 21
340.595441
 31
0.0
  0
LINE
  8
0
 10
-251.765676
 20
340.595441
 30
0.0
 11
-251.581332
 21
340.894999
 31
0.0
  0
LINE
  8
0
 10
-251.765676
 20
340.595441
 30
0.0
 11
-251.980214
 21
340.31972
 31
0.0
  0
LINE
  8
0
 10
-251.980214
 20
340.31972
 30
0.0
 11
-251.765676
 21
340.595441
 31
0.0
  0
LINE
  8
0
 10
-251.980214
 20
340.31972
 30
0.0
 11
-252.210643
 21
340.066247
 31
0.0
  0
LINE
  8
0
 10
-252.210643
 20
340.066247
 30
0.0
 11
-251.980214
 21
340.31972
 31
0.0
  0
LINE
  8
0
 10
-252.210643
 20
340.066247
 30
0.0
 11
-252.472062
 21
339.827872
 31
0.0
  0
LINE
  8
0
 10
-252.472062
 20
339.827872
 30
0.0
 11
-252.210643
 21
340.066247
 31
0.0
  0
LINE
  8
0
 10
-252.472062
 20
339.827872
 30
0.0
 11
-252.747783
 21
339.620485
 31
0.0
  0
LINE
  8
0
 10
-252.747783
 20
339.620485
 30
0.0
 11
-252.472062
 21
339.827872
 31
0.0
  0
LINE
  8
0
 10
-252.747783
 20
339.620485
 30
0.0
 11
-253.039395
 21
339.42899
 31
0.0
  0
LINE
  8
0
 10
-253.039395
 20
339.42899
 30
0.0
 11
-252.747783
 21
339.620485
 31
0.0
  0
LINE
  8
0
 10
-253.039395
 20
339.42899
 30
0.0
 11
-253.3469
 21
339.267689
 31
0.0
  0
LINE
  8
0
 10
-253.3469
 20
339.267689
 30
0.0
 11
-253.039395
 21
339.42899
 31
0.0
  0
LINE
  8
0
 10
-253.3469
 20
339.267689
 30
0.0
 11
-253.669501
 21
339.137378
 31
0.0
  0
LINE
  8
0
 10
-253.669501
 20
339.137378
 30
0.0
 11
-253.3469
 21
339.267689
 31
0.0
  0
LINE
  8
0
 10
-253.669501
 20
339.137378
 30
0.0
 11
-253.999254
 21
339.030109
 31
0.0
  0
LINE
  8
0
 10
-253.999254
 20
339.030109
 30
0.0
 11
-253.669501
 21
339.137378
 31
0.0
  0
LINE
  8
0
 10
-253.999254
 20
339.030109
 30
0.0
 11
-254.344898
 21
338.96098
 31
0.0
  0
LINE
  8
0
 10
-254.344898
 20
338.96098
 30
0.0
 11
-253.999254
 21
339.030109
 31
0.0
  0
LINE
  8
0
 10
-254.344898
 20
338.96098
 30
0.0
 11
-254.690543
 21
338.914894
 31
0.0
  0
LINE
  8
0
 10
-254.690543
 20
338.914894
 30
0.0
 11
-254.344898
 21
338.96098
 31
0.0
  0
LINE
  8
0
 10
-254.690543
 20
338.914894
 30
0.0
 11
-255.035393
 21
338.899002
 31
0.0
  0
LINE
  8
0
 10
-255.035393
 20
338.899002
 30
0.0
 11
-254.690543
 21
338.914894
 31
0.0
  0
LINE
  8
0
 10
-243.060205
 20
336.9038
 30
0.0
 11
-140.143988
 21
336.9038
 31
0.0
  0
LINE
  8
0
 10
-140.143988
 20
336.9038
 30
0.0
 11
-129.781013
 21
342.890996
 31
0.0
  0
LINE
  8
0
 10
-129.781013
 20
342.890996
 30
0.0
 11
-140.143988
 21
348.871042
 31
0.0
  0
LINE
  8
0
 10
-140.143988
 20
348.871042
 30
0.0
 11
-129.781013
 21
342.890996
 31
0.0
  0
LINE
  8
0
 10
-129.781013
 20
342.890996
 30
0.0
 11
-140.143988
 21
336.9038
 31
0.0
  0
LINE
  8
0
 10
-140.143988
 20
336.9038
 30
0.0
 11
-243.060205
 21
336.9038
 31
0.0
  0
LINE
  8
0
 10
-274.234151
 20
353.292106
 30
0.0
 11
-273.727206
 21
353.071079
 31
0.0
  0
LINE
  8
0
 10
-273.727206
 20
353.071079
 30
0.0
 11
-273.21311
 21
352.864353
 31
0.0
  0
LINE
  8
0
 10
-273.21311
 20
352.864353
 30
0.0
 11
-272.699013
 21
352.795225
 31
0.0
  0
LINE
  8
0
 10
-272.699013
 20
352.795225
 30
0.0
 11
-272.176971
 21
352.81719
 31
0.0
  0
LINE
  8
0
 10
-272.176971
 20
352.81719
 30
0.0
 11
-271.654929
 21
352.801298
 31
0.0
  0
LINE
  8
0
 10
-271.654929
 20
352.801298
 30
0.0
 11
-272.176971
 21
352.81719
 31
0.0
  0
LINE
  8
0
 10
-272.176971
 20
352.81719
 30
0.0
 11
-272.699013
 21
352.795225
 31
0.0
  0
LINE
  8
0
 10
-272.699013
 20
352.795225
 30
0.0
 11
-273.21311
 21
352.864353
 31
0.0
  0
LINE
  8
0
 10
-273.21311
 20
352.864353
 30
0.0
 11
-273.727206
 21
353.071079
 31
0.0
  0
LINE
  8
0
 10
-273.727206
 20
353.071079
 30
0.0
 11
-274.234151
 21
353.292106
 31
0.0
  0
LINE
  8
0
 10
-274.234151
 20
353.292106
 30
0.0
 11
-274.741096
 21
353.552863
 31
0.0
  0
LINE
  8
0
 10
-274.741096
 20
353.552863
 30
0.0
 11
-274.234151
 21
353.292106
 31
0.0
  0
LINE
  8
0
 10
-274.741096
 20
353.552863
 30
0.0
 11
-275.23215
 21
353.827923
 31
0.0
  0
LINE
  8
0
 10
-275.23215
 20
353.827923
 30
0.0
 11
-274.741096
 21
353.552863
 31
0.0
  0
LINE
  8
0
 10
-275.23215
 20
353.827923
 30
0.0
 11
-275.716052
 21
354.027364
 31
0.0
  0
LINE
  8
0
 10
-275.716052
 20
354.027364
 30
0.0
 11
-275.23215
 21
353.827923
 31
0.0
  0
LINE
  8
0
 10
-275.716052
 20
354.027364
 30
0.0
 11
-276.184062
 21
354.257793
 31
0.0
  0
LINE
  8
0
 10
-276.184062
 20
354.257793
 30
0.0
 11
-275.716052
 21
354.027364
 31
0.0
  0
LINE
  8
0
 10
-276.184062
 20
354.257793
 30
0.0
 11
-276.644922
 21
354.609928
 31
0.0
  0
LINE
  8
0
 10
-276.644922
 20
354.609928
 30
0.0
 11
-276.184062
 21
354.257793
 31
0.0
  0
LINE
  8
0
 10
-276.644922
 20
354.609928
 30
0.0
 11
-277.089889
 21
354.886443
 31
0.0
  0
LINE
  8
0
 10
-277.089889
 20
354.886443
 30
0.0
 11
-276.644922
 21
354.609928
 31
0.0
  0
LINE
  8
0
 10
-277.089889
 20
354.886443
 30
0.0
 11
-277.519759
 21
355.178056
 31
0.0
  0
LINE
  8
0
 10
-277.519759
 20
355.178056
 30
0.0
 11
-277.089889
 21
354.886443
 31
0.0
  0
LINE
  8
0
 10
-277.519759
 20
355.178056
 30
0.0
 11
-277.934533
 21
355.500657
 31
0.0
  0
LINE
  8
0
 10
-277.934533
 20
355.500657
 30
0.0
 11
-277.519759
 21
355.178056
 31
0.0
  0
LINE
  8
0
 10
-277.934533
 20
355.500657
 30
0.0
 11
-278.333414
 21
355.838356
 31
0.0
  0
LINE
  8
0
 10
-278.333414
 20
355.838356
 30
0.0
 11
-277.934533
 21
355.500657
 31
0.0
  0
LINE
  8
0
 10
-278.333414
 20
355.838356
 30
0.0
 11
-278.709253
 21
356.199097
 31
0.0
  0
LINE
  8
0
 10
-278.709253
 20
356.199097
 30
0.0
 11
-278.333414
 21
355.838356
 31
0.0
  0
LINE
  8
0
 10
-310.843058
 20
317.052687
 30
0.0
 11
-310.889144
 21
317.397537
 31
0.0
  0
LINE
  8
0
 10
-310.889144
 20
317.397537
 30
0.0
 11
-310.904241
 21
317.751127
 31
0.0
  0
LINE
  8
0
 10
-310.843058
 20
317.052687
 30
0.0
 11
-310.773929
 21
316.714988
 31
0.0
  0
LINE
  8
0
 10
-310.773929
 20
316.714988
 30
0.0
 11
-310.665866
 21
316.384441
 31
0.0
  0
LINE
  8
0
 10
-310.665866
 20
316.384441
 30
0.0
 11
-310.535554
 21
316.06184
 31
0.0
  0
LINE
  8
0
 10
-310.535554
 20
316.06184
 30
0.0
 11
-310.374253
 21
315.75513
 31
0.0
  0
LINE
  8
0
 10
-310.374253
 20
315.75513
 30
0.0
 11
-310.182758
 21
315.455571
 31
0.0
  0
LINE
  8
0
 10
-310.182758
 20
315.455571
 30
0.0
 11
-309.975371
 21
315.179056
 31
0.0
  0
LINE
  8
0
 10
-309.975371
 20
315.179056
 30
0.0
 11
-309.736996
 21
314.926378
 31
0.0
  0
LINE
  8
0
 10
-309.736996
 20
314.926378
 30
0.0
 11
-309.484318
 21
314.688002
 31
0.0
  0
LINE
  8
0
 10
-309.484318
 20
314.688002
 30
0.0
 11
-309.207802
 21
314.480616
 31
0.0
  0
LINE
  8
0
 10
-309.207802
 20
314.480616
 30
0.0
 11
-308.908244
 21
314.289121
 31
0.0
  0
LINE
  8
0
 10
-308.908244
 20
314.289121
 30
0.0
 11
-308.601534
 21
314.12782
 31
0.0
  0
LINE
  8
0
 10
-308.601534
 20
314.12782
 30
0.0
 11
-308.278933
 21
313.997508
 31
0.0
  0
LINE
  8
0
 10
-308.278933
 20
313.997508
 30
0.0
 11
-307.948386
 21
313.889445
 31
0.0
  0
LINE
  8
0
 10
-307.948386
 20
313.889445
 30
0.0
 11
-307.610687
 21
313.820316
 31
0.0
  0
LINE
  8
0
 10
-307.610687
 20
313.820316
 30
0.0
 11
-307.265837
 21
313.77423
 31
0.0
  0
LINE
  8
0
 10
-307.265837
 20
313.77423
 30
0.0
 11
-306.912247
 21
313.759133
 31
0.0
  0
LINE
  8
0
 10
-310.889144
 20
317.397537
 30
0.0
 11
-310.904241
 21
317.751127
 31
0.0
  0
LINE
  8
0
 10
-310.889144
 20
317.397537
 30
0.0
 11
-310.843058
 21
317.052687
 31
0.0
  0
LINE
  8
0
 10
-310.843058
 20
317.052687
 30
0.0
 11
-310.773929
 21
316.714988
 31
0.0
  0
LINE
  8
0
 10
-310.773929
 20
316.714988
 30
0.0
 11
-310.665866
 21
316.384441
 31
0.0
  0
LINE
  8
0
 10
-310.665866
 20
316.384441
 30
0.0
 11
-310.535554
 21
316.06184
 31
0.0
  0
LINE
  8
0
 10
-310.535554
 20
316.06184
 30
0.0
 11
-310.374253
 21
315.75513
 31
0.0
  0
LINE
  8
0
 10
-310.374253
 20
315.75513
 30
0.0
 11
-310.182758
 21
315.455571
 31
0.0
  0
LINE
  8
0
 10
-310.182758
 20
315.455571
 30
0.0
 11
-309.975371
 21
315.179056
 31
0.0
  0
LINE
  8
0
 10
-309.975371
 20
315.179056
 30
0.0
 11
-309.736996
 21
314.926378
 31
0.0
  0
LINE
  8
0
 10
-309.736996
 20
314.926378
 30
0.0
 11
-309.484318
 21
314.688002
 31
0.0
  0
LINE
  8
0
 10
-309.484318
 20
314.688002
 30
0.0
 11
-309.207802
 21
314.480616
 31
0.0
  0
LINE
  8
0
 10
-309.207802
 20
314.480616
 30
0.0
 11
-308.908244
 21
314.289121
 31
0.0
  0
LINE
  8
0
 10
-308.908244
 20
314.289121
 30
0.0
 11
-308.601534
 21
314.12782
 31
0.0
  0
LINE
  8
0
 10
-308.601534
 20
314.12782
 30
0.0
 11
-308.278933
 21
313.997508
 31
0.0
  0
LINE
  8
0
 10
-308.278933
 20
313.997508
 30
0.0
 11
-307.948386
 21
313.889445
 31
0.0
  0
LINE
  8
0
 10
-307.948386
 20
313.889445
 30
0.0
 11
-307.610687
 21
313.820316
 31
0.0
  0
LINE
  8
0
 10
-307.610687
 20
313.820316
 30
0.0
 11
-307.265837
 21
313.77423
 31
0.0
  0
LINE
  8
0
 10
-307.265837
 20
313.77423
 30
0.0
 11
-306.912247
 21
313.759133
 31
0.0
  0
LINE
  8
0
 10
-296.595357
 20
313.759133
 30
0.0
 11
-296.249713
 21
313.77423
 31
0.0
  0
LINE
  8
0
 10
-296.249713
 20
313.77423
 30
0.0
 11
-295.904863
 21
313.820316
 31
0.0
  0
LINE
  8
0
 10
-295.904863
 20
313.820316
 30
0.0
 11
-295.56637
 21
313.889445
 31
0.0
  0
LINE
  8
0
 10
-295.56637
 20
313.889445
 30
0.0
 11
-295.228672
 21
313.997508
 31
0.0
  0
LINE
  8
0
 10
-295.228672
 20
313.997508
 30
0.0
 11
-294.906865
 21
314.12782
 31
0.0
  0
LINE
  8
0
 10
-294.906865
 20
314.12782
 30
0.0
 11
-294.59936
 21
314.289121
 31
0.0
  0
LINE
  8
0
 10
-294.59936
 20
314.289121
 30
0.0
 11
-294.307748
 21
314.480616
 31
0.0
  0
LINE
  8
0
 10
-294.307748
 20
314.480616
 30
0.0
 11
-294.031232
 21
314.688002
 31
0.0
  0
LINE
  8
0
 10
-294.031232
 20
314.688002
 30
0.0
 11
-293.770608
 21
314.926378
 31
0.0
  0
LINE
  8
0
 10
-296.249713
 20
313.77423
 30
0.0
 11
-296.595357
 21
313.759133
 31
0.0
  0
LINE
  8
0
 10
-296.249713
 20
313.77423
 30
0.0
 11
-295.904863
 21
313.820316
 31
0.0
  0
LINE
  8
0
 10
-295.904863
 20
313.820316
 30
0.0
 11
-295.56637
 21
313.889445
 31
0.0
  0
LINE
  8
0
 10
-295.56637
 20
313.889445
 30
0.0
 11
-295.228672
 21
313.997508
 31
0.0
  0
LINE
  8
0
 10
-295.228672
 20
313.997508
 30
0.0
 11
-294.906865
 21
314.12782
 31
0.0
  0
LINE
  8
0
 10
-294.906865
 20
314.12782
 30
0.0
 11
-294.59936
 21
314.289121
 31
0.0
  0
LINE
  8
0
 10
-294.59936
 20
314.289121
 30
0.0
 11
-294.307748
 21
314.480616
 31
0.0
  0
LINE
  8
0
 10
-294.307748
 20
314.480616
 30
0.0
 11
-294.031232
 21
314.688002
 31
0.0
  0
LINE
  8
0
 10
-294.031232
 20
314.688002
 30
0.0
 11
-293.770608
 21
314.926378
 31
0.0
  0
LINE
  8
0
 10
-278.709253
 20
329.986939
 30
0.0
 11
-278.333414
 21
330.34768
 31
0.0
  0
LINE
  8
0
 10
-278.333414
 20
330.34768
 30
0.0
 11
-278.709253
 21
329.986939
 31
0.0
  0
LINE
  8
0
 10
-278.333414
 20
330.34768
 30
0.0
 11
-277.934533
 21
330.685379
 31
0.0
  0
LINE
  8
0
 10
-277.934533
 20
330.685379
 30
0.0
 11
-278.333414
 21
330.34768
 31
0.0
  0
LINE
  8
0
 10
-277.934533
 20
330.685379
 30
0.0
 11
-277.519759
 21
331.00798
 31
0.0
  0
LINE
  8
0
 10
-277.519759
 20
331.00798
 30
0.0
 11
-277.934533
 21
330.685379
 31
0.0
  0
LINE
  8
0
 10
-277.519759
 20
331.00798
 30
0.0
 11
-277.089889
 21
331.299593
 31
0.0
  0
LINE
  8
0
 10
-277.089889
 20
331.299593
 30
0.0
 11
-277.519759
 21
331.00798
 31
0.0
  0
LINE
  8
0
 10
-277.089889
 20
331.299593
 30
0.0
 11
-276.644922
 21
331.576108
 31
0.0
  0
LINE
  8
0
 10
-276.644922
 20
331.576108
 30
0.0
 11
-277.089889
 21
331.299593
 31
0.0
  0
LINE
  8
0
 10
-276.644922
 20
331.576108
 30
0.0
 11
-276.184062
 21
331.821635
 31
0.0
  0
LINE
  8
0
 10
-276.184062
 20
331.821635
 30
0.0
 11
-276.644922
 21
331.576108
 31
0.0
  0
LINE
  8
0
 10
-276.184062
 20
331.821635
 30
0.0
 11
-275.716052
 21
332.052065
 31
0.0
  0
LINE
  8
0
 10
-275.716052
 20
332.052065
 30
0.0
 11
-276.184062
 21
331.821635
 31
0.0
  0
LINE
  8
0
 10
-275.716052
 20
332.052065
 30
0.0
 11
-275.23215
 21
332.251505
 31
0.0
  0
LINE
  8
0
 10
-275.23215
 20
332.251505
 30
0.0
 11
-275.716052
 21
332.052065
 31
0.0
  0
LINE
  8
0
 10
-275.23215
 20
332.251505
 30
0.0
 11
-274.741096
 21
332.420752
 31
0.0
  0
LINE
  8
0
 10
-274.741096
 20
332.420752
 30
0.0
 11
-275.23215
 21
332.251505
 31
0.0
  0
LINE
  8
0
 10
-274.741096
 20
332.420752
 30
0.0
 11
-274.234151
 21
332.574107
 31
0.0
  0
LINE
  8
0
 10
-274.234151
 20
332.574107
 30
0.0
 11
-274.741096
 21
332.420752
 31
0.0
  0
LINE
  8
0
 10
-274.234151
 20
332.574107
 30
0.0
 11
-273.727206
 21
332.696473
 31
0.0
  0
LINE
  8
0
 10
-273.727206
 20
332.696473
 30
0.0
 11
-274.234151
 21
332.574107
 31
0.0
  0
LINE
  8
0
 10
-273.727206
 20
332.696473
 30
0.0
 11
-273.21311
 21
332.788645
 31
0.0
  0
LINE
  8
0
 10
-273.21311
 20
332.788645
 30
0.0
 11
-273.727206
 21
332.696473
 31
0.0
  0
LINE
  8
0
 10
-273.21311
 20
332.788645
 30
0.0
 11
-272.699013
 21
332.857774
 31
0.0
  0
LINE
  8
0
 10
-272.699013
 20
332.857774
 30
0.0
 11
-273.21311
 21
332.788645
 31
0.0
  0
LINE
  8
0
 10
-272.699013
 20
332.857774
 30
0.0
 11
-272.176971
 21
332.896708
 31
0.0
  0
LINE
  8
0
 10
-272.176971
 20
332.896708
 30
0.0
 11
-272.699013
 21
332.857774
 31
0.0
  0
LINE
  8
0
 10
-272.176971
 20
332.896708
 30
0.0
 11
-271.654929
 21
332.911805
 31
0.0
  0
LINE
  8
0
 10
-271.654929
 20
332.911805
 30
0.0
 11
-272.176971
 21
332.896708
 31
0.0
  0
LINE
  8
0
 10
-140.143988
 20
332.911805
 30
0.0
 11
-139.798344
 21
332.926903
 31
0.0
  0
LINE
  8
0
 10
-139.798344
 20
332.926903
 30
0.0
 11
-139.4527
 21
332.972988
 31
0.0
  0
LINE
  8
0
 10
-139.4527
 20
332.972988
 30
0.0
 11
-139.115001
 21
333.050063
 31
0.0
  0
LINE
  8
0
 10
-139.115001
 20
333.050063
 30
0.0
 11
-138.785248
 21
333.149386
 31
0.0
  0
LINE
  8
0
 10
-138.785248
 20
333.149386
 30
0.0
 11
-138.462647
 21
333.287644
 31
0.0
  0
LINE
  8
0
 10
-138.462647
 20
333.287644
 30
0.0
 11
-138.147991
 21
333.448945
 31
0.0
  0
LINE
  8
0
 10
-138.147991
 20
333.448945
 30
0.0
 11
-138.462647
 21
333.287644
 31
0.0
  0
LINE
  8
0
 10
-138.462647
 20
333.287644
 30
0.0
 11
-138.785248
 21
333.149386
 31
0.0
  0
LINE
  8
0
 10
-138.785248
 20
333.149386
 30
0.0
 11
-139.115001
 21
333.050063
 31
0.0
  0
LINE
  8
0
 10
-139.115001
 20
333.050063
 30
0.0
 11
-139.4527
 21
332.972988
 31
0.0
  0
LINE
  8
0
 10
-139.4527
 20
332.972988
 30
0.0
 11
-139.798344
 21
332.926903
 31
0.0
  0
LINE
  8
0
 10
-139.798344
 20
332.926903
 30
0.0
 11
-140.143988
 21
332.911805
 31
0.0
  0
LINE
  8
0
 10
-138.147991
 20
352.325102
 30
0.0
 11
-138.462647
 21
352.486403
 31
0.0
  0
LINE
  8
0
 10
-138.462647
 20
352.486403
 30
0.0
 11
-138.785248
 21
352.62466
 31
0.0
  0
LINE
  8
0
 10
-138.785248
 20
352.62466
 30
0.0
 11
-139.115001
 21
352.723984
 31
0.0
  0
LINE
  8
0
 10
-139.115001
 20
352.723984
 30
0.0
 11
-139.4527
 21
352.801058
 31
0.0
  0
LINE
  8
0
 10
-139.4527
 20
352.801058
 30
0.0
 11
-139.798344
 21
352.847144
 31
0.0
  0
LINE
  8
0
 10
-139.798344
 20
352.847144
 30
0.0
 11
-140.143988
 21
352.862241
 31
0.0
  0
LINE
  8
0
 10
-140.143988
 20
352.862241
 30
0.0
 11
-139.798344
 21
352.847144
 31
0.0
  0
LINE
  8
0
 10
-139.798344
 20
352.847144
 30
0.0
 11
-139.4527
 21
352.801058
 31
0.0
  0
LINE
  8
0
 10
-139.4527
 20
352.801058
 30
0.0
 11
-139.115001
 21
352.723984
 31
0.0
  0
LINE
  8
0
 10
-139.115001
 20
352.723984
 30
0.0
 11
-138.785248
 21
352.62466
 31
0.0
  0
LINE
  8
0
 10
-138.785248
 20
352.62466
 30
0.0
 11
-138.462647
 21
352.486403
 31
0.0
  0
LINE
  8
0
 10
-138.462647
 20
352.486403
 30
0.0
 11
-138.147991
 21
352.325102
 31
0.0
  0
LINE
  8
0
 10
-302.099447
 20
360.828349
 30
0.0
 11
-302.352919
 21
360.589973
 31
0.0
  0
LINE
  8
0
 10
-302.352919
 20
360.589973
 30
0.0
 11
-302.099447
 21
360.828349
 31
0.0
  0
LINE
  8
0
 10
-302.352919
 20
360.589973
 30
0.0
 11
-302.62864
 21
360.382586
 31
0.0
  0
LINE
  8
0
 10
-302.62864
 20
360.382586
 30
0.0
 11
-302.352919
 21
360.589973
 31
0.0
  0
LINE
  8
0
 10
-302.62864
 20
360.382586
 30
0.0
 11
-302.928199
 21
360.191091
 31
0.0
  0
LINE
  8
0
 10
-302.928199
 20
360.191091
 30
0.0
 11
-302.62864
 21
360.382586
 31
0.0
  0
LINE
  8
0
 10
-302.928199
 20
360.191091
 30
0.0
 11
-303.235703
 21
360.037737
 31
0.0
  0
LINE
  8
0
 10
-303.235703
 20
360.037737
 30
0.0
 11
-302.928199
 21
360.191091
 31
0.0
  0
LINE
  8
0
 10
-303.235703
 20
360.037737
 30
0.0
 11
-303.55751
 21
359.899479
 31
0.0
  0
LINE
  8
0
 10
-303.55751
 20
359.899479
 30
0.0
 11
-303.235703
 21
360.037737
 31
0.0
  0
LINE
  8
0
 10
-303.55751
 20
359.899479
 30
0.0
 11
-303.888057
 21
359.799361
 31
0.0
  0
LINE
  8
0
 10
-303.888057
 20
359.799361
 30
0.0
 11
-303.55751
 21
359.899479
 31
0.0
  0
LINE
  8
0
 10
-303.888057
 20
359.799361
 30
0.0
 11
-304.225756
 21
359.723081
 31
0.0
  0
LINE
  8
0
 10
-304.225756
 20
359.723081
 30
0.0
 11
-303.888057
 21
359.799361
 31
0.0
  0
LINE
  8
0
 10
-304.225756
 20
359.723081
 30
0.0
 11
-304.5714
 21
359.676995
 31
0.0
  0
LINE
  8
0
 10
-304.5714
 20
359.676995
 30
0.0
 11
-304.225756
 21
359.723081
 31
0.0
  0
LINE
  8
0
 10
-304.5714
 20
359.676995
 30
0.0
 11
-304.91625
 21
359.661103
 31
0.0
  0
LINE
  8
0
 10
-304.91625
 20
359.661103
 30
0.0
 11
-304.5714
 21
359.676995
 31
0.0
  0
LINE
  8
0
 10
-304.91625
 20
359.661103
 30
0.0
 11
-305.26984
 21
359.676995
 31
0.0
  0
LINE
  8
0
 10
-305.26984
 20
359.676995
 30
0.0
 11
-304.91625
 21
359.661103
 31
0.0
  0
LINE
  8
0
 10
-305.26984
 20
359.676995
 30
0.0
 11
-305.615484
 21
359.723081
 31
0.0
  0
LINE
  8
0
 10
-305.615484
 20
359.723081
 30
0.0
 11
-305.26984
 21
359.676995
 31
0.0
  0
LINE
  8
0
 10
-305.615484
 20
359.723081
 30
0.0
 11
-305.953183
 21
359.799361
 31
0.0
  0
LINE
  8
0
 10
-305.953183
 20
359.799361
 30
0.0
 11
-305.615484
 21
359.723081
 31
0.0
  0
LINE
  8
0
 10
-305.953183
 20
359.799361
 30
0.0
 11
-306.282936
 21
359.899479
 31
0.0
  0
LINE
  8
0
 10
-306.282936
 20
359.899479
 30
0.0
 11
-305.953183
 21
359.799361
 31
0.0
  0
LINE
  8
0
 10
-306.282936
 20
359.899479
 30
0.0
 11
-306.605537
 21
360.037737
 31
0.0
  0
LINE
  8
0
 10
-306.605537
 20
360.037737
 30
0.0
 11
-306.282936
 21
359.899479
 31
0.0
  0
LINE
  8
0
 10
-306.605537
 20
360.037737
 30
0.0
 11
-306.912247
 21
360.191091
 31
0.0
  0
LINE
  8
0
 10
-306.912247
 20
360.191091
 30
0.0
 11
-306.605537
 21
360.037737
 31
0.0
  0
LINE
  8
0
 10
-306.912247
 20
360.191091
 30
0.0
 11
-307.211805
 21
360.382586
 31
0.0
  0
LINE
  8
0
 10
-307.211805
 20
360.382586
 30
0.0
 11
-306.912247
 21
360.191091
 31
0.0
  0
LINE
  8
0
 10
-307.211805
 20
360.382586
 30
0.0
 11
-307.488321
 21
360.589973
 31
0.0
  0
LINE
  8
0
 10
-307.488321
 20
360.589973
 30
0.0
 11
-307.211805
 21
360.382586
 31
0.0
  0
LINE
  8
0
 10
-307.488321
 20
360.589973
 30
0.0
 11
-307.741793
 21
360.828349
 31
0.0
  0
LINE
  8
0
 10
-307.741793
 20
360.828349
 30
0.0
 11
-307.488321
 21
360.589973
 31
0.0
  0
LINE
  8
0
 10
-310.904241
 20
368.435704
 30
0.0
 11
-310.889144
 21
368.788499
 31
0.0
  0
LINE
  8
0
 10
-310.889144
 20
368.788499
 30
0.0
 11
-310.904241
 21
368.435704
 31
0.0
  0
LINE
  8
0
 10
-310.889144
 20
368.788499
 30
0.0
 11
-310.843058
 21
369.134144
 31
0.0
  0
LINE
  8
0
 10
-310.843058
 20
369.134144
 30
0.0
 11
-310.889144
 21
368.788499
 31
0.0
  0
LINE
  8
0
 10
-310.843058
 20
369.134144
 30
0.0
 11
-310.773929
 21
369.471842
 31
0.0
  0
LINE
  8
0
 10
-310.773929
 20
369.471842
 30
0.0
 11
-310.843058
 21
369.134144
 31
0.0
  0
LINE
  8
0
 10
-310.773929
 20
369.471842
 30
0.0
 11
-310.665866
 21
369.801595
 31
0.0
  0
LINE
  8
0
 10
-310.665866
 20
369.801595
 30
0.0
 11
-310.773929
 21
369.471842
 31
0.0
  0
LINE
  8
0
 10
-310.665866
 20
369.801595
 30
0.0
 11
-310.535554
 21
370.124196
 31
0.0
  0
LINE
  8
0
 10
-310.535554
 20
370.124196
 30
0.0
 11
-310.665866
 21
369.801595
 31
0.0
  0
LINE
  8
0
 10
-310.535554
 20
370.124196
 30
0.0
 11
-310.374253
 21
370.430906
 31
0.0
  0
LINE
  8
0
 10
-310.374253
 20
370.430906
 30
0.0
 11
-310.535554
 21
370.124196
 31
0.0
  0
LINE
  8
0
 10
-310.374253
 20
370.430906
 30
0.0
 11
-310.182758
 21
370.730465
 31
0.0
  0
LINE
  8
0
 10
-310.182758
 20
370.730465
 30
0.0
 11
-310.374253
 21
370.430906
 31
0.0
  0
LINE
  8
0
 10
-310.182758
 20
370.730465
 30
0.0
 11
-309.975371
 21
371.00698
 31
0.0
  0
LINE
  8
0
 10
-309.975371
 20
371.00698
 30
0.0
 11
-310.182758
 21
370.730465
 31
0.0
  0
LINE
  8
0
 10
-309.975371
 20
371.00698
 30
0.0
 11
-309.736996
 21
371.260453
 31
0.0
  0
LINE
  8
0
 10
-309.736996
 20
371.260453
 30
0.0
 11
-309.975371
 21
371.00698
 31
0.0
  0
LINE
  8
0
 10
-309.736996
 20
371.260453
 30
0.0
 11
-309.484318
 21
371.498034
 31
0.0
  0
LINE
  8
0
 10
-309.484318
 20
371.498034
 30
0.0
 11
-309.736996
 21
371.260453
 31
0.0
  0
LINE
  8
0
 10
-309.484318
 20
371.498034
 30
0.0
 11
-309.207802
 21
371.70542
 31
0.0
  0
LINE
  8
0
 10
-309.207802
 20
371.70542
 30
0.0
 11
-309.484318
 21
371.498034
 31
0.0
  0
LINE
  8
0
 10
-309.207802
 20
371.70542
 30
0.0
 11
-308.908244
 21
371.89771
 31
0.0
  0
LINE
  8
0
 10
-308.908244
 20
371.89771
 30
0.0
 11
-309.207802
 21
371.70542
 31
0.0
  0
LINE
  8
0
 10
-308.908244
 20
371.89771
 30
0.0
 11
-308.601534
 21
372.058216
 31
0.0
  0
LINE
  8
0
 10
-308.601534
 20
372.058216
 30
0.0
 11
-308.908244
 21
371.89771
 31
0.0
  0
LINE
  8
0
 10
-308.601534
 20
372.058216
 30
0.0
 11
-308.278933
 21
372.189322
 31
0.0
  0
LINE
  8
0
 10
-308.278933
 20
372.189322
 30
0.0
 11
-308.601534
 21
372.058216
 31
0.0
  0
LINE
  8
0
 10
-308.278933
 20
372.189322
 30
0.0
 11
-307.948386
 21
372.296591
 31
0.0
  0
LINE
  8
0
 10
-307.948386
 20
372.296591
 30
0.0
 11
-308.278933
 21
372.189322
 31
0.0
  0
LINE
  8
0
 10
-307.948386
 20
372.296591
 30
0.0
 11
-307.610687
 21
372.36572
 31
0.0
  0
LINE
  8
0
 10
-307.610687
 20
372.36572
 30
0.0
 11
-307.948386
 21
372.296591
 31
0.0
  0
LINE
  8
0
 10
-307.610687
 20
372.36572
 30
0.0
 11
-307.265837
 21
372.411806
 31
0.0
  0
LINE
  8
0
 10
-307.265837
 20
372.411806
 30
0.0
 11
-307.610687
 21
372.36572
 31
0.0
  0
LINE
  8
0
 10
-307.265837
 20
372.411806
 30
0.0
 11
-306.912247
 21
372.426903
 31
0.0
  0
LINE
  8
0
 10
-306.912247
 20
372.426903
 30
0.0
 11
-307.265837
 21
372.411806
 31
0.0
  0
LINE
  8
0
 10
-296.595357
 20
372.426903
 30
0.0
 11
-296.249713
 21
372.411806
 31
0.0
  0
LINE
  8
0
 10
-296.249713
 20
372.411806
 30
0.0
 11
-296.595357
 21
372.426903
 31
0.0
  0
LINE
  8
0
 10
-296.249713
 20
372.411806
 30
0.0
 11
-295.904863
 21
372.36572
 31
0.0
  0
LINE
  8
0
 10
-295.904863
 20
372.36572
 30
0.0
 11
-296.249713
 21
372.411806
 31
0.0
  0
LINE
  8
0
 10
-295.904863
 20
372.36572
 30
0.0
 11
-295.56637
 21
372.296591
 31
0.0
  0
LINE
  8
0
 10
-295.56637
 20
372.296591
 30
0.0
 11
-295.904863
 21
372.36572
 31
0.0
  0
LINE
  8
0
 10
-295.56637
 20
372.296591
 30
0.0
 11
-295.228672
 21
372.189322
 31
0.0
  0
LINE
  8
0
 10
-295.228672
 20
372.189322
 30
0.0
 11
-295.56637
 21
372.296591
 31
0.0
  0
LINE
  8
0
 10
-295.228672
 20
372.189322
 30
0.0
 11
-294.906865
 21
372.058216
 31
0.0
  0
LINE
  8
0
 10
-294.906865
 20
372.058216
 30
0.0
 11
-295.228672
 21
372.189322
 31
0.0
  0
LINE
  8
0
 10
-294.906865
 20
372.058216
 30
0.0
 11
-294.59936
 21
371.89771
 31
0.0
  0
LINE
  8
0
 10
-294.59936
 20
371.89771
 30
0.0
 11
-294.906865
 21
372.058216
 31
0.0
  0
LINE
  8
0
 10
-294.59936
 20
371.89771
 30
0.0
 11
-294.307748
 21
371.70542
 31
0.0
  0
LINE
  8
0
 10
-294.307748
 20
371.70542
 30
0.0
 11
-294.59936
 21
371.89771
 31
0.0
  0
LINE
  8
0
 10
-294.307748
 20
371.70542
 30
0.0
 11
-294.031232
 21
371.498034
 31
0.0
  0
LINE
  8
0
 10
-294.031232
 20
371.498034
 30
0.0
 11
-294.307748
 21
371.70542
 31
0.0
  0
LINE
  8
0
 10
-294.031232
 20
371.498034
 30
0.0
 11
-293.770608
 21
371.260453
 31
0.0
  0
LINE
  8
0
 10
-293.770608
 20
371.260453
 30
0.0
 11
-294.031232
 21
371.498034
 31
0.0
  0
LINE
  8
0
 10
-298.644592
 20
367.100007
 30
0.0
 11
-298.828935
 21
367.260513
 31
0.0
  0
LINE
  8
0
 10
-298.828935
 20
367.260513
 30
0.0
 11
-299.021225
 21
367.39877
 31
0.0
  0
LINE
  8
0
 10
-299.021225
 20
367.39877
 30
0.0
 11
-299.235763
 21
367.513985
 31
0.0
  0
LINE
  8
0
 10
-299.235763
 20
367.513985
 30
0.0
 11
-299.466192
 21
367.598211
 31
0.0
  0
LINE
  8
0
 10
-299.466192
 20
367.598211
 30
0.0
 11
-299.696622
 21
367.652243
 31
0.0
  0
LINE
  8
0
 10
-299.696622
 20
367.652243
 30
0.0
 11
-299.934203
 21
367.683232
 31
0.0
  0
LINE
  8
0
 10
-299.934203
 20
367.683232
 30
0.0
 11
-300.180524
 21
367.683232
 31
0.0
  0
LINE
  8
0
 10
-300.180524
 20
367.683232
 30
0.0
 11
-300.418105
 21
367.652243
 31
0.0
  0
LINE
  8
0
 10
-300.418105
 20
367.652243
 30
0.0
 11
-300.648535
 21
367.598211
 31
0.0
  0
LINE
  8
0
 10
-300.648535
 20
367.598211
 30
0.0
 11
-300.878964
 21
367.513985
 31
0.0
  0
LINE
  8
0
 10
-300.878964
 20
367.513985
 30
0.0
 11
-301.086351
 21
367.39877
 31
0.0
  0
LINE
  8
0
 10
-301.086351
 20
367.39877
 30
0.0
 11
-301.285792
 21
367.260513
 31
0.0
  0
LINE
  8
0
 10
-301.285792
 20
367.260513
 30
0.0
 11
-301.470135
 21
367.100007
 31
0.0
  0
LINE
  8
0
 10
-301.470135
 20
367.100007
 30
0.0
 11
-301.285792
 21
367.260513
 31
0.0
  0
LINE
  8
0
 10
-301.285792
 20
367.260513
 30
0.0
 11
-301.086351
 21
367.39877
 31
0.0
  0
LINE
  8
0
 10
-301.086351
 20
367.39877
 30
0.0
 11
-300.878964
 21
367.513985
 31
0.0
  0
LINE
  8
0
 10
-300.878964
 20
367.513985
 30
0.0
 11
-300.648535
 21
367.598211
 31
0.0
  0
LINE
  8
0
 10
-300.648535
 20
367.598211
 30
0.0
 11
-300.418105
 21
367.652243
 31
0.0
  0
LINE
  8
0
 10
-300.418105
 20
367.652243
 30
0.0
 11
-300.180524
 21
367.683232
 31
0.0
  0
LINE
  8
0
 10
-300.180524
 20
367.683232
 30
0.0
 11
-299.934203
 21
367.683232
 31
0.0
  0
LINE
  8
0
 10
-299.934203
 20
367.683232
 30
0.0
 11
-299.696622
 21
367.652243
 31
0.0
  0
LINE
  8
0
 10
-299.696622
 20
367.652243
 30
0.0
 11
-299.466192
 21
367.598211
 31
0.0
  0
LINE
  8
0
 10
-299.466192
 20
367.598211
 30
0.0
 11
-299.235763
 21
367.513985
 31
0.0
  0
LINE
  8
0
 10
-299.235763
 20
367.513985
 30
0.0
 11
-299.021225
 21
367.39877
 31
0.0
  0
LINE
  8
0
 10
-299.021225
 20
367.39877
 30
0.0
 11
-298.828935
 21
367.260513
 31
0.0
  0
LINE
  8
0
 10
-298.828935
 20
367.260513
 30
0.0
 11
-298.644592
 21
367.100007
 31
0.0
  0
LINE
  8
0
 10
-298.644592
 20
367.100007
 30
0.0
 11
-298.484086
 21
366.922814
 31
0.0
  0
LINE
  8
0
 10
-298.484086
 20
366.922814
 30
0.0
 11
-298.644592
 21
367.100007
 31
0.0
  0
LINE
  8
0
 10
-298.484086
 20
366.922814
 30
0.0
 11
-298.345828
 21
366.723373
 31
0.0
  0
LINE
  8
0
 10
-298.345828
 20
366.723373
 30
0.0
 11
-298.484086
 21
366.922814
 31
0.0
  0
LINE
  8
0
 10
-298.345828
 20
366.723373
 30
0.0
 11
-298.237764
 21
366.508835
 31
0.0
  0
LINE
  8
0
 10
-298.237764
 20
366.508835
 30
0.0
 11
-298.345828
 21
366.723373
 31
0.0
  0
LINE
  8
0
 10
-298.237764
 20
366.508835
 30
0.0
 11
-298.153538
 21
366.285557
 31
0.0
  0
LINE
  8
0
 10
-298.153538
 20
366.285557
 30
0.0
 11
-298.237764
 21
366.508835
 31
0.0
  0
LINE
  8
0
 10
-298.153538
 20
366.285557
 30
0.0
 11
-298.092355
 21
366.047976
 31
0.0
  0
LINE
  8
0
 10
-298.092355
 20
366.047976
 30
0.0
 11
-298.153538
 21
366.285557
 31
0.0
  0
LINE
  8
0
 10
-298.092355
 20
366.047976
 30
0.0
 11
-298.061366
 21
365.810395
 31
0.0
  0
LINE
  8
0
 10
-298.061366
 20
365.810395
 30
0.0
 11
-298.092355
 21
366.047976
 31
0.0
  0
LINE
  8
0
 10
-298.061366
 20
365.810395
 30
0.0
 11
-298.061366
 21
365.57202
 31
0.0
  0
LINE
  8
0
 10
-298.061366
 20
365.57202
 30
0.0
 11
-298.061366
 21
365.810395
 31
0.0
  0
LINE
  8
0
 10
-298.061366
 20
365.57202
 30
0.0
 11
-298.092355
 21
365.334439
 31
0.0
  0
LINE
  8
0
 10
-298.092355
 20
365.334439
 30
0.0
 11
-298.061366
 21
365.57202
 31
0.0
  0
LINE
  8
0
 10
-298.092355
 20
365.334439
 30
0.0
 11
-298.153538
 21
365.096064
 31
0.0
  0
LINE
  8
0
 10
-298.153538
 20
365.096064
 30
0.0
 11
-298.092355
 21
365.334439
 31
0.0
  0
LINE
  8
0
 10
-298.153538
 20
365.096064
 30
0.0
 11
-298.237764
 21
364.87358
 31
0.0
  0
LINE
  8
0
 10
-298.237764
 20
364.87358
 30
0.0
 11
-298.153538
 21
365.096064
 31
0.0
  0
LINE
  8
0
 10
-298.237764
 20
364.87358
 30
0.0
 11
-298.345828
 21
364.658247
 31
0.0
  0
LINE
  8
0
 10
-298.345828
 20
364.658247
 30
0.0
 11
-298.237764
 21
364.87358
 31
0.0
  0
LINE
  8
0
 10
-298.345828
 20
364.658247
 30
0.0
 11
-298.484086
 21
364.458807
 31
0.0
  0
LINE
  8
0
 10
-298.484086
 20
364.458807
 30
0.0
 11
-298.345828
 21
364.658247
 31
0.0
  0
LINE
  8
0
 10
-298.484086
 20
364.458807
 30
0.0
 11
-298.644592
 21
364.282409
 31
0.0
  0
LINE
  8
0
 10
-298.644592
 20
364.282409
 30
0.0
 11
-298.484086
 21
364.458807
 31
0.0
  0
LINE
  8
0
 10
-281.189152
 20
350.211901
 30
0.0
 11
-280.812519
 21
349.900217
 31
0.0
  0
LINE
  8
0
 10
-280.812519
 20
349.900217
 30
0.0
 11
-280.413637
 21
349.57775
 31
0.0
  0
LINE
  8
0
 10
-280.413637
 20
349.57775
 30
0.0
 11
-279.998864
 21
349.269443
 31
0.0
  0
LINE
  8
0
 10
-279.998864
 20
349.269443
 30
0.0
 11
-279.568994
 21
348.976443
 31
0.0
  0
LINE
  8
0
 10
-279.568994
 20
348.976443
 30
0.0
 11
-279.124026
 21
348.699303
 31
0.0
  0
LINE
  8
0
 10
-279.124026
 20
348.699303
 30
0.0
 11
-278.663167
 21
348.43822
 31
0.0
  0
LINE
  8
0
 10
-278.663167
 20
348.43822
 30
0.0
 11
-278.195157
 21
348.198268
 31
0.0
  0
LINE
  8
0
 10
-278.195157
 20
348.198268
 30
0.0
 11
-277.711254
 21
347.975189
 31
0.0
  0
LINE
  8
0
 10
-277.711254
 20
347.975189
 30
0.0
 11
-277.220201
 21
347.773357
 31
0.0
  0
LINE
  8
0
 10
-277.220201
 20
347.773357
 30
0.0
 11
-276.71405
 21
347.589883
 31
0.0
  0
LINE
  8
0
 10
-276.71405
 20
347.589883
 30
0.0
 11
-276.207105
 21
347.429996
 31
0.0
  0
LINE
  8
0
 10
-276.207105
 20
347.429996
 30
0.0
 11
-275.693009
 21
347.2913
 31
0.0
  0
LINE
  8
0
 10
-275.693009
 20
347.2913
 30
0.0
 11
-275.178118
 21
347.175264
 31
0.0
  0
LINE
  8
0
 10
-275.178118
 20
347.175264
 30
0.0
 11
-274.656076
 21
347.051092
 31
0.0
  0
LINE
  8
0
 10
-274.656076
 20
347.051092
 30
0.0
 11
-274.134034
 21
346.920709
 31
0.0
  0
LINE
  8
0
 10
-274.134034
 20
346.920709
 30
0.0
 11
-274.656076
 21
347.051092
 31
0.0
  0
LINE
  8
0
 10
-274.656076
 20
347.051092
 30
0.0
 11
-275.178118
 21
347.175264
 31
0.0
  0
LINE
  8
0
 10
-275.178118
 20
347.175264
 30
0.0
 11
-275.693009
 21
347.2913
 31
0.0
  0
LINE
  8
0
 10
-275.693009
 20
347.2913
 30
0.0
 11
-276.207105
 21
347.429996
 31
0.0
  0
LINE
  8
0
 10
-276.207105
 20
347.429996
 30
0.0
 11
-276.71405
 21
347.589883
 31
0.0
  0
LINE
  8
0
 10
-276.71405
 20
347.589883
 30
0.0
 11
-277.220201
 21
347.773357
 31
0.0
  0
LINE
  8
0
 10
-277.220201
 20
347.773357
 30
0.0
 11
-277.711254
 21
347.975189
 31
0.0
  0
LINE
  8
0
 10
-277.711254
 20
347.975189
 30
0.0
 11
-278.195157
 21
348.198268
 31
0.0
  0
LINE
  8
0
 10
-278.195157
 20
348.198268
 30
0.0
 11
-278.663167
 21
348.43822
 31
0.0
  0
LINE
  8
0
 10
-278.663167
 20
348.43822
 30
0.0
 11
-279.124026
 21
348.699303
 31
0.0
  0
LINE
  8
0
 10
-279.124026
 20
348.699303
 30
0.0
 11
-279.568994
 21
348.976443
 31
0.0
  0
LINE
  8
0
 10
-279.568994
 20
348.976443
 30
0.0
 11
-279.998864
 21
349.269443
 31
0.0
  0
LINE
  8
0
 10
-279.998864
 20
349.269443
 30
0.0
 11
-280.413637
 21
349.57775
 31
0.0
  0
LINE
  8
0
 10
-280.413637
 20
349.57775
 30
0.0
 11
-280.812519
 21
349.900217
 31
0.0
  0
LINE
  8
0
 10
-280.812519
 20
349.900217
 30
0.0
 11
-281.189152
 21
350.211901
 31
0.0
  0
LINE
  8
0
 10
-281.189152
 20
335.97493
 30
0.0
 11
-280.812519
 21
336.335671
 31
0.0
  0
LINE
  8
0
 10
-280.812519
 20
336.335671
 30
0.0
 11
-281.189152
 21
335.97493
 31
0.0
  0
LINE
  8
0
 10
-280.812519
 20
336.335671
 30
0.0
 11
-280.413637
 21
336.67337
 31
0.0
  0
LINE
  8
0
 10
-280.413637
 20
336.67337
 30
0.0
 11
-280.812519
 21
336.335671
 31
0.0
  0
LINE
  8
0
 10
-280.413637
 20
336.67337
 30
0.0
 11
-279.998864
 21
336.988026
 31
0.0
  0
LINE
  8
0
 10
-279.998864
 20
336.988026
 30
0.0
 11
-280.413637
 21
336.67337
 31
0.0
  0
LINE
  8
0
 10
-279.998864
 20
336.988026
 30
0.0
 11
-279.568994
 21
337.287584
 31
0.0
  0
LINE
  8
0
 10
-279.568994
 20
337.287584
 30
0.0
 11
-279.998864
 21
336.988026
 31
0.0
  0
LINE
  8
0
 10
-279.568994
 20
337.287584
 30
0.0
 11
-279.124026
 21
337.563305
 31
0.0
  0
LINE
  8
0
 10
-279.124026
 20
337.563305
 30
0.0
 11
-279.568994
 21
337.287584
 31
0.0
  0
LINE
  8
0
 10
-279.124026
 20
337.563305
 30
0.0
 11
-278.663167
 21
337.809626
 31
0.0
  0
LINE
  8
0
 10
-278.663167
 20
337.809626
 30
0.0
 11
-279.124026
 21
337.563305
 31
0.0
  0
LINE
  8
0
 10
-278.663167
 20
337.809626
 30
0.0
 11
-278.195157
 21
338.03211
 31
0.0
  0
LINE
  8
0
 10
-278.195157
 20
338.03211
 30
0.0
 11
-278.663167
 21
337.809626
 31
0.0
  0
LINE
  8
0
 10
-278.195157
 20
338.03211
 30
0.0
 11
-277.711254
 21
338.231551
 31
0.0
  0
LINE
  8
0
 10
-277.711254
 20
338.231551
 30
0.0
 11
-278.195157
 21
338.03211
 31
0.0
  0
LINE
  8
0
 10
-277.711254
 20
338.231551
 30
0.0
 11
-277.220201
 21
338.407949
 31
0.0
  0
LINE
  8
0
 10
-277.220201
 20
338.407949
 30
0.0
 11
-277.711254
 21
338.231551
 31
0.0
  0
LINE
  8
0
 10
-277.220201
 20
338.407949
 30
0.0
 11
-276.71405
 21
338.554152
 31
0.0
  0
LINE
  8
0
 10
-276.71405
 20
338.554152
 30
0.0
 11
-277.220201
 21
338.407949
 31
0.0
  0
LINE
  8
0
 10
-276.71405
 20
338.554152
 30
0.0
 11
-276.207105
 21
338.676518
 31
0.0
  0
LINE
  8
0
 10
-276.207105
 20
338.676518
 30
0.0
 11
-276.71405
 21
338.554152
 31
0.0
  0
LINE
  8
0
 10
-276.207105
 20
338.676518
 30
0.0
 11
-275.693009
 21
338.776636
 31
0.0
  0
LINE
  8
0
 10
-275.693009
 20
338.776636
 30
0.0
 11
-276.207105
 21
338.676518
 31
0.0
  0
LINE
  8
0
 10
-275.693009
 20
338.776636
 30
0.0
 11
-275.178118
 21
338.845765
 31
0.0
  0
LINE
  8
0
 10
-275.178118
 20
338.845765
 30
0.0
 11
-275.693009
 21
338.776636
 31
0.0
  0
LINE
  8
0
 10
-275.178118
 20
338.845765
 30
0.0
 11
-274.656076
 21
338.883905
 31
0.0
  0
LINE
  8
0
 10
-274.656076
 20
338.883905
 30
0.0
 11
-275.178118
 21
338.845765
 31
0.0
  0
LINE
  8
0
 10
-274.656076
 20
338.883905
 30
0.0
 11
-274.134034
 21
338.899002
 31
0.0
  0
LINE
  8
0
 10
-274.134034
 20
338.899002
 30
0.0
 11
-274.656076
 21
338.883905
 31
0.0
  0
LINE
  8
0
 10
-298.644592
 20
321.903627
 30
0.0
 11
-298.484086
 21
321.727229
 31
0.0
  0
LINE
  8
0
 10
-298.484086
 20
321.727229
 30
0.0
 11
-298.644592
 21
321.903627
 31
0.0
  0
LINE
  8
0
 10
-298.644592
 20
321.903627
 30
0.0
 11
-302.099447
 21
325.358482
 31
0.0
  0
LINE
  8
0
 10
-302.099447
 20
325.358482
 30
0.0
 11
-302.352919
 21
325.596063
 31
0.0
  0
LINE
  8
0
 10
-302.352919
 20
325.596063
 30
0.0
 11
-302.62864
 21
325.80345
 31
0.0
  0
LINE
  8
0
 10
-302.62864
 20
325.80345
 30
0.0
 11
-302.928199
 21
325.995739
 31
0.0
  0
LINE
  8
0
 10
-302.928199
 20
325.995739
 30
0.0
 11
-303.235703
 21
326.149094
 31
0.0
  0
LINE
  8
0
 10
-303.235703
 20
326.149094
 30
0.0
 11
-303.55751
 21
326.287352
 31
0.0
  0
LINE
  8
0
 10
-303.55751
 20
326.287352
 30
0.0
 11
-303.888057
 21
326.386675
 31
0.0
  0
LINE
  8
0
 10
-303.888057
 20
326.386675
 30
0.0
 11
-304.225756
 21
326.46375
 31
0.0
  0
LINE
  8
0
 10
-304.225756
 20
326.46375
 30
0.0
 11
-304.5714
 21
326.509835
 31
0.0
  0
LINE
  8
0
 10
-304.5714
 20
326.509835
 30
0.0
 11
-304.91625
 21
326.524933
 31
0.0
  0
LINE
  8
0
 10
-304.91625
 20
326.524933
 30
0.0
 11
-305.26984
 21
326.509835
 31
0.0
  0
LINE
  8
0
 10
-305.26984
 20
326.509835
 30
0.0
 11
-305.615484
 21
326.46375
 31
0.0
  0
LINE
  8
0
 10
-305.615484
 20
326.46375
 30
0.0
 11
-305.953183
 21
326.386675
 31
0.0
  0
LINE
  8
0
 10
-305.953183
 20
326.386675
 30
0.0
 11
-306.282936
 21
326.287352
 31
0.0
  0
LINE
  8
0
 10
-306.282936
 20
326.287352
 30
0.0
 11
-306.605537
 21
326.149094
 31
0.0
  0
LINE
  8
0
 10
-306.605537
 20
326.149094
 30
0.0
 11
-306.912247
 21
325.995739
 31
0.0
  0
LINE
  8
0
 10
-306.912247
 20
325.995739
 30
0.0
 11
-307.211805
 21
325.80345
 31
0.0
  0
LINE
  8
0
 10
-307.211805
 20
325.80345
 30
0.0
 11
-307.488321
 21
325.596063
 31
0.0
  0
LINE
  8
0
 10
-307.488321
 20
325.596063
 30
0.0
 11
-307.741793
 21
325.358482
 31
0.0
  0
LINE
  8
0
 10
-307.741793
 20
325.358482
 30
0.0
 11
-310.904241
 21
322.19524
 31
0.0
  0
LINE
  8
0
 10
-310.904241
 20
322.19524
 30
0.0
 11
-307.741793
 21
325.358482
 31
0.0
  0
LINE
  8
0
 10
-307.741793
 20
325.358482
 30
0.0
 11
-307.488321
 21
325.596063
 31
0.0
  0
LINE
  8
0
 10
-307.488321
 20
325.596063
 30
0.0
 11
-307.211805
 21
325.80345
 31
0.0
  0
LINE
  8
0
 10
-307.211805
 20
325.80345
 30
0.0
 11
-306.912247
 21
325.995739
 31
0.0
  0
LINE
  8
0
 10
-306.912247
 20
325.995739
 30
0.0
 11
-306.605537
 21
326.149094
 31
0.0
  0
LINE
  8
0
 10
-306.605537
 20
326.149094
 30
0.0
 11
-306.282936
 21
326.287352
 31
0.0
  0
LINE
  8
0
 10
-306.282936
 20
326.287352
 30
0.0
 11
-305.953183
 21
326.386675
 31
0.0
  0
LINE
  8
0
 10
-305.953183
 20
326.386675
 30
0.0
 11
-305.615484
 21
326.46375
 31
0.0
  0
LINE
  8
0
 10
-305.615484
 20
326.46375
 30
0.0
 11
-305.26984
 21
326.509835
 31
0.0
  0
LINE
  8
0
 10
-305.26984
 20
326.509835
 30
0.0
 11
-304.91625
 21
326.524933
 31
0.0
  0
LINE
  8
0
 10
-304.91625
 20
326.524933
 30
0.0
 11
-304.5714
 21
326.509835
 31
0.0
  0
LINE
  8
0
 10
-304.5714
 20
326.509835
 30
0.0
 11
-304.225756
 21
326.46375
 31
0.0
  0
LINE
  8
0
 10
-304.225756
 20
326.46375
 30
0.0
 11
-303.888057
 21
326.386675
 31
0.0
  0
LINE
  8
0
 10
-303.888057
 20
326.386675
 30
0.0
 11
-303.55751
 21
326.287352
 31
0.0
  0
LINE
  8
0
 10
-303.55751
 20
326.287352
 30
0.0
 11
-303.235703
 21
326.149094
 31
0.0
  0
LINE
  8
0
 10
-303.235703
 20
326.149094
 30
0.0
 11
-302.928199
 21
325.995739
 31
0.0
  0
LINE
  8
0
 10
-302.928199
 20
325.995739
 30
0.0
 11
-302.62864
 21
325.80345
 31
0.0
  0
LINE
  8
0
 10
-302.62864
 20
325.80345
 30
0.0
 11
-302.352919
 21
325.596063
 31
0.0
  0
LINE
  8
0
 10
-302.352919
 20
325.596063
 30
0.0
 11
-302.099447
 21
325.358482
 31
0.0
  0
LINE
  8
0
 10
-302.099447
 20
325.358482
 30
0.0
 11
-298.644592
 21
321.903627
 31
0.0
  0
LINE
  8
0
 10
-298.484086
 20
321.727229
 30
0.0
 11
-298.345828
 21
321.527789
 31
0.0
  0
LINE
  8
0
 10
-298.345828
 20
321.527789
 30
0.0
 11
-298.484086
 21
321.727229
 31
0.0
  0
LINE
  8
0
 10
-298.345828
 20
321.527789
 30
0.0
 11
-298.237764
 21
321.312456
 31
0.0
  0
LINE
  8
0
 10
-298.237764
 20
321.312456
 30
0.0
 11
-298.345828
 21
321.527789
 31
0.0
  0
LINE
  8
0
 10
-298.237764
 20
321.312456
 30
0.0
 11
-298.153538
 21
321.089972
 31
0.0
  0
LINE
  8
0
 10
-298.153538
 20
321.089972
 30
0.0
 11
-298.237764
 21
321.312456
 31
0.0
  0
LINE
  8
0
 10
-298.153538
 20
321.089972
 30
0.0
 11
-298.092355
 21
320.852391
 31
0.0
  0
LINE
  8
0
 10
-298.092355
 20
320.852391
 30
0.0
 11
-298.153538
 21
321.089972
 31
0.0
  0
LINE
  8
0
 10
-298.092355
 20
320.852391
 30
0.0
 11
-298.061366
 21
320.614016
 31
0.0
  0
LINE
  8
0
 10
-298.061366
 20
320.614016
 30
0.0
 11
-298.092355
 21
320.852391
 31
0.0
  0
LINE
  8
0
 10
-298.061366
 20
320.614016
 30
0.0
 11
-298.061366
 21
320.376435
 31
0.0
  0
LINE
  8
0
 10
-298.061366
 20
320.376435
 30
0.0
 11
-298.061366
 21
320.614016
 31
0.0
  0
LINE
  8
0
 10
-298.061366
 20
320.376435
 30
0.0
 11
-298.092355
 21
320.13806
 31
0.0
  0
LINE
  8
0
 10
-298.092355
 20
320.13806
 30
0.0
 11
-298.061366
 21
320.376435
 31
0.0
  0
LINE
  8
0
 10
-298.092355
 20
320.13806
 30
0.0
 11
-298.153538
 21
319.900479
 31
0.0
  0
LINE
  8
0
 10
-298.153538
 20
319.900479
 30
0.0
 11
-298.092355
 21
320.13806
 31
0.0
  0
LINE
  8
0
 10
-298.153538
 20
319.900479
 30
0.0
 11
-298.237764
 21
319.677995
 31
0.0
  0
LINE
  8
0
 10
-298.237764
 20
319.677995
 30
0.0
 11
-298.153538
 21
319.900479
 31
0.0
  0
LINE
  8
0
 10
-298.237764
 20
319.677995
 30
0.0
 11
-298.345828
 21
319.462663
 31
0.0
  0
LINE
  8
0
 10
-298.345828
 20
319.462663
 30
0.0
 11
-298.237764
 21
319.677995
 31
0.0
  0
LINE
  8
0
 10
-298.345828
 20
319.462663
 30
0.0
 11
-298.484086
 21
319.263222
 31
0.0
  0
LINE
  8
0
 10
-298.484086
 20
319.263222
 30
0.0
 11
-298.345828
 21
319.462663
 31
0.0
  0
LINE
  8
0
 10
-298.484086
 20
319.263222
 30
0.0
 11
-298.644592
 21
319.086824
 31
0.0
  0
LINE
  8
0
 10
-298.644592
 20
319.086824
 30
0.0
 11
-298.484086
 21
319.263222
 31
0.0
  0
LINE
  8
0
 10
-298.644592
 20
319.086824
 30
0.0
 11
-298.828935
 21
318.925523
 31
0.0
  0
LINE
  8
0
 10
-298.828935
 20
318.925523
 30
0.0
 11
-298.644592
 21
319.086824
 31
0.0
  0
LINE
  8
0
 10
-298.828935
 20
318.925523
 30
0.0
 11
-299.021225
 21
318.787266
 31
0.0
  0
LINE
  8
0
 10
-299.021225
 20
318.787266
 30
0.0
 11
-298.828935
 21
318.925523
 31
0.0
  0
LINE
  8
0
 10
-299.021225
 20
318.787266
 30
0.0
 11
-299.235763
 21
318.672051
 31
0.0
  0
LINE
  8
0
 10
-299.235763
 20
318.672051
 30
0.0
 11
-299.021225
 21
318.787266
 31
0.0
  0
LINE
  8
0
 10
-299.235763
 20
318.672051
 30
0.0
 11
-299.466192
 21
318.587825
 31
0.0
  0
LINE
  8
0
 10
-299.466192
 20
318.587825
 30
0.0
 11
-299.235763
 21
318.672051
 31
0.0
  0
LINE
  8
0
 10
-299.466192
 20
318.587825
 30
0.0
 11
-299.696622
 21
318.533793
 31
0.0
  0
LINE
  8
0
 10
-299.696622
 20
318.533793
 30
0.0
 11
-299.466192
 21
318.587825
 31
0.0
  0
LINE
  8
0
 10
-299.696622
 20
318.533793
 30
0.0
 11
-299.934203
 21
318.502804
 31
0.0
  0
LINE
  8
0
 10
-299.934203
 20
318.502804
 30
0.0
 11
-299.696622
 21
318.533793
 31
0.0
  0
LINE
  8
0
 10
-299.934203
 20
318.502804
 30
0.0
 11
-300.180524
 21
318.502804
 31
0.0
  0
LINE
  8
0
 10
-300.180524
 20
318.502804
 30
0.0
 11
-299.934203
 21
318.502804
 31
0.0
  0
LINE
  8
0
 10
-300.180524
 20
318.502804
 30
0.0
 11
-300.418105
 21
318.533793
 31
0.0
  0
LINE
  8
0
 10
-300.418105
 20
318.533793
 30
0.0
 11
-300.180524
 21
318.502804
 31
0.0
  0
LINE
  8
0
 10
-300.418105
 20
318.533793
 30
0.0
 11
-300.648535
 21
318.587825
 31
0.0
  0
LINE
  8
0
 10
-300.648535
 20
318.587825
 30
0.0
 11
-300.418105
 21
318.533793
 31
0.0
  0
LINE
  8
0
 10
-300.648535
 20
318.587825
 30
0.0
 11
-300.878964
 21
318.672051
 31
0.0
  0
LINE
  8
0
 10
-300.878964
 20
318.672051
 30
0.0
 11
-300.648535
 21
318.587825
 31
0.0
  0
LINE
  8
0
 10
-300.878964
 20
318.672051
 30
0.0
 11
-301.086351
 21
318.787266
 31
0.0
  0
LINE
  8
0
 10
-301.086351
 20
318.787266
 30
0.0
 11
-300.878964
 21
318.672051
 31
0.0
  0
LINE
  8
0
 10
-301.086351
 20
318.787266
 30
0.0
 11
-301.285792
 21
318.925523
 31
0.0
  0
LINE
  8
0
 10
-301.285792
 20
318.925523
 30
0.0
 11
-301.086351
 21
318.787266
 31
0.0
  0
LINE
  8
0
 10
-301.285792
 20
318.925523
 30
0.0
 11
-301.470135
 21
319.086824
 31
0.0
  0
LINE
  8
0
 10
-301.470135
 20
319.086824
 30
0.0
 11
-301.285792
 21
318.925523
 31
0.0
  0
LINE
  8
0
 10
-301.470135
 20
319.086824
 30
0.0
 11
-304.91625
 21
322.532938
 31
0.0
  0
LINE
  8
0
 10
-304.91625
 20
322.532938
 30
0.0
 11
-301.470135
 21
319.086824
 31
0.0
  0
LINE
  8
0
 10
-299.420107
 20
317.751127
 30
0.0
 11
-306.912247
 21
317.751127
 31
0.0
  0
LINE
  8
0
 10
-306.912247
 20
317.751127
 30
0.0
 11
-306.912247
 21
320.537736
 31
0.0
  0
LINE
  8
0
 10
-306.912247
 20
320.537736
 30
0.0
 11
-304.91625
 21
322.532938
 31
0.0
  0
LINE
  8
0
 10
-304.91625
 20
322.532938
 30
0.0
 11
-306.912247
 21
320.537736
 31
0.0
  0
LINE
  8
0
 10
-306.912247
 20
320.537736
 30
0.0
 11
-306.912247
 21
317.751127
 31
0.0
  0
LINE
  8
0
 10
-306.912247
 20
317.751127
 30
0.0
 11
-299.420107
 21
317.751127
 31
0.0
  0
LINE
  8
0
 10
-299.420107
 20
317.751127
 30
0.0
 11
-281.189152
 21
335.97493
 31
0.0
  0
LINE
  8
0
 10
-281.189152
 20
335.97493
 30
0.0
 11
-299.420107
 21
317.751127
 31
0.0
  0
LINE
  8
0
 10
-296.595357
 20
313.759133
 30
0.0
 11
-306.912247
 21
313.759133
 31
0.0
  0
LINE
  8
0
 10
-306.912247
 20
313.759133
 30
0.0
 11
-296.595357
 21
313.759133
 31
0.0
  0
LINE
  8
0
 10
-293.770608
 20
314.926378
 30
0.0
 11
-278.709253
 21
329.986939
 31
0.0
  0
LINE
  8
0
 10
-278.709253
 20
329.986939
 30
0.0
 11
-293.770608
 21
314.926378
 31
0.0
  0
LINE
  8
0
 10
-310.904241
 20
317.751127
 30
0.0
 11
-310.904241
 21
322.19524
 31
0.0
  0
LINE
  8
0
 10
-310.904241
 20
322.19524
 30
0.0
 11
-310.904241
 21
317.751127
 31
0.0
  0
LINE
  8
0
 10
-310.904241
 20
363.990796
 30
0.0
 11
-307.741793
 21
360.828349
 31
0.0
  0
LINE
  8
0
 10
-307.741793
 20
360.828349
 30
0.0
 11
-310.904241
 21
363.990796
 31
0.0
  0
LINE
  8
0
 10
-310.904241
 20
363.990796
 30
0.0
 11
-310.904241
 21
368.435704
 31
0.0
  0
LINE
  8
0
 10
-310.904241
 20
368.435704
 30
0.0
 11
-310.904241
 21
363.990796
 31
0.0
  0
LINE
  8
0
 10
-306.912247
 20
365.649095
 30
0.0
 11
-306.912247
 21
368.435704
 31
0.0
  0
LINE
  8
0
 10
-306.912247
 20
368.435704
 30
0.0
 11
-299.420107
 21
368.435704
 31
0.0
  0
LINE
  8
0
 10
-299.420107
 20
368.435704
 30
0.0
 11
-281.189152
 21
350.211901
 31
0.0
  0
LINE
  8
0
 10
-299.420107
 20
368.435704
 30
0.0
 11
-306.912247
 21
368.435704
 31
0.0
  0
LINE
  8
0
 10
-306.912247
 20
368.435704
 30
0.0
 11
-306.912247
 21
365.649095
 31
0.0
  0
LINE
  8
0
 10
-306.912247
 20
365.649095
 30
0.0
 11
-304.91625
 21
363.653098
 31
0.0
  0
LINE
  8
0
 10
-304.91625
 20
363.653098
 30
0.0
 11
-306.912247
 21
365.649095
 31
0.0
  0
LINE
  8
0
 10
-304.91625
 20
363.653098
 30
0.0
 11
-301.470135
 21
367.100007
 31
0.0
  0
LINE
  8
0
 10
-301.470135
 20
367.100007
 30
0.0
 11
-304.91625
 21
363.653098
 31
0.0
  0
LINE
  8
0
 10
-302.099447
 20
360.828349
 30
0.0
 11
-298.644592
 21
364.282409
 31
0.0
  0
LINE
  8
0
 10
-298.644592
 20
364.282409
 30
0.0
 11
-302.099447
 21
360.828349
 31
0.0
  0
LINE
  8
0
 10
-306.912247
 20
372.426903
 30
0.0
 11
-296.595357
 21
372.426903
 31
0.0
  0
LINE
  8
0
 10
-296.595357
 20
372.426903
 30
0.0
 11
-306.912247
 21
372.426903
 31
0.0
  0
LINE
  8
0
 10
-293.770608
 20
371.260453
 30
0.0
 11
-278.709253
 21
356.199097
 31
0.0
  0
LINE
  8
0
 10
-278.709253
 20
356.199097
 30
0.0
 11
-293.770608
 21
371.260453
 31
0.0
  0
LINE
  8
0
 10
-271.654929
 20
352.801298
 30
0.0
 11
-140.143988
 21
352.862241
 31
0.0
  0
LINE
  8
0
 10
-140.143988
 20
352.862241
 30
0.0
 11
-271.654929
 21
352.801298
 31
0.0
  0
LINE
  8
0
 10
-274.134034
 20
346.920709
 30
0.0
 11
-255.035393
 21
346.875045
 31
0.0
  0
LINE
  8
0
 10
-255.035393
 20
346.875045
 30
0.0
 11
-274.134034
 21
346.920709
 31
0.0
  0
LINE
  8
0
 10
-274.134034
 20
338.899002
 30
0.0
 11
-255.035393
 21
338.899002
 31
0.0
  0
LINE
  8
0
 10
-255.035393
 20
338.899002
 30
0.0
 11
-274.134034
 21
338.899002
 31
0.0
  0
LINE
  8
0
 10
-271.654929
 20
332.911805
 30
0.0
 11
-140.143988
 21
332.911805
 31
0.0
  0
LINE
  8
0
 10
-140.143988
 20
332.911805
 30
0.0
 11
-271.654929
 21
332.911805
 31
0.0
  0
LINE
  8
0
 10
-138.147991
 20
333.448945
 30
0.0
 11
-127.63243
 21
339.520718
 31
0.0
  0
LINE
  8
0
 10
-127.631661
 20
339.521162
 30
0.0
 11
-127.63243
 21
339.520718
 31
0.0
  0
LINE
  8
0
 10
-138.147991
 20
352.325102
 30
0.0
 11
-127.63243
 21
346.253329
 31
0.0
  0
LINE
  8
0
 10
-127.631661
 20
346.252885
 30
0.0
 11
-127.63243
 21
346.253329
 31
0.0
  0
LINE
  8
0
 10
-127.63243
 20
346.253329
 30
0.0
 11
-127.631661
 21
346.252885
 31
0.0
  0
LINE
  8
0
 10
-127.63243
 20
346.253329
 30
0.0
 11
-138.147991
 21
352.325102
 31
0.0
  0
LINE
  8
0
 10
-127.63243
 20
339.520718
 30
0.0
 11
-127.631661
 21
339.521162
 31
0.0
  0
LINE
  8
0
 10
-127.63243
 20
339.520718
 30
0.0
 11
-138.147991
 21
333.448945
 31
0.0
  0
ARC
  8
0
 10
-111.56754
 20
342.887023
 30
0.0
 40
12.96683
 50
158.450964
 51
158.45419
  0
ARC
  8
0
 10
-126.232324
 20
348.678139
 30
0.0
 40
2.8
 50
239.997503
 51
338.450964
  0
ARC
  8
0
 10
-111.56754
 20
342.887023
 30
0.0
 40
12.96683
 50
201.549036
 51
158.450964
  0
ARC
  8
0
 10
-126.232324
 20
337.095908
 30
0.0
 40
2.8
 50
21.549036
 51
120.002497
  0
ARC
  8
0
 10
-111.56754
 20
342.887023
 30
0.0
 40
12.96683
 50
201.54581
 51
201.549036
  0
CIRCLE
  8
0
 10
-111.56754
 20
342.887023
 30
0.0
 40
8.980398
  0
LINE
  8
0
 10
-281.189152
 20
590.213298
 30
0.0
 11
-299.420107
 21
608.437101
 31
0.0
  0
LINE
  8
0
 10
-299.420107
 20
608.437101
 30
0.0
 11
-281.189152
 21
590.213298
 31
0.0
  0
LINE
  8
0
 10
-243.060205
 20
576.905197
 30
0.0
 11
-243.06815
 21
576.905197
 31
0.0
  0
LINE
  8
0
 10
-243.06815
 20
576.905197
 30
0.0
 11
-243.413795
 21
576.920294
 31
0.0
  0
LINE
  8
0
 10
-243.413795
 20
576.920294
 30
0.0
 11
-243.759439
 21
576.96638
 31
0.0
  0
LINE
  8
0
 10
-243.759439
 20
576.96638
 30
0.0
 11
-244.097138
 21
577.035509
 31
0.0
  0
LINE
  8
0
 10
-244.097138
 20
577.035509
 30
0.0
 11
-243.759439
 21
576.96638
 31
0.0
  0
LINE
  8
0
 10
-243.759439
 20
576.96638
 30
0.0
 11
-243.413795
 21
576.920294
 31
0.0
  0
LINE
  8
0
 10
-243.413795
 20
576.920294
 30
0.0
 11
-243.060205
 21
576.905197
 31
0.0
  0
LINE
  8
0
 10
-244.097138
 20
577.035509
 30
0.0
 11
-244.426891
 21
577.142778
 31
0.0
  0
LINE
  8
0
 10
-244.426891
 20
577.142778
 30
0.0
 11
-244.097138
 21
577.035509
 31
0.0
  0
LINE
  8
0
 10
-244.426891
 20
577.142778
 30
0.0
 11
-244.749492
 21
577.27309
 31
0.0
  0
LINE
  8
0
 10
-244.749492
 20
577.27309
 30
0.0
 11
-244.426891
 21
577.142778
 31
0.0
  0
LINE
  8
0
 10
-244.749492
 20
577.27309
 30
0.0
 11
-245.056202
 21
577.434391
 31
0.0
  0
LINE
  8
0
 10
-245.056202
 20
577.434391
 30
0.0
 11
-244.749492
 21
577.27309
 31
0.0
  0
LINE
  8
0
 10
-245.056202
 20
577.434391
 30
0.0
 11
-245.35576
 21
577.62668
 31
0.0
  0
LINE
  8
0
 10
-245.35576
 20
577.62668
 30
0.0
 11
-245.056202
 21
577.434391
 31
0.0
  0
LINE
  8
0
 10
-245.35576
 20
577.62668
 30
0.0
 11
-245.632276
 21
577.833272
 31
0.0
  0
LINE
  8
0
 10
-245.632276
 20
577.833272
 30
0.0
 11
-245.35576
 21
577.62668
 31
0.0
  0
LINE
  8
0
 10
-245.632276
 20
577.833272
 30
0.0
 11
-245.885748
 21
578.071648
 31
0.0
  0
LINE
  8
0
 10
-245.885748
 20
578.071648
 30
0.0
 11
-245.632276
 21
577.833272
 31
0.0
  0
LINE
  8
0
 10
-245.885748
 20
578.071648
 30
0.0
 11
-246.123329
 21
578.32512
 31
0.0
  0
LINE
  8
0
 10
-246.123329
 20
578.32512
 30
0.0
 11
-245.885748
 21
578.071648
 31
0.0
  0
LINE
  8
0
 10
-246.123329
 20
578.32512
 30
0.0
 11
-246.330716
 21
578.601636
 31
0.0
  0
LINE
  8
0
 10
-246.330716
 20
578.601636
 30
0.0
 11
-246.123329
 21
578.32512
 31
0.0
  0
LINE
  8
0
 10
-246.330716
 20
578.601636
 30
0.0
 11
-246.522211
 21
578.9004
 31
0.0
  0
LINE
  8
0
 10
-246.522211
 20
578.9004
 30
0.0
 11
-246.330716
 21
578.601636
 31
0.0
  0
LINE
  8
0
 10
-246.522211
 20
578.9004
 30
0.0
 11
-246.683511
 21
579.207904
 31
0.0
  0
LINE
  8
0
 10
-246.683511
 20
579.207904
 30
0.0
 11
-246.522211
 21
578.9004
 31
0.0
  0
LINE
  8
0
 10
-246.683511
 20
579.207904
 30
0.0
 11
-246.814618
 21
579.530505
 31
0.0
  0
LINE
  8
0
 10
-246.814618
 20
579.530505
 30
0.0
 11
-246.683511
 21
579.207904
 31
0.0
  0
LINE
  8
0
 10
-246.814618
 20
579.530505
 30
0.0
 11
-246.921887
 21
579.860258
 31
0.0
  0
LINE
  8
0
 10
-246.921887
 20
579.860258
 30
0.0
 11
-246.814618
 21
579.530505
 31
0.0
  0
LINE
  8
0
 10
-246.921887
 20
579.860258
 30
0.0
 11
-246.991016
 21
580.197957
 31
0.0
  0
LINE
  8
0
 10
-246.991016
 20
580.197957
 30
0.0
 11
-246.921887
 21
579.860258
 31
0.0
  0
LINE
  8
0
 10
-246.991016
 20
580.197957
 30
0.0
 11
-247.037102
 21
580.543601
 31
0.0
  0
LINE
  8
0
 10
-247.037102
 20
580.543601
 30
0.0
 11
-246.991016
 21
580.197957
 31
0.0
  0
LINE
  8
0
 10
-247.037102
 20
580.543601
 30
0.0
 11
-247.052199
 21
580.888451
 31
0.0
  0
LINE
  8
0
 10
-247.052199
 20
580.888451
 30
0.0
 11
-247.052199
 21
580.896397
 31
0.0
  0
LINE
  8
0
 10
-247.052199
 20
580.896397
 30
0.0
 11
-247.037102
 21
580.543601
 31
0.0
  0
LINE
  8
0
 10
-247.052199
 20
584.880445
 30
0.0
 11
-247.037102
 21
585.234035
 31
0.0
  0
LINE
  8
0
 10
-247.037102
 20
585.234035
 30
0.0
 11
-247.052199
 21
584.888391
 31
0.0
  0
LINE
  8
0
 10
-247.037102
 20
585.234035
 30
0.0
 11
-246.991016
 21
585.578885
 31
0.0
  0
LINE
  8
0
 10
-246.991016
 20
585.578885
 30
0.0
 11
-247.037102
 21
585.234035
 31
0.0
  0
LINE
  8
0
 10
-246.991016
 20
585.578885
 30
0.0
 11
-246.921887
 21
585.916584
 31
0.0
  0
LINE
  8
0
 10
-246.921887
 20
585.916584
 30
0.0
 11
-246.991016
 21
585.578885
 31
0.0
  0
LINE
  8
0
 10
-246.921887
 20
585.916584
 30
0.0
 11
-246.814618
 21
586.247131
 31
0.0
  0
LINE
  8
0
 10
-246.814618
 20
586.247131
 30
0.0
 11
-246.921887
 21
585.916584
 31
0.0
  0
LINE
  8
0
 10
-246.814618
 20
586.247131
 30
0.0
 11
-246.683511
 21
586.569732
 31
0.0
  0
LINE
  8
0
 10
-246.683511
 20
586.569732
 30
0.0
 11
-246.814618
 21
586.247131
 31
0.0
  0
LINE
  8
0
 10
-246.683511
 20
586.569732
 30
0.0
 11
-246.522211
 21
586.876442
 31
0.0
  0
LINE
  8
0
 10
-246.522211
 20
586.876442
 30
0.0
 11
-246.683511
 21
586.569732
 31
0.0
  0
LINE
  8
0
 10
-246.522211
 20
586.876442
 30
0.0
 11
-246.330716
 21
587.176001
 31
0.0
  0
LINE
  8
0
 10
-246.330716
 20
587.176001
 30
0.0
 11
-246.522211
 21
586.876442
 31
0.0
  0
LINE
  8
0
 10
-246.330716
 20
587.176001
 30
0.0
 11
-246.123329
 21
587.451721
 31
0.0
  0
LINE
  8
0
 10
-246.123329
 20
587.451721
 30
0.0
 11
-246.330716
 21
587.176001
 31
0.0
  0
LINE
  8
0
 10
-246.123329
 20
587.451721
 30
0.0
 11
-245.885748
 21
587.705194
 31
0.0
  0
LINE
  8
0
 10
-245.885748
 20
587.705194
 30
0.0
 11
-246.123329
 21
587.451721
 31
0.0
  0
LINE
  8
0
 10
-245.885748
 20
587.705194
 30
0.0
 11
-245.632276
 21
587.943569
 31
0.0
  0
LINE
  8
0
 10
-245.632276
 20
587.943569
 30
0.0
 11
-245.885748
 21
587.705194
 31
0.0
  0
LINE
  8
0
 10
-245.632276
 20
587.943569
 30
0.0
 11
-245.35576
 21
588.150956
 31
0.0
  0
LINE
  8
0
 10
-245.35576
 20
588.150956
 30
0.0
 11
-245.632276
 21
587.943569
 31
0.0
  0
LINE
  8
0
 10
-245.35576
 20
588.150956
 30
0.0
 11
-245.056202
 21
588.342451
 31
0.0
  0
LINE
  8
0
 10
-245.056202
 20
588.342451
 30
0.0
 11
-245.35576
 21
588.150956
 31
0.0
  0
LINE
  8
0
 10
-245.056202
 20
588.342451
 30
0.0
 11
-244.749492
 21
588.503752
 31
0.0
  0
LINE
  8
0
 10
-244.749492
 20
588.503752
 30
0.0
 11
-245.056202
 21
588.342451
 31
0.0
  0
LINE
  8
0
 10
-244.749492
 20
588.503752
 30
0.0
 11
-244.426891
 21
588.634064
 31
0.0
  0
LINE
  8
0
 10
-244.426891
 20
588.634064
 30
0.0
 11
-244.749492
 21
588.503752
 31
0.0
  0
LINE
  8
0
 10
-244.426891
 20
588.634064
 30
0.0
 11
-244.097138
 21
588.742127
 31
0.0
  0
LINE
  8
0
 10
-244.097138
 20
588.742127
 30
0.0
 11
-244.426891
 21
588.634064
 31
0.0
  0
LINE
  8
0
 10
-244.097138
 20
588.742127
 30
0.0
 11
-243.759439
 21
588.810462
 31
0.0
  0
LINE
  8
0
 10
-243.759439
 20
588.810462
 30
0.0
 11
-244.097138
 21
588.742127
 31
0.0
  0
LINE
  8
0
 10
-243.759439
 20
588.810462
 30
0.0
 11
-243.413795
 21
588.856547
 31
0.0
  0
LINE
  8
0
 10
-243.413795
 20
588.856547
 30
0.0
 11
-243.759439
 21
588.810462
 31
0.0
  0
LINE
  8
0
 10
-243.413795
 20
588.856547
 30
0.0
 11
-243.060205
 21
588.872439
 31
0.0
  0
LINE
  8
0
 10
-243.060205
 20
588.872439
 30
0.0
 11
-243.413795
 21
588.856547
 31
0.0
  0
LINE
  8
0
 10
-243.060205
 20
588.872439
 30
0.0
 11
-140.143988
 21
588.872439
 31
0.0
  0
LINE
  8
0
 10
-140.143988
 20
588.872439
 30
0.0
 11
-243.060205
 21
588.872439
 31
0.0
  0
LINE
  8
0
 10
-247.052199
 20
584.880445
 30
0.0
 11
-247.052199
 21
580.896397
 31
0.0
  0
LINE
  8
0
 10
-247.052199
 20
580.896397
 30
0.0
 11
-247.052199
 21
584.880445
 31
0.0
  0
LINE
  8
0
 10
-251.581332
 20
584.880445
 30
0.0
 11
-251.765676
 21
585.180003
 31
0.0
  0
LINE
  8
0
 10
-251.765676
 20
585.180003
 30
0.0
 11
-251.980214
 21
585.456519
 31
0.0
  0
LINE
  8
0
 10
-251.980214
 20
585.456519
 30
0.0
 11
-252.210643
 21
585.709992
 31
0.0
  0
LINE
  8
0
 10
-252.210643
 20
585.709992
 30
0.0
 11
-252.472062
 21
585.947572
 31
0.0
  0
LINE
  8
0
 10
-252.472062
 20
585.947572
 30
0.0
 11
-252.747783
 21
586.154959
 31
0.0
  0
LINE
  8
0
 10
-252.747783
 20
586.154959
 30
0.0
 11
-253.039395
 21
586.346454
 31
0.0
  0
LINE
  8
0
 10
-253.039395
 20
586.346454
 30
0.0
 11
-253.3469
 21
586.507755
 31
0.0
  0
LINE
  8
0
 10
-253.3469
 20
586.507755
 30
0.0
 11
-253.669501
 21
586.638067
 31
0.0
  0
LINE
  8
0
 10
-253.669501
 20
586.638067
 30
0.0
 11
-253.999254
 21
586.74613
 31
0.0
  0
LINE
  8
0
 10
-253.999254
 20
586.74613
 30
0.0
 11
-254.344898
 21
586.815259
 31
0.0
  0
LINE
  8
0
 10
-254.344898
 20
586.815259
 30
0.0
 11
-254.690543
 21
586.861345
 31
0.0
  0
LINE
  8
0
 10
-254.690543
 20
586.861345
 30
0.0
 11
-255.035393
 21
586.876442
 31
0.0
  0
LINE
  8
0
 10
-251.581332
 20
584.880445
 30
0.0
 11
-251.420032
 21
584.573735
 31
0.0
  0
LINE
  8
0
 10
-251.420032
 20
584.573735
 30
0.0
 11
-251.28972
 21
584.251134
 31
0.0
  0
LINE
  8
0
 10
-251.28972
 20
584.251134
 30
0.0
 11
-251.182451
 21
583.921381
 31
0.0
  0
LINE
  8
0
 10
-251.182451
 20
583.921381
 30
0.0
 11
-251.105376
 21
583.582888
 31
0.0
  0
LINE
  8
0
 10
-251.105376
 20
583.582888
 30
0.0
 11
-251.05929
 21
583.238038
 31
0.0
  0
LINE
  8
0
 10
-251.05929
 20
583.238038
 30
0.0
 11
-251.044193
 21
582.892394
 31
0.0
  0
LINE
  8
0
 10
-251.044193
 20
582.892394
 30
0.0
 11
-251.05929
 21
582.539598
 31
0.0
  0
LINE
  8
0
 10
-251.05929
 20
582.539598
 30
0.0
 11
-251.105376
 21
582.193954
 31
0.0
  0
LINE
  8
0
 10
-251.105376
 20
582.193954
 30
0.0
 11
-251.05929
 21
582.539598
 31
0.0
  0
LINE
  8
0
 10
-251.05929
 20
582.539598
 30
0.0
 11
-251.044193
 21
582.892394
 31
0.0
  0
LINE
  8
0
 10
-251.044193
 20
582.892394
 30
0.0
 11
-251.05929
 21
583.238038
 31
0.0
  0
LINE
  8
0
 10
-251.05929
 20
583.238038
 30
0.0
 11
-251.105376
 21
583.582888
 31
0.0
  0
LINE
  8
0
 10
-251.105376
 20
583.582888
 30
0.0
 11
-251.182451
 21
583.921381
 31
0.0
  0
LINE
  8
0
 10
-251.182451
 20
583.921381
 30
0.0
 11
-251.28972
 21
584.251134
 31
0.0
  0
LINE
  8
0
 10
-251.28972
 20
584.251134
 30
0.0
 11
-251.420032
 21
584.573735
 31
0.0
  0
LINE
  8
0
 10
-251.420032
 20
584.573735
 30
0.0
 11
-251.581332
 21
584.880445
 31
0.0
  0
LINE
  8
0
 10
-251.581332
 20
584.880445
 30
0.0
 11
-251.765676
 21
585.180003
 31
0.0
  0
LINE
  8
0
 10
-251.765676
 20
585.180003
 30
0.0
 11
-251.980214
 21
585.456519
 31
0.0
  0
LINE
  8
0
 10
-251.980214
 20
585.456519
 30
0.0
 11
-252.210643
 21
585.709992
 31
0.0
  0
LINE
  8
0
 10
-252.210643
 20
585.709992
 30
0.0
 11
-252.472062
 21
585.947572
 31
0.0
  0
LINE
  8
0
 10
-252.472062
 20
585.947572
 30
0.0
 11
-252.747783
 21
586.154959
 31
0.0
  0
LINE
  8
0
 10
-252.747783
 20
586.154959
 30
0.0
 11
-253.039395
 21
586.346454
 31
0.0
  0
LINE
  8
0
 10
-253.039395
 20
586.346454
 30
0.0
 11
-253.3469
 21
586.507755
 31
0.0
  0
LINE
  8
0
 10
-253.3469
 20
586.507755
 30
0.0
 11
-253.669501
 21
586.638067
 31
0.0
  0
LINE
  8
0
 10
-253.669501
 20
586.638067
 30
0.0
 11
-253.999254
 21
586.74613
 31
0.0
  0
LINE
  8
0
 10
-253.999254
 20
586.74613
 30
0.0
 11
-254.344898
 21
586.815259
 31
0.0
  0
LINE
  8
0
 10
-254.344898
 20
586.815259
 30
0.0
 11
-254.690543
 21
586.861345
 31
0.0
  0
LINE
  8
0
 10
-254.690543
 20
586.861345
 30
0.0
 11
-255.035393
 21
586.876442
 31
0.0
  0
LINE
  8
0
 10
-251.105376
 20
582.193954
 30
0.0
 11
-251.182451
 21
581.856255
 31
0.0
  0
LINE
  8
0
 10
-251.182451
 20
581.856255
 30
0.0
 11
-251.105376
 21
582.193954
 31
0.0
  0
LINE
  8
0
 10
-251.182451
 20
581.856255
 30
0.0
 11
-251.28972
 21
581.525708
 31
0.0
  0
LINE
  8
0
 10
-251.28972
 20
581.525708
 30
0.0
 11
-251.182451
 21
581.856255
 31
0.0
  0
LINE
  8
0
 10
-251.28972
 20
581.525708
 30
0.0
 11
-251.420032
 21
581.203901
 31
0.0
  0
LINE
  8
0
 10
-251.420032
 20
581.203901
 30
0.0
 11
-251.28972
 21
581.525708
 31
0.0
  0
LINE
  8
0
 10
-251.420032
 20
581.203901
 30
0.0
 11
-251.581332
 21
580.896397
 31
0.0
  0
LINE
  8
0
 10
-251.581332
 20
580.896397
 30
0.0
 11
-251.420032
 21
581.203901
 31
0.0
  0
LINE
  8
0
 10
-251.581332
 20
580.896397
 30
0.0
 11
-251.765676
 21
580.596838
 31
0.0
  0
LINE
  8
0
 10
-251.765676
 20
580.596838
 30
0.0
 11
-251.581332
 21
580.896397
 31
0.0
  0
LINE
  8
0
 10
-251.765676
 20
580.596838
 30
0.0
 11
-251.980214
 21
580.321117
 31
0.0
  0
LINE
  8
0
 10
-251.980214
 20
580.321117
 30
0.0
 11
-251.765676
 21
580.596838
 31
0.0
  0
LINE
  8
0
 10
-251.980214
 20
580.321117
 30
0.0
 11
-252.210643
 21
580.067645
 31
0.0
  0
LINE
  8
0
 10
-252.210643
 20
580.067645
 30
0.0
 11
-251.980214
 21
580.321117
 31
0.0
  0
LINE
  8
0
 10
-252.210643
 20
580.067645
 30
0.0
 11
-252.472062
 21
579.829269
 31
0.0
  0
LINE
  8
0
 10
-252.472062
 20
579.829269
 30
0.0
 11
-252.210643
 21
580.067645
 31
0.0
  0
LINE
  8
0
 10
-252.472062
 20
579.829269
 30
0.0
 11
-252.747783
 21
579.621883
 31
0.0
  0
LINE
  8
0
 10
-252.747783
 20
579.621883
 30
0.0
 11
-252.472062
 21
579.829269
 31
0.0
  0
LINE
  8
0
 10
-252.747783
 20
579.621883
 30
0.0
 11
-253.039395
 21
579.430388
 31
0.0
  0
LINE
  8
0
 10
-253.039395
 20
579.430388
 30
0.0
 11
-252.747783
 21
579.621883
 31
0.0
  0
LINE
  8
0
 10
-253.039395
 20
579.430388
 30
0.0
 11
-253.3469
 21
579.269087
 31
0.0
  0
LINE
  8
0
 10
-253.3469
 20
579.269087
 30
0.0
 11
-253.039395
 21
579.430388
 31
0.0
  0
LINE
  8
0
 10
-253.3469
 20
579.269087
 30
0.0
 11
-253.669501
 21
579.138775
 31
0.0
  0
LINE
  8
0
 10
-253.669501
 20
579.138775
 30
0.0
 11
-253.3469
 21
579.269087
 31
0.0
  0
LINE
  8
0
 10
-253.669501
 20
579.138775
 30
0.0
 11
-253.999254
 21
579.031506
 31
0.0
  0
LINE
  8
0
 10
-253.999254
 20
579.031506
 30
0.0
 11
-253.669501
 21
579.138775
 31
0.0
  0
LINE
  8
0
 10
-253.999254
 20
579.031506
 30
0.0
 11
-254.344898
 21
578.962377
 31
0.0
  0
LINE
  8
0
 10
-254.344898
 20
578.962377
 30
0.0
 11
-253.999254
 21
579.031506
 31
0.0
  0
LINE
  8
0
 10
-254.344898
 20
578.962377
 30
0.0
 11
-254.690543
 21
578.916291
 31
0.0
  0
LINE
  8
0
 10
-254.690543
 20
578.916291
 30
0.0
 11
-254.344898
 21
578.962377
 31
0.0
  0
LINE
  8
0
 10
-254.690543
 20
578.916291
 30
0.0
 11
-255.035393
 21
578.9004
 31
0.0
  0
LINE
  8
0
 10
-255.035393
 20
578.9004
 30
0.0
 11
-254.690543
 21
578.916291
 31
0.0
  0
LINE
  8
0
 10
-243.060205
 20
576.905197
 30
0.0
 11
-140.143988
 21
576.905197
 31
0.0
  0
LINE
  8
0
 10
-140.143988
 20
576.905197
 30
0.0
 11
-129.781013
 21
582.892394
 31
0.0
  0
LINE
  8
0
 10
-129.781013
 20
582.892394
 30
0.0
 11
-140.143988
 21
588.872439
 31
0.0
  0
LINE
  8
0
 10
-140.143988
 20
588.872439
 30
0.0
 11
-129.781013
 21
582.892394
 31
0.0
  0
LINE
  8
0
 10
-129.781013
 20
582.892394
 30
0.0
 11
-140.143988
 21
576.905197
 31
0.0
  0
LINE
  8
0
 10
-140.143988
 20
576.905197
 30
0.0
 11
-243.060205
 21
576.905197
 31
0.0
  0
LINE
  8
0
 10
-274.234151
 20
593.293504
 30
0.0
 11
-273.727206
 21
593.072476
 31
0.0
  0
LINE
  8
0
 10
-273.727206
 20
593.072476
 30
0.0
 11
-273.21311
 21
592.865751
 31
0.0
  0
LINE
  8
0
 10
-273.21311
 20
592.865751
 30
0.0
 11
-272.699013
 21
592.796622
 31
0.0
  0
LINE
  8
0
 10
-272.699013
 20
592.796622
 30
0.0
 11
-272.176971
 21
592.818587
 31
0.0
  0
LINE
  8
0
 10
-272.176971
 20
592.818587
 30
0.0
 11
-271.654929
 21
592.802696
 31
0.0
  0
LINE
  8
0
 10
-271.654929
 20
592.802696
 30
0.0
 11
-272.176971
 21
592.818587
 31
0.0
  0
LINE
  8
0
 10
-272.176971
 20
592.818587
 30
0.0
 11
-272.699013
 21
592.796622
 31
0.0
  0
LINE
  8
0
 10
-272.699013
 20
592.796622
 30
0.0
 11
-273.21311
 21
592.865751
 31
0.0
  0
LINE
  8
0
 10
-273.21311
 20
592.865751
 30
0.0
 11
-273.727206
 21
593.072476
 31
0.0
  0
LINE
  8
0
 10
-273.727206
 20
593.072476
 30
0.0
 11
-274.234151
 21
593.293504
 31
0.0
  0
LINE
  8
0
 10
-274.234151
 20
593.293504
 30
0.0
 11
-274.741096
 21
593.554261
 31
0.0
  0
LINE
  8
0
 10
-274.741096
 20
593.554261
 30
0.0
 11
-274.234151
 21
593.293504
 31
0.0
  0
LINE
  8
0
 10
-274.741096
 20
593.554261
 30
0.0
 11
-275.23215
 21
593.82932
 31
0.0
  0
LINE
  8
0
 10
-275.23215
 20
593.82932
 30
0.0
 11
-274.741096
 21
593.554261
 31
0.0
  0
LINE
  8
0
 10
-275.23215
 20
593.82932
 30
0.0
 11
-275.716052
 21
594.028761
 31
0.0
  0
LINE
  8
0
 10
-275.716052
 20
594.028761
 30
0.0
 11
-275.23215
 21
593.82932
 31
0.0
  0
LINE
  8
0
 10
-275.716052
 20
594.028761
 30
0.0
 11
-276.184062
 21
594.259191
 31
0.0
  0
LINE
  8
0
 10
-276.184062
 20
594.259191
 30
0.0
 11
-275.716052
 21
594.028761
 31
0.0
  0
LINE
  8
0
 10
-276.184062
 20
594.259191
 30
0.0
 11
-276.644922
 21
594.611325
 31
0.0
  0
LINE
  8
0
 10
-276.644922
 20
594.611325
 30
0.0
 11
-276.184062
 21
594.259191
 31
0.0
  0
LINE
  8
0
 10
-276.644922
 20
594.611325
 30
0.0
 11
-277.089889
 21
594.887841
 31
0.0
  0
LINE
  8
0
 10
-277.089889
 20
594.887841
 30
0.0
 11
-276.644922
 21
594.611325
 31
0.0
  0
LINE
  8
0
 10
-277.089889
 20
594.887841
 30
0.0
 11
-277.519759
 21
595.179453
 31
0.0
  0
LINE
  8
0
 10
-277.519759
 20
595.179453
 30
0.0
 11
-277.089889
 21
594.887841
 31
0.0
  0
LINE
  8
0
 10
-277.519759
 20
595.179453
 30
0.0
 11
-277.934533
 21
595.502055
 31
0.0
  0
LINE
  8
0
 10
-277.934533
 20
595.502055
 30
0.0
 11
-277.519759
 21
595.179453
 31
0.0
  0
LINE
  8
0
 10
-277.934533
 20
595.502055
 30
0.0
 11
-278.333414
 21
595.839753
 31
0.0
  0
LINE
  8
0
 10
-278.333414
 20
595.839753
 30
0.0
 11
-277.934533
 21
595.502055
 31
0.0
  0
LINE
  8
0
 10
-278.333414
 20
595.839753
 30
0.0
 11
-278.709253
 21
596.200495
 31
0.0
  0
LINE
  8
0
 10
-278.709253
 20
596.200495
 30
0.0
 11
-278.333414
 21
595.839753
 31
0.0
  0
LINE
  8
0
 10
-310.843058
 20
557.054084
 30
0.0
 11
-310.889144
 21
557.398934
 31
0.0
  0
LINE
  8
0
 10
-310.889144
 20
557.398934
 30
0.0
 11
-310.904241
 21
557.752524
 31
0.0
  0
LINE
  8
0
 10
-310.843058
 20
557.054084
 30
0.0
 11
-310.773929
 21
556.716386
 31
0.0
  0
LINE
  8
0
 10
-310.773929
 20
556.716386
 30
0.0
 11
-310.665866
 21
556.385838
 31
0.0
  0
LINE
  8
0
 10
-310.665866
 20
556.385838
 30
0.0
 11
-310.535554
 21
556.063237
 31
0.0
  0
LINE
  8
0
 10
-310.535554
 20
556.063237
 30
0.0
 11
-310.374253
 21
555.756527
 31
0.0
  0
LINE
  8
0
 10
-310.374253
 20
555.756527
 30
0.0
 11
-310.182758
 21
555.456969
 31
0.0
  0
LINE
  8
0
 10
-310.182758
 20
555.456969
 30
0.0
 11
-309.975371
 21
555.180453
 31
0.0
  0
LINE
  8
0
 10
-309.975371
 20
555.180453
 30
0.0
 11
-309.736996
 21
554.927775
 31
0.0
  0
LINE
  8
0
 10
-309.736996
 20
554.927775
 30
0.0
 11
-309.484318
 21
554.6894
 31
0.0
  0
LINE
  8
0
 10
-309.484318
 20
554.6894
 30
0.0
 11
-309.207802
 21
554.482013
 31
0.0
  0
LINE
  8
0
 10
-309.207802
 20
554.482013
 30
0.0
 11
-308.908244
 21
554.290518
 31
0.0
  0
LINE
  8
0
 10
-308.908244
 20
554.290518
 30
0.0
 11
-308.601534
 21
554.129217
 31
0.0
  0
LINE
  8
0
 10
-308.601534
 20
554.129217
 30
0.0
 11
-308.278933
 21
553.998906
 31
0.0
  0
LINE
  8
0
 10
-308.278933
 20
553.998906
 30
0.0
 11
-307.948386
 21
553.890842
 31
0.0
  0
LINE
  8
0
 10
-307.948386
 20
553.890842
 30
0.0
 11
-307.610687
 21
553.821713
 31
0.0
  0
LINE
  8
0
 10
-307.610687
 20
553.821713
 30
0.0
 11
-307.265837
 21
553.775627
 31
0.0
  0
LINE
  8
0
 10
-307.265837
 20
553.775627
 30
0.0
 11
-306.912247
 21
553.76053
 31
0.0
  0
LINE
  8
0
 10
-310.889144
 20
557.398934
 30
0.0
 11
-310.904241
 21
557.752524
 31
0.0
  0
LINE
  8
0
 10
-310.889144
 20
557.398934
 30
0.0
 11
-310.843058
 21
557.054084
 31
0.0
  0
LINE
  8
0
 10
-310.843058
 20
557.054084
 30
0.0
 11
-310.773929
 21
556.716386
 31
0.0
  0
LINE
  8
0
 10
-310.773929
 20
556.716386
 30
0.0
 11
-310.665866
 21
556.385838
 31
0.0
  0
LINE
  8
0
 10
-310.665866
 20
556.385838
 30
0.0
 11
-310.535554
 21
556.063237
 31
0.0
  0
LINE
  8
0
 10
-310.535554
 20
556.063237
 30
0.0
 11
-310.374253
 21
555.756527
 31
0.0
  0
LINE
  8
0
 10
-310.374253
 20
555.756527
 30
0.0
 11
-310.182758
 21
555.456969
 31
0.0
  0
LINE
  8
0
 10
-310.182758
 20
555.456969
 30
0.0
 11
-309.975371
 21
555.180453
 31
0.0
  0
LINE
  8
0
 10
-309.975371
 20
555.180453
 30
0.0
 11
-309.736996
 21
554.927775
 31
0.0
  0
LINE
  8
0
 10
-309.736996
 20
554.927775
 30
0.0
 11
-309.484318
 21
554.6894
 31
0.0
  0
LINE
  8
0
 10
-309.484318
 20
554.6894
 30
0.0
 11
-309.207802
 21
554.482013
 31
0.0
  0
LINE
  8
0
 10
-309.207802
 20
554.482013
 30
0.0
 11
-308.908244
 21
554.290518
 31
0.0
  0
LINE
  8
0
 10
-308.908244
 20
554.290518
 30
0.0
 11
-308.601534
 21
554.129217
 31
0.0
  0
LINE
  8
0
 10
-308.601534
 20
554.129217
 30
0.0
 11
-308.278933
 21
553.998906
 31
0.0
  0
LINE
  8
0
 10
-308.278933
 20
553.998906
 30
0.0
 11
-307.948386
 21
553.890842
 31
0.0
  0
LINE
  8
0
 10
-307.948386
 20
553.890842
 30
0.0
 11
-307.610687
 21
553.821713
 31
0.0
  0
LINE
  8
0
 10
-307.610687
 20
553.821713
 30
0.0
 11
-307.265837
 21
553.775627
 31
0.0
  0
LINE
  8
0
 10
-307.265837
 20
553.775627
 30
0.0
 11
-306.912247
 21
553.76053
 31
0.0
  0
LINE
  8
0
 10
-296.595357
 20
553.76053
 30
0.0
 11
-296.249713
 21
553.775627
 31
0.0
  0
LINE
  8
0
 10
-296.249713
 20
553.775627
 30
0.0
 11
-295.904863
 21
553.821713
 31
0.0
  0
LINE
  8
0
 10
-295.904863
 20
553.821713
 30
0.0
 11
-295.56637
 21
553.890842
 31
0.0
  0
LINE
  8
0
 10
-295.56637
 20
553.890842
 30
0.0
 11
-295.228672
 21
553.998906
 31
0.0
  0
LINE
  8
0
 10
-295.228672
 20
553.998906
 30
0.0
 11
-294.906865
 21
554.129217
 31
0.0
  0
LINE
  8
0
 10
-294.906865
 20
554.129217
 30
0.0
 11
-294.59936
 21
554.290518
 31
0.0
  0
LINE
  8
0
 10
-294.59936
 20
554.290518
 30
0.0
 11
-294.307748
 21
554.482013
 31
0.0
  0
LINE
  8
0
 10
-294.307748
 20
554.482013
 30
0.0
 11
-294.031232
 21
554.6894
 31
0.0
  0
LINE
  8
0
 10
-294.031232
 20
554.6894
 30
0.0
 11
-293.770608
 21
554.927775
 31
0.0
  0
LINE
  8
0
 10
-296.249713
 20
553.775627
 30
0.0
 11
-296.595357
 21
553.76053
 31
0.0
  0
LINE
  8
0
 10
-296.249713
 20
553.775627
 30
0.0
 11
-295.904863
 21
553.821713
 31
0.0
  0
LINE
  8
0
 10
-295.904863
 20
553.821713
 30
0.0
 11
-295.56637
 21
553.890842
 31
0.0
  0
LINE
  8
0
 10
-295.56637
 20
553.890842
 30
0.0
 11
-295.228672
 21
553.998906
 31
0.0
  0
LINE
  8
0
 10
-295.228672
 20
553.998906
 30
0.0
 11
-294.906865
 21
554.129217
 31
0.0
  0
LINE
  8
0
 10
-294.906865
 20
554.129217
 30
0.0
 11
-294.59936
 21
554.290518
 31
0.0
  0
LINE
  8
0
 10
-294.59936
 20
554.290518
 30
0.0
 11
-294.307748
 21
554.482013
 31
0.0
  0
LINE
  8
0
 10
-294.307748
 20
554.482013
 30
0.0
 11
-294.031232
 21
554.6894
 31
0.0
  0
LINE
  8
0
 10
-294.031232
 20
554.6894
 30
0.0
 11
-293.770608
 21
554.927775
 31
0.0
  0
LINE
  8
0
 10
-278.709253
 20
569.988336
 30
0.0
 11
-278.333414
 21
570.349078
 31
0.0
  0
LINE
  8
0
 10
-278.333414
 20
570.349078
 30
0.0
 11
-278.709253
 21
569.988336
 31
0.0
  0
LINE
  8
0
 10
-278.333414
 20
570.349078
 30
0.0
 11
-277.934533
 21
570.686776
 31
0.0
  0
LINE
  8
0
 10
-277.934533
 20
570.686776
 30
0.0
 11
-278.333414
 21
570.349078
 31
0.0
  0
LINE
  8
0
 10
-277.934533
 20
570.686776
 30
0.0
 11
-277.519759
 21
571.009378
 31
0.0
  0
LINE
  8
0
 10
-277.519759
 20
571.009378
 30
0.0
 11
-277.934533
 21
570.686776
 31
0.0
  0
LINE
  8
0
 10
-277.519759
 20
571.009378
 30
0.0
 11
-277.089889
 21
571.30099
 31
0.0
  0
LINE
  8
0
 10
-277.089889
 20
571.30099
 30
0.0
 11
-277.519759
 21
571.009378
 31
0.0
  0
LINE
  8
0
 10
-277.089889
 20
571.30099
 30
0.0
 11
-276.644922
 21
571.577506
 31
0.0
  0
LINE
  8
0
 10
-276.644922
 20
571.577506
 30
0.0
 11
-277.089889
 21
571.30099
 31
0.0
  0
LINE
  8
0
 10
-276.644922
 20
571.577506
 30
0.0
 11
-276.184062
 21
571.823032
 31
0.0
  0
LINE
  8
0
 10
-276.184062
 20
571.823032
 30
0.0
 11
-276.644922
 21
571.577506
 31
0.0
  0
LINE
  8
0
 10
-276.184062
 20
571.823032
 30
0.0
 11
-275.716052
 21
572.053462
 31
0.0
  0
LINE
  8
0
 10
-275.716052
 20
572.053462
 30
0.0
 11
-276.184062
 21
571.823032
 31
0.0
  0
LINE
  8
0
 10
-275.716052
 20
572.053462
 30
0.0
 11
-275.23215
 21
572.252903
 31
0.0
  0
LINE
  8
0
 10
-275.23215
 20
572.252903
 30
0.0
 11
-275.716052
 21
572.053462
 31
0.0
  0
LINE
  8
0
 10
-275.23215
 20
572.252903
 30
0.0
 11
-274.741096
 21
572.422149
 31
0.0
  0
LINE
  8
0
 10
-274.741096
 20
572.422149
 30
0.0
 11
-275.23215
 21
572.252903
 31
0.0
  0
LINE
  8
0
 10
-274.741096
 20
572.422149
 30
0.0
 11
-274.234151
 21
572.575504
 31
0.0
  0
LINE
  8
0
 10
-274.234151
 20
572.575504
 30
0.0
 11
-274.741096
 21
572.422149
 31
0.0
  0
LINE
  8
0
 10
-274.234151
 20
572.575504
 30
0.0
 11
-273.727206
 21
572.69787
 31
0.0
  0
LINE
  8
0
 10
-273.727206
 20
572.69787
 30
0.0
 11
-274.234151
 21
572.575504
 31
0.0
  0
LINE
  8
0
 10
-273.727206
 20
572.69787
 30
0.0
 11
-273.21311
 21
572.790042
 31
0.0
  0
LINE
  8
0
 10
-273.21311
 20
572.790042
 30
0.0
 11
-273.727206
 21
572.69787
 31
0.0
  0
LINE
  8
0
 10
-273.21311
 20
572.790042
 30
0.0
 11
-272.699013
 21
572.859171
 31
0.0
  0
LINE
  8
0
 10
-272.699013
 20
572.859171
 30
0.0
 11
-273.21311
 21
572.790042
 31
0.0
  0
LINE
  8
0
 10
-272.699013
 20
572.859171
 30
0.0
 11
-272.176971
 21
572.898106
 31
0.0
  0
LINE
  8
0
 10
-272.176971
 20
572.898106
 30
0.0
 11
-272.699013
 21
572.859171
 31
0.0
  0
LINE
  8
0
 10
-272.176971
 20
572.898106
 30
0.0
 11
-271.654929
 21
572.913203
 31
0.0
  0
LINE
  8
0
 10
-271.654929
 20
572.913203
 30
0.0
 11
-272.176971
 21
572.898106
 31
0.0
  0
LINE
  8
0
 10
-140.143988
 20
572.913203
 30
0.0
 11
-139.798344
 21
572.9283
 31
0.0
  0
LINE
  8
0
 10
-139.798344
 20
572.9283
 30
0.0
 11
-139.4527
 21
572.974386
 31
0.0
  0
LINE
  8
0
 10
-139.4527
 20
572.974386
 30
0.0
 11
-139.115001
 21
573.051461
 31
0.0
  0
LINE
  8
0
 10
-139.115001
 20
573.051461
 30
0.0
 11
-138.785248
 21
573.150784
 31
0.0
  0
LINE
  8
0
 10
-138.785248
 20
573.150784
 30
0.0
 11
-138.462647
 21
573.289041
 31
0.0
  0
LINE
  8
0
 10
-138.462647
 20
573.289041
 30
0.0
 11
-138.147991
 21
573.450342
 31
0.0
  0
LINE
  8
0
 10
-138.147991
 20
573.450342
 30
0.0
 11
-138.462647
 21
573.289041
 31
0.0
  0
LINE
  8
0
 10
-138.462647
 20
573.289041
 30
0.0
 11
-138.785248
 21
573.150784
 31
0.0
  0
LINE
  8
0
 10
-138.785248
 20
573.150784
 30
0.0
 11
-139.115001
 21
573.051461
 31
0.0
  0
LINE
  8
0
 10
-139.115001
 20
573.051461
 30
0.0
 11
-139.4527
 21
572.974386
 31
0.0
  0
LINE
  8
0
 10
-139.4527
 20
572.974386
 30
0.0
 11
-139.798344
 21
572.9283
 31
0.0
  0
LINE
  8
0
 10
-139.798344
 20
572.9283
 30
0.0
 11
-140.143988
 21
572.913203
 31
0.0
  0
LINE
  8
0
 10
-138.147991
 20
592.326499
 30
0.0
 11
-138.462647
 21
592.4878
 31
0.0
  0
LINE
  8
0
 10
-138.462647
 20
592.4878
 30
0.0
 11
-138.785248
 21
592.626058
 31
0.0
  0
LINE
  8
0
 10
-138.785248
 20
592.626058
 30
0.0
 11
-139.115001
 21
592.725381
 31
0.0
  0
LINE
  8
0
 10
-139.115001
 20
592.725381
 30
0.0
 11
-139.4527
 21
592.802456
 31
0.0
  0
LINE
  8
0
 10
-139.4527
 20
592.802456
 30
0.0
 11
-139.798344
 21
592.848542
 31
0.0
  0
LINE
  8
0
 10
-139.798344
 20
592.848542
 30
0.0
 11
-140.143988
 21
592.863639
 31
0.0
  0
LINE
  8
0
 10
-140.143988
 20
592.863639
 30
0.0
 11
-139.798344
 21
592.848542
 31
0.0
  0
LINE
  8
0
 10
-139.798344
 20
592.848542
 30
0.0
 11
-139.4527
 21
592.802456
 31
0.0
  0
LINE
  8
0
 10
-139.4527
 20
592.802456
 30
0.0
 11
-139.115001
 21
592.725381
 31
0.0
  0
LINE
  8
0
 10
-139.115001
 20
592.725381
 30
0.0
 11
-138.785248
 21
592.626058
 31
0.0
  0
LINE
  8
0
 10
-138.785248
 20
592.626058
 30
0.0
 11
-138.462647
 21
592.4878
 31
0.0
  0
LINE
  8
0
 10
-138.462647
 20
592.4878
 30
0.0
 11
-138.147991
 21
592.326499
 31
0.0
  0
LINE
  8
0
 10
-302.099447
 20
600.829746
 30
0.0
 11
-302.352919
 21
600.59137
 31
0.0
  0
LINE
  8
0
 10
-302.352919
 20
600.59137
 30
0.0
 11
-302.099447
 21
600.829746
 31
0.0
  0
LINE
  8
0
 10
-302.352919
 20
600.59137
 30
0.0
 11
-302.62864
 21
600.383984
 31
0.0
  0
LINE
  8
0
 10
-302.62864
 20
600.383984
 30
0.0
 11
-302.352919
 21
600.59137
 31
0.0
  0
LINE
  8
0
 10
-302.62864
 20
600.383984
 30
0.0
 11
-302.928199
 21
600.192489
 31
0.0
  0
LINE
  8
0
 10
-302.928199
 20
600.192489
 30
0.0
 11
-302.62864
 21
600.383984
 31
0.0
  0
LINE
  8
0
 10
-302.928199
 20
600.192489
 30
0.0
 11
-303.235703
 21
600.039134
 31
0.0
  0
LINE
  8
0
 10
-303.235703
 20
600.039134
 30
0.0
 11
-302.928199
 21
600.192489
 31
0.0
  0
LINE
  8
0
 10
-303.235703
 20
600.039134
 30
0.0
 11
-303.55751
 21
599.900876
 31
0.0
  0
LINE
  8
0
 10
-303.55751
 20
599.900876
 30
0.0
 11
-303.235703
 21
600.039134
 31
0.0
  0
LINE
  8
0
 10
-303.55751
 20
599.900876
 30
0.0
 11
-303.888057
 21
599.800759
 31
0.0
  0
LINE
  8
0
 10
-303.888057
 20
599.800759
 30
0.0
 11
-303.55751
 21
599.900876
 31
0.0
  0
LINE
  8
0
 10
-303.888057
 20
599.800759
 30
0.0
 11
-304.225756
 21
599.724478
 31
0.0
  0
LINE
  8
0
 10
-304.225756
 20
599.724478
 30
0.0
 11
-303.888057
 21
599.800759
 31
0.0
  0
LINE
  8
0
 10
-304.225756
 20
599.724478
 30
0.0
 11
-304.5714
 21
599.678392
 31
0.0
  0
LINE
  8
0
 10
-304.5714
 20
599.678392
 30
0.0
 11
-304.225756
 21
599.724478
 31
0.0
  0
LINE
  8
0
 10
-304.5714
 20
599.678392
 30
0.0
 11
-304.91625
 21
599.662501
 31
0.0
  0
LINE
  8
0
 10
-304.91625
 20
599.662501
 30
0.0
 11
-304.5714
 21
599.678392
 31
0.0
  0
LINE
  8
0
 10
-304.91625
 20
599.662501
 30
0.0
 11
-305.26984
 21
599.678392
 31
0.0
  0
LINE
  8
0
 10
-305.26984
 20
599.678392
 30
0.0
 11
-304.91625
 21
599.662501
 31
0.0
  0
LINE
  8
0
 10
-305.26984
 20
599.678392
 30
0.0
 11
-305.615484
 21
599.724478
 31
0.0
  0
LINE
  8
0
 10
-305.615484
 20
599.724478
 30
0.0
 11
-305.26984
 21
599.678392
 31
0.0
  0
LINE
  8
0
 10
-305.615484
 20
599.724478
 30
0.0
 11
-305.953183
 21
599.800759
 31
0.0
  0
LINE
  8
0
 10
-305.953183
 20
599.800759
 30
0.0
 11
-305.615484
 21
599.724478
 31
0.0
  0
LINE
  8
0
 10
-305.953183
 20
599.800759
 30
0.0
 11
-306.282936
 21
599.900876
 31
0.0
  0
LINE
  8
0
 10
-306.282936
 20
599.900876
 30
0.0
 11
-305.953183
 21
599.800759
 31
0.0
  0
LINE
  8
0
 10
-306.282936
 20
599.900876
 30
0.0
 11
-306.605537
 21
600.039134
 31
0.0
  0
LINE
  8
0
 10
-306.605537
 20
600.039134
 30
0.0
 11
-306.282936
 21
599.900876
 31
0.0
  0
LINE
  8
0
 10
-306.605537
 20
600.039134
 30
0.0
 11
-306.912247
 21
600.192489
 31
0.0
  0
LINE
  8
0
 10
-306.912247
 20
600.192489
 30
0.0
 11
-306.605537
 21
600.039134
 31
0.0
  0
LINE
  8
0
 10
-306.912247
 20
600.192489
 30
0.0
 11
-307.211805
 21
600.383984
 31
0.0
  0
LINE
  8
0
 10
-307.211805
 20
600.383984
 30
0.0
 11
-306.912247
 21
600.192489
 31
0.0
  0
LINE
  8
0
 10
-307.211805
 20
600.383984
 30
0.0
 11
-307.488321
 21
600.59137
 31
0.0
  0
LINE
  8
0
 10
-307.488321
 20
600.59137
 30
0.0
 11
-307.211805
 21
600.383984
 31
0.0
  0
LINE
  8
0
 10
-307.488321
 20
600.59137
 30
0.0
 11
-307.741793
 21
600.829746
 31
0.0
  0
LINE
  8
0
 10
-307.741793
 20
600.829746
 30
0.0
 11
-307.488321
 21
600.59137
 31
0.0
  0
LINE
  8
0
 10
-310.904241
 20
608.437101
 30
0.0
 11
-310.889144
 21
608.789897
 31
0.0
  0
LINE
  8
0
 10
-310.889144
 20
608.789897
 30
0.0
 11
-310.904241
 21
608.437101
 31
0.0
  0
LINE
  8
0
 10
-310.889144
 20
608.789897
 30
0.0
 11
-310.843058
 21
609.135541
 31
0.0
  0
LINE
  8
0
 10
-310.843058
 20
609.135541
 30
0.0
 11
-310.889144
 21
608.789897
 31
0.0
  0
LINE
  8
0
 10
-310.843058
 20
609.135541
 30
0.0
 11
-310.773929
 21
609.47324
 31
0.0
  0
LINE
  8
0
 10
-310.773929
 20
609.47324
 30
0.0
 11
-310.843058
 21
609.135541
 31
0.0
  0
LINE
  8
0
 10
-310.773929
 20
609.47324
 30
0.0
 11
-310.665866
 21
609.802992
 31
0.0
  0
LINE
  8
0
 10
-310.665866
 20
609.802992
 30
0.0
 11
-310.773929
 21
609.47324
 31
0.0
  0
LINE
  8
0
 10
-310.665866
 20
609.802992
 30
0.0
 11
-310.535554
 21
610.125594
 31
0.0
  0
LINE
  8
0
 10
-310.535554
 20
610.125594
 30
0.0
 11
-310.665866
 21
609.802992
 31
0.0
  0
LINE
  8
0
 10
-310.535554
 20
610.125594
 30
0.0
 11
-310.374253
 21
610.432304
 31
0.0
  0
LINE
  8
0
 10
-310.374253
 20
610.432304
 30
0.0
 11
-310.535554
 21
610.125594
 31
0.0
  0
LINE
  8
0
 10
-310.374253
 20
610.432304
 30
0.0
 11
-310.182758
 21
610.731862
 31
0.0
  0
LINE
  8
0
 10
-310.182758
 20
610.731862
 30
0.0
 11
-310.374253
 21
610.432304
 31
0.0
  0
LINE
  8
0
 10
-310.182758
 20
610.731862
 30
0.0
 11
-309.975371
 21
611.008378
 31
0.0
  0
LINE
  8
0
 10
-309.975371
 20
611.008378
 30
0.0
 11
-310.182758
 21
610.731862
 31
0.0
  0
LINE
  8
0
 10
-309.975371
 20
611.008378
 30
0.0
 11
-309.736996
 21
611.26185
 31
0.0
  0
LINE
  8
0
 10
-309.736996
 20
611.26185
 30
0.0
 11
-309.975371
 21
611.008378
 31
0.0
  0
LINE
  8
0
 10
-309.736996
 20
611.26185
 30
0.0
 11
-309.484318
 21
611.499431
 31
0.0
  0
LINE
  8
0
 10
-309.484318
 20
611.499431
 30
0.0
 11
-309.736996
 21
611.26185
 31
0.0
  0
LINE
  8
0
 10
-309.484318
 20
611.499431
 30
0.0
 11
-309.207802
 21
611.706818
 31
0.0
  0
LINE
  8
0
 10
-309.207802
 20
611.706818
 30
0.0
 11
-309.484318
 21
611.499431
 31
0.0
  0
LINE
  8
0
 10
-309.207802
 20
611.706818
 30
0.0
 11
-308.908244
 21
611.899107
 31
0.0
  0
LINE
  8
0
 10
-308.908244
 20
611.899107
 30
0.0
 11
-309.207802
 21
611.706818
 31
0.0
  0
LINE
  8
0
 10
-308.908244
 20
611.899107
 30
0.0
 11
-308.601534
 21
612.059613
 31
0.0
  0
LINE
  8
0
 10
-308.601534
 20
612.059613
 30
0.0
 11
-308.908244
 21
611.899107
 31
0.0
  0
LINE
  8
0
 10
-308.601534
 20
612.059613
 30
0.0
 11
-308.278933
 21
612.19072
 31
0.0
  0
LINE
  8
0
 10
-308.278933
 20
612.19072
 30
0.0
 11
-308.601534
 21
612.059613
 31
0.0
  0
LINE
  8
0
 10
-308.278933
 20
612.19072
 30
0.0
 11
-307.948386
 21
612.297989
 31
0.0
  0
LINE
  8
0
 10
-307.948386
 20
612.297989
 30
0.0
 11
-308.278933
 21
612.19072
 31
0.0
  0
LINE
  8
0
 10
-307.948386
 20
612.297989
 30
0.0
 11
-307.610687
 21
612.367118
 31
0.0
  0
LINE
  8
0
 10
-307.610687
 20
612.367118
 30
0.0
 11
-307.948386
 21
612.297989
 31
0.0
  0
LINE
  8
0
 10
-307.610687
 20
612.367118
 30
0.0
 11
-307.265837
 21
612.413204
 31
0.0
  0
LINE
  8
0
 10
-307.265837
 20
612.413204
 30
0.0
 11
-307.610687
 21
612.367118
 31
0.0
  0
LINE
  8
0
 10
-307.265837
 20
612.413204
 30
0.0
 11
-306.912247
 21
612.428301
 31
0.0
  0
LINE
  8
0
 10
-306.912247
 20
612.428301
 30
0.0
 11
-307.265837
 21
612.413204
 31
0.0
  0
LINE
  8
0
 10
-296.595357
 20
612.428301
 30
0.0
 11
-296.249713
 21
612.413204
 31
0.0
  0
LINE
  8
0
 10
-296.249713
 20
612.413204
 30
0.0
 11
-296.595357
 21
612.428301
 31
0.0
  0
LINE
  8
0
 10
-296.249713
 20
612.413204
 30
0.0
 11
-295.904863
 21
612.367118
 31
0.0
  0
LINE
  8
0
 10
-295.904863
 20
612.367118
 30
0.0
 11
-296.249713
 21
612.413204
 31
0.0
  0
LINE
  8
0
 10
-295.904863
 20
612.367118
 30
0.0
 11
-295.56637
 21
612.297989
 31
0.0
  0
LINE
  8
0
 10
-295.56637
 20
612.297989
 30
0.0
 11
-295.904863
 21
612.367118
 31
0.0
  0
LINE
  8
0
 10
-295.56637
 20
612.297989
 30
0.0
 11
-295.228672
 21
612.19072
 31
0.0
  0
LINE
  8
0
 10
-295.228672
 20
612.19072
 30
0.0
 11
-295.56637
 21
612.297989
 31
0.0
  0
LINE
  8
0
 10
-295.228672
 20
612.19072
 30
0.0
 11
-294.906865
 21
612.059613
 31
0.0
  0
LINE
  8
0
 10
-294.906865
 20
612.059613
 30
0.0
 11
-295.228672
 21
612.19072
 31
0.0
  0
LINE
  8
0
 10
-294.906865
 20
612.059613
 30
0.0
 11
-294.59936
 21
611.899107
 31
0.0
  0
LINE
  8
0
 10
-294.59936
 20
611.899107
 30
0.0
 11
-294.906865
 21
612.059613
 31
0.0
  0
LINE
  8
0
 10
-294.59936
 20
611.899107
 30
0.0
 11
-294.307748
 21
611.706818
 31
0.0
  0
LINE
  8
0
 10
-294.307748
 20
611.706818
 30
0.0
 11
-294.59936
 21
611.899107
 31
0.0
  0
LINE
  8
0
 10
-294.307748
 20
611.706818
 30
0.0
 11
-294.031232
 21
611.499431
 31
0.0
  0
LINE
  8
0
 10
-294.031232
 20
611.499431
 30
0.0
 11
-294.307748
 21
611.706818
 31
0.0
  0
LINE
  8
0
 10
-294.031232
 20
611.499431
 30
0.0
 11
-293.770608
 21
611.26185
 31
0.0
  0
LINE
  8
0
 10
-293.770608
 20
611.26185
 30
0.0
 11
-294.031232
 21
611.499431
 31
0.0
  0
LINE
  8
0
 10
-298.644592
 20
607.101404
 30
0.0
 11
-298.828935
 21
607.26191
 31
0.0
  0
LINE
  8
0
 10
-298.828935
 20
607.26191
 30
0.0
 11
-299.021225
 21
607.400168
 31
0.0
  0
LINE
  8
0
 10
-299.021225
 20
607.400168
 30
0.0
 11
-299.235763
 21
607.515383
 31
0.0
  0
LINE
  8
0
 10
-299.235763
 20
607.515383
 30
0.0
 11
-299.466192
 21
607.599609
 31
0.0
  0
LINE
  8
0
 10
-299.466192
 20
607.599609
 30
0.0
 11
-299.696622
 21
607.65364
 31
0.0
  0
LINE
  8
0
 10
-299.696622
 20
607.65364
 30
0.0
 11
-299.934203
 21
607.684629
 31
0.0
  0
LINE
  8
0
 10
-299.934203
 20
607.684629
 30
0.0
 11
-300.180524
 21
607.684629
 31
0.0
  0
LINE
  8
0
 10
-300.180524
 20
607.684629
 30
0.0
 11
-300.418105
 21
607.65364
 31
0.0
  0
LINE
  8
0
 10
-300.418105
 20
607.65364
 30
0.0
 11
-300.648535
 21
607.599609
 31
0.0
  0
LINE
  8
0
 10
-300.648535
 20
607.599609
 30
0.0
 11
-300.878964
 21
607.515383
 31
0.0
  0
LINE
  8
0
 10
-300.878964
 20
607.515383
 30
0.0
 11
-301.086351
 21
607.400168
 31
0.0
  0
LINE
  8
0
 10
-301.086351
 20
607.400168
 30
0.0
 11
-301.285792
 21
607.26191
 31
0.0
  0
LINE
  8
0
 10
-301.285792
 20
607.26191
 30
0.0
 11
-301.470135
 21
607.101404
 31
0.0
  0
LINE
  8
0
 10
-301.470135
 20
607.101404
 30
0.0
 11
-301.285792
 21
607.26191
 31
0.0
  0
LINE
  8
0
 10
-301.285792
 20
607.26191
 30
0.0
 11
-301.086351
 21
607.400168
 31
0.0
  0
LINE
  8
0
 10
-301.086351
 20
607.400168
 30
0.0
 11
-300.878964
 21
607.515383
 31
0.0
  0
LINE
  8
0
 10
-300.878964
 20
607.515383
 30
0.0
 11
-300.648535
 21
607.599609
 31
0.0
  0
LINE
  8
0
 10
-300.648535
 20
607.599609
 30
0.0
 11
-300.418105
 21
607.65364
 31
0.0
  0
LINE
  8
0
 10
-300.418105
 20
607.65364
 30
0.0
 11
-300.180524
 21
607.684629
 31
0.0
  0
LINE
  8
0
 10
-300.180524
 20
607.684629
 30
0.0
 11
-299.934203
 21
607.684629
 31
0.0
  0
LINE
  8
0
 10
-299.934203
 20
607.684629
 30
0.0
 11
-299.696622
 21
607.65364
 31
0.0
  0
LINE
  8
0
 10
-299.696622
 20
607.65364
 30
0.0
 11
-299.466192
 21
607.599609
 31
0.0
  0
LINE
  8
0
 10
-299.466192
 20
607.599609
 30
0.0
 11
-299.235763
 21
607.515383
 31
0.0
  0
LINE
  8
0
 10
-299.235763
 20
607.515383
 30
0.0
 11
-299.021225
 21
607.400168
 31
0.0
  0
LINE
  8
0
 10
-299.021225
 20
607.400168
 30
0.0
 11
-298.828935
 21
607.26191
 31
0.0
  0
LINE
  8
0
 10
-298.828935
 20
607.26191
 30
0.0
 11
-298.644592
 21
607.101404
 31
0.0
  0
LINE
  8
0
 10
-298.644592
 20
607.101404
 30
0.0
 11
-298.484086
 21
606.924212
 31
0.0
  0
LINE
  8
0
 10
-298.484086
 20
606.924212
 30
0.0
 11
-298.644592
 21
607.101404
 31
0.0
  0
LINE
  8
0
 10
-298.484086
 20
606.924212
 30
0.0
 11
-298.345828
 21
606.724771
 31
0.0
  0
LINE
  8
0
 10
-298.345828
 20
606.724771
 30
0.0
 11
-298.484086
 21
606.924212
 31
0.0
  0
LINE
  8
0
 10
-298.345828
 20
606.724771
 30
0.0
 11
-298.237764
 21
606.510233
 31
0.0
  0
LINE
  8
0
 10
-298.237764
 20
606.510233
 30
0.0
 11
-298.345828
 21
606.724771
 31
0.0
  0
LINE
  8
0
 10
-298.237764
 20
606.510233
 30
0.0
 11
-298.153538
 21
606.286955
 31
0.0
  0
LINE
  8
0
 10
-298.153538
 20
606.286955
 30
0.0
 11
-298.237764
 21
606.510233
 31
0.0
  0
LINE
  8
0
 10
-298.153538
 20
606.286955
 30
0.0
 11
-298.092355
 21
606.049374
 31
0.0
  0
LINE
  8
0
 10
-298.092355
 20
606.049374
 30
0.0
 11
-298.153538
 21
606.286955
 31
0.0
  0
LINE
  8
0
 10
-298.092355
 20
606.049374
 30
0.0
 11
-298.061366
 21
605.811793
 31
0.0
  0
LINE
  8
0
 10
-298.061366
 20
605.811793
 30
0.0
 11
-298.092355
 21
606.049374
 31
0.0
  0
LINE
  8
0
 10
-298.061366
 20
605.811793
 30
0.0
 11
-298.061366
 21
605.573417
 31
0.0
  0
LINE
  8
0
 10
-298.061366
 20
605.573417
 30
0.0
 11
-298.061366
 21
605.811793
 31
0.0
  0
LINE
  8
0
 10
-298.061366
 20
605.573417
 30
0.0
 11
-298.092355
 21
605.335836
 31
0.0
  0
LINE
  8
0
 10
-298.092355
 20
605.335836
 30
0.0
 11
-298.061366
 21
605.573417
 31
0.0
  0
LINE
  8
0
 10
-298.092355
 20
605.335836
 30
0.0
 11
-298.153538
 21
605.097461
 31
0.0
  0
LINE
  8
0
 10
-298.153538
 20
605.097461
 30
0.0
 11
-298.092355
 21
605.335836
 31
0.0
  0
LINE
  8
0
 10
-298.153538
 20
605.097461
 30
0.0
 11
-298.237764
 21
604.874977
 31
0.0
  0
LINE
  8
0
 10
-298.237764
 20
604.874977
 30
0.0
 11
-298.153538
 21
605.097461
 31
0.0
  0
LINE
  8
0
 10
-298.237764
 20
604.874977
 30
0.0
 11
-298.345828
 21
604.659645
 31
0.0
  0
LINE
  8
0
 10
-298.345828
 20
604.659645
 30
0.0
 11
-298.237764
 21
604.874977
 31
0.0
  0
LINE
  8
0
 10
-298.345828
 20
604.659645
 30
0.0
 11
-298.484086
 21
604.460204
 31
0.0
  0
LINE
  8
0
 10
-298.484086
 20
604.460204
 30
0.0
 11
-298.345828
 21
604.659645
 31
0.0
  0
LINE
  8
0
 10
-298.484086
 20
604.460204
 30
0.0
 11
-298.644592
 21
604.283806
 31
0.0
  0
LINE
  8
0
 10
-298.644592
 20
604.283806
 30
0.0
 11
-298.484086
 21
604.460204
 31
0.0
  0
LINE
  8
0
 10
-281.189152
 20
590.213298
 30
0.0
 11
-280.812519
 21
589.901615
 31
0.0
  0
LINE
  8
0
 10
-280.812519
 20
589.901615
 30
0.0
 11
-280.413637
 21
589.579147
 31
0.0
  0
LINE
  8
0
 10
-280.413637
 20
589.579147
 30
0.0
 11
-279.998864
 21
589.27084
 31
0.0
  0
LINE
  8
0
 10
-279.998864
 20
589.27084
 30
0.0
 11
-279.568994
 21
588.97784
 31
0.0
  0
LINE
  8
0
 10
-279.568994
 20
588.97784
 30
0.0
 11
-279.124026
 21
588.700701
 31
0.0
  0
LINE
  8
0
 10
-279.124026
 20
588.700701
 30
0.0
 11
-278.663167
 21
588.439617
 31
0.0
  0
LINE
  8
0
 10
-278.663167
 20
588.439617
 30
0.0
 11
-278.195157
 21
588.199665
 31
0.0
  0
LINE
  8
0
 10
-278.195157
 20
588.199665
 30
0.0
 11
-277.711254
 21
587.976587
 31
0.0
  0
LINE
  8
0
 10
-277.711254
 20
587.976587
 30
0.0
 11
-277.220201
 21
587.774754
 31
0.0
  0
LINE
  8
0
 10
-277.220201
 20
587.774754
 30
0.0
 11
-276.71405
 21
587.591281
 31
0.0
  0
LINE
  8
0
 10
-276.71405
 20
587.591281
 30
0.0
 11
-276.207105
 21
587.431394
 31
0.0
  0
LINE
  8
0
 10
-276.207105
 20
587.431394
 30
0.0
 11
-275.693009
 21
587.292697
 31
0.0
  0
LINE
  8
0
 10
-275.693009
 20
587.292697
 30
0.0
 11
-275.178118
 21
587.176661
 31
0.0
  0
LINE
  8
0
 10
-275.178118
 20
587.176661
 30
0.0
 11
-274.656076
 21
587.05249
 31
0.0
  0
LINE
  8
0
 10
-274.656076
 20
587.05249
 30
0.0
 11
-274.134034
 21
586.922106
 31
0.0
  0
LINE
  8
0
 10
-274.134034
 20
586.922106
 30
0.0
 11
-274.656076
 21
587.05249
 31
0.0
  0
LINE
  8
0
 10
-274.656076
 20
587.05249
 30
0.0
 11
-275.178118
 21
587.176661
 31
0.0
  0
LINE
  8
0
 10
-275.178118
 20
587.176661
 30
0.0
 11
-275.693009
 21
587.292697
 31
0.0
  0
LINE
  8
0
 10
-275.693009
 20
587.292697
 30
0.0
 11
-276.207105
 21
587.431394
 31
0.0
  0
LINE
  8
0
 10
-276.207105
 20
587.431394
 30
0.0
 11
-276.71405
 21
587.591281
 31
0.0
  0
LINE
  8
0
 10
-276.71405
 20
587.591281
 30
0.0
 11
-277.220201
 21
587.774754
 31
0.0
  0
LINE
  8
0
 10
-277.220201
 20
587.774754
 30
0.0
 11
-277.711254
 21
587.976587
 31
0.0
  0
LINE
  8
0
 10
-277.711254
 20
587.976587
 30
0.0
 11
-278.195157
 21
588.199665
 31
0.0
  0
LINE
  8
0
 10
-278.195157
 20
588.199665
 30
0.0
 11
-278.663167
 21
588.439617
 31
0.0
  0
LINE
  8
0
 10
-278.663167
 20
588.439617
 30
0.0
 11
-279.124026
 21
588.700701
 31
0.0
  0
LINE
  8
0
 10
-279.124026
 20
588.700701
 30
0.0
 11
-279.568994
 21
588.97784
 31
0.0
  0
LINE
  8
0
 10
-279.568994
 20
588.97784
 30
0.0
 11
-279.998864
 21
589.27084
 31
0.0
  0
LINE
  8
0
 10
-279.998864
 20
589.27084
 30
0.0
 11
-280.413637
 21
589.579147
 31
0.0
  0
LINE
  8
0
 10
-280.413637
 20
589.579147
 30
0.0
 11
-280.812519
 21
589.901615
 31
0.0
  0
LINE
  8
0
 10
-280.812519
 20
589.901615
 30
0.0
 11
-281.189152
 21
590.213298
 31
0.0
  0
LINE
  8
0
 10
-281.189152
 20
575.976327
 30
0.0
 11
-280.812519
 21
576.337069
 31
0.0
  0
LINE
  8
0
 10
-280.812519
 20
576.337069
 30
0.0
 11
-281.189152
 21
575.976327
 31
0.0
  0
LINE
  8
0
 10
-280.812519
 20
576.337069
 30
0.0
 11
-280.413637
 21
576.674767
 31
0.0
  0
LINE
  8
0
 10
-280.413637
 20
576.674767
 30
0.0
 11
-280.812519
 21
576.337069
 31
0.0
  0
LINE
  8
0
 10
-280.413637
 20
576.674767
 30
0.0
 11
-279.998864
 21
576.989423
 31
0.0
  0
LINE
  8
0
 10
-279.998864
 20
576.989423
 30
0.0
 11
-280.413637
 21
576.674767
 31
0.0
  0
LINE
  8
0
 10
-279.998864
 20
576.989423
 30
0.0
 11
-279.568994
 21
577.288981
 31
0.0
  0
LINE
  8
0
 10
-279.568994
 20
577.288981
 30
0.0
 11
-279.998864
 21
576.989423
 31
0.0
  0
LINE
  8
0
 10
-279.568994
 20
577.288981
 30
0.0
 11
-279.124026
 21
577.564702
 31
0.0
  0
LINE
  8
0
 10
-279.124026
 20
577.564702
 30
0.0
 11
-279.568994
 21
577.288981
 31
0.0
  0
LINE
  8
0
 10
-279.124026
 20
577.564702
 30
0.0
 11
-278.663167
 21
577.811024
 31
0.0
  0
LINE
  8
0
 10
-278.663167
 20
577.811024
 30
0.0
 11
-279.124026
 21
577.564702
 31
0.0
  0
LINE
  8
0
 10
-278.663167
 20
577.811024
 30
0.0
 11
-278.195157
 21
578.033507
 31
0.0
  0
LINE
  8
0
 10
-278.195157
 20
578.033507
 30
0.0
 11
-278.663167
 21
577.811024
 31
0.0
  0
LINE
  8
0
 10
-278.195157
 20
578.033507
 30
0.0
 11
-277.711254
 21
578.232948
 31
0.0
  0
LINE
  8
0
 10
-277.711254
 20
578.232948
 30
0.0
 11
-278.195157
 21
578.033507
 31
0.0
  0
LINE
  8
0
 10
-277.711254
 20
578.232948
 30
0.0
 11
-277.220201
 21
578.409346
 31
0.0
  0
LINE
  8
0
 10
-277.220201
 20
578.409346
 30
0.0
 11
-277.711254
 21
578.232948
 31
0.0
  0
LINE
  8
0
 10
-277.220201
 20
578.409346
 30
0.0
 11
-276.71405
 21
578.55555
 31
0.0
  0
LINE
  8
0
 10
-276.71405
 20
578.55555
 30
0.0
 11
-277.220201
 21
578.409346
 31
0.0
  0
LINE
  8
0
 10
-276.71405
 20
578.55555
 30
0.0
 11
-276.207105
 21
578.677916
 31
0.0
  0
LINE
  8
0
 10
-276.207105
 20
578.677916
 30
0.0
 11
-276.71405
 21
578.55555
 31
0.0
  0
LINE
  8
0
 10
-276.207105
 20
578.677916
 30
0.0
 11
-275.693009
 21
578.778033
 31
0.0
  0
LINE
  8
0
 10
-275.693009
 20
578.778033
 30
0.0
 11
-276.207105
 21
578.677916
 31
0.0
  0
LINE
  8
0
 10
-275.693009
 20
578.778033
 30
0.0
 11
-275.178118
 21
578.847162
 31
0.0
  0
LINE
  8
0
 10
-275.178118
 20
578.847162
 30
0.0
 11
-275.693009
 21
578.778033
 31
0.0
  0
LINE
  8
0
 10
-275.178118
 20
578.847162
 30
0.0
 11
-274.656076
 21
578.885302
 31
0.0
  0
LINE
  8
0
 10
-274.656076
 20
578.885302
 30
0.0
 11
-275.178118
 21
578.847162
 31
0.0
  0
LINE
  8
0
 10
-274.656076
 20
578.885302
 30
0.0
 11
-274.134034
 21
578.9004
 31
0.0
  0
LINE
  8
0
 10
-274.134034
 20
578.9004
 30
0.0
 11
-274.656076
 21
578.885302
 31
0.0
  0
LINE
  8
0
 10
-298.644592
 20
561.905025
 30
0.0
 11
-298.484086
 21
561.728627
 31
0.0
  0
LINE
  8
0
 10
-298.484086
 20
561.728627
 30
0.0
 11
-298.644592
 21
561.905025
 31
0.0
  0
LINE
  8
0
 10
-298.644592
 20
561.905025
 30
0.0
 11
-302.099447
 21
565.359879
 31
0.0
  0
LINE
  8
0
 10
-302.099447
 20
565.359879
 30
0.0
 11
-302.352919
 21
565.59746
 31
0.0
  0
LINE
  8
0
 10
-302.352919
 20
565.59746
 30
0.0
 11
-302.62864
 21
565.804847
 31
0.0
  0
LINE
  8
0
 10
-302.62864
 20
565.804847
 30
0.0
 11
-302.928199
 21
565.997136
 31
0.0
  0
LINE
  8
0
 10
-302.928199
 20
565.997136
 30
0.0
 11
-303.235703
 21
566.150491
 31
0.0
  0
LINE
  8
0
 10
-303.235703
 20
566.150491
 30
0.0
 11
-303.55751
 21
566.288749
 31
0.0
  0
LINE
  8
0
 10
-303.55751
 20
566.288749
 30
0.0
 11
-303.888057
 21
566.388072
 31
0.0
  0
LINE
  8
0
 10
-303.888057
 20
566.388072
 30
0.0
 11
-304.225756
 21
566.465147
 31
0.0
  0
LINE
  8
0
 10
-304.225756
 20
566.465147
 30
0.0
 11
-304.5714
 21
566.511233
 31
0.0
  0
LINE
  8
0
 10
-304.5714
 20
566.511233
 30
0.0
 11
-304.91625
 21
566.52633
 31
0.0
  0
LINE
  8
0
 10
-304.91625
 20
566.52633
 30
0.0
 11
-305.26984
 21
566.511233
 31
0.0
  0
LINE
  8
0
 10
-305.26984
 20
566.511233
 30
0.0
 11
-305.615484
 21
566.465147
 31
0.0
  0
LINE
  8
0
 10
-305.615484
 20
566.465147
 30
0.0
 11
-305.953183
 21
566.388072
 31
0.0
  0
LINE
  8
0
 10
-305.953183
 20
566.388072
 30
0.0
 11
-306.282936
 21
566.288749
 31
0.0
  0
LINE
  8
0
 10
-306.282936
 20
566.288749
 30
0.0
 11
-306.605537
 21
566.150491
 31
0.0
  0
LINE
  8
0
 10
-306.605537
 20
566.150491
 30
0.0
 11
-306.912247
 21
565.997136
 31
0.0
  0
LINE
  8
0
 10
-306.912247
 20
565.997136
 30
0.0
 11
-307.211805
 21
565.804847
 31
0.0
  0
LINE
  8
0
 10
-307.211805
 20
565.804847
 30
0.0
 11
-307.488321
 21
565.59746
 31
0.0
  0
LINE
  8
0
 10
-307.488321
 20
565.59746
 30
0.0
 11
-307.741793
 21
565.359879
 31
0.0
  0
LINE
  8
0
 10
-307.741793
 20
565.359879
 30
0.0
 11
-310.904241
 21
562.196637
 31
0.0
  0
LINE
  8
0
 10
-310.904241
 20
562.196637
 30
0.0
 11
-307.741793
 21
565.359879
 31
0.0
  0
LINE
  8
0
 10
-307.741793
 20
565.359879
 30
0.0
 11
-307.488321
 21
565.59746
 31
0.0
  0
LINE
  8
0
 10
-307.488321
 20
565.59746
 30
0.0
 11
-307.211805
 21
565.804847
 31
0.0
  0
LINE
  8
0
 10
-307.211805
 20
565.804847
 30
0.0
 11
-306.912247
 21
565.997136
 31
0.0
  0
LINE
  8
0
 10
-306.912247
 20
565.997136
 30
0.0
 11
-306.605537
 21
566.150491
 31
0.0
  0
LINE
  8
0
 10
-306.605537
 20
566.150491
 30
0.0
 11
-306.282936
 21
566.288749
 31
0.0
  0
LINE
  8
0
 10
-306.282936
 20
566.288749
 30
0.0
 11
-305.953183
 21
566.388072
 31
0.0
  0
LINE
  8
0
 10
-305.953183
 20
566.388072
 30
0.0
 11
-305.615484
 21
566.465147
 31
0.0
  0
LINE
  8
0
 10
-305.615484
 20
566.465147
 30
0.0
 11
-305.26984
 21
566.511233
 31
0.0
  0
LINE
  8
0
 10
-305.26984
 20
566.511233
 30
0.0
 11
-304.91625
 21
566.52633
 31
0.0
  0
LINE
  8
0
 10
-304.91625
 20
566.52633
 30
0.0
 11
-304.5714
 21
566.511233
 31
0.0
  0
LINE
  8
0
 10
-304.5714
 20
566.511233
 30
0.0
 11
-304.225756
 21
566.465147
 31
0.0
  0
LINE
  8
0
 10
-304.225756
 20
566.465147
 30
0.0
 11
-303.888057
 21
566.388072
 31
0.0
  0
LINE
  8
0
 10
-303.888057
 20
566.388072
 30
0.0
 11
-303.55751
 21
566.288749
 31
0.0
  0
LINE
  8
0
 10
-303.55751
 20
566.288749
 30
0.0
 11
-303.235703
 21
566.150491
 31
0.0
  0
LINE
  8
0
 10
-303.235703
 20
566.150491
 30
0.0
 11
-302.928199
 21
565.997136
 31
0.0
  0
LINE
  8
0
 10
-302.928199
 20
565.997136
 30
0.0
 11
-302.62864
 21
565.804847
 31
0.0
  0
LINE
  8
0
 10
-302.62864
 20
565.804847
 30
0.0
 11
-302.352919
 21
565.59746
 31
0.0
  0
LINE
  8
0
 10
-302.352919
 20
565.59746
 30
0.0
 11
-302.099447
 21
565.359879
 31
0.0
  0
LINE
  8
0
 10
-302.099447
 20
565.359879
 30
0.0
 11
-298.644592
 21
561.905025
 31
0.0
  0
LINE
  8
0
 10
-298.484086
 20
561.728627
 30
0.0
 11
-298.345828
 21
561.529186
 31
0.0
  0
LINE
  8
0
 10
-298.345828
 20
561.529186
 30
0.0
 11
-298.484086
 21
561.728627
 31
0.0
  0
LINE
  8
0
 10
-298.345828
 20
561.529186
 30
0.0
 11
-298.237764
 21
561.313854
 31
0.0
  0
LINE
  8
0
 10
-298.237764
 20
561.313854
 30
0.0
 11
-298.345828
 21
561.529186
 31
0.0
  0
LINE
  8
0
 10
-298.237764
 20
561.313854
 30
0.0
 11
-298.153538
 21
561.09137
 31
0.0
  0
LINE
  8
0
 10
-298.153538
 20
561.09137
 30
0.0
 11
-298.237764
 21
561.313854
 31
0.0
  0
LINE
  8
0
 10
-298.153538
 20
561.09137
 30
0.0
 11
-298.092355
 21
560.853789
 31
0.0
  0
LINE
  8
0
 10
-298.092355
 20
560.853789
 30
0.0
 11
-298.153538
 21
561.09137
 31
0.0
  0
LINE
  8
0
 10
-298.092355
 20
560.853789
 30
0.0
 11
-298.061366
 21
560.615413
 31
0.0
  0
LINE
  8
0
 10
-298.061366
 20
560.615413
 30
0.0
 11
-298.092355
 21
560.853789
 31
0.0
  0
LINE
  8
0
 10
-298.061366
 20
560.615413
 30
0.0
 11
-298.061366
 21
560.377833
 31
0.0
  0
LINE
  8
0
 10
-298.061366
 20
560.377833
 30
0.0
 11
-298.061366
 21
560.615413
 31
0.0
  0
LINE
  8
0
 10
-298.061366
 20
560.377833
 30
0.0
 11
-298.092355
 21
560.139457
 31
0.0
  0
LINE
  8
0
 10
-298.092355
 20
560.139457
 30
0.0
 11
-298.061366
 21
560.377833
 31
0.0
  0
LINE
  8
0
 10
-298.092355
 20
560.139457
 30
0.0
 11
-298.153538
 21
559.901876
 31
0.0
  0
LINE
  8
0
 10
-298.153538
 20
559.901876
 30
0.0
 11
-298.092355
 21
560.139457
 31
0.0
  0
LINE
  8
0
 10
-298.153538
 20
559.901876
 30
0.0
 11
-298.237764
 21
559.679393
 31
0.0
  0
LINE
  8
0
 10
-298.237764
 20
559.679393
 30
0.0
 11
-298.153538
 21
559.901876
 31
0.0
  0
LINE
  8
0
 10
-298.237764
 20
559.679393
 30
0.0
 11
-298.345828
 21
559.46406
 31
0.0
  0
LINE
  8
0
 10
-298.345828
 20
559.46406
 30
0.0
 11
-298.237764
 21
559.679393
 31
0.0
  0
LINE
  8
0
 10
-298.345828
 20
559.46406
 30
0.0
 11
-298.484086
 21
559.264619
 31
0.0
  0
LINE
  8
0
 10
-298.484086
 20
559.264619
 30
0.0
 11
-298.345828
 21
559.46406
 31
0.0
  0
LINE
  8
0
 10
-298.484086
 20
559.264619
 30
0.0
 11
-298.644592
 21
559.088221
 31
0.0
  0
LINE
  8
0
 10
-298.644592
 20
559.088221
 30
0.0
 11
-298.484086
 21
559.264619
 31
0.0
  0
LINE
  8
0
 10
-298.644592
 20
559.088221
 30
0.0
 11
-298.828935
 21
558.926921
 31
0.0
  0
LINE
  8
0
 10
-298.828935
 20
558.926921
 30
0.0
 11
-298.644592
 21
559.088221
 31
0.0
  0
LINE
  8
0
 10
-298.828935
 20
558.926921
 30
0.0
 11
-299.021225
 21
558.788663
 31
0.0
  0
LINE
  8
0
 10
-299.021225
 20
558.788663
 30
0.0
 11
-298.828935
 21
558.926921
 31
0.0
  0
LINE
  8
0
 10
-299.021225
 20
558.788663
 30
0.0
 11
-299.235763
 21
558.673448
 31
0.0
  0
LINE
  8
0
 10
-299.235763
 20
558.673448
 30
0.0
 11
-299.021225
 21
558.788663
 31
0.0
  0
LINE
  8
0
 10
-299.235763
 20
558.673448
 30
0.0
 11
-299.466192
 21
558.589222
 31
0.0
  0
LINE
  8
0
 10
-299.466192
 20
558.589222
 30
0.0
 11
-299.235763
 21
558.673448
 31
0.0
  0
LINE
  8
0
 10
-299.466192
 20
558.589222
 30
0.0
 11
-299.696622
 21
558.53519
 31
0.0
  0
LINE
  8
0
 10
-299.696622
 20
558.53519
 30
0.0
 11
-299.466192
 21
558.589222
 31
0.0
  0
LINE
  8
0
 10
-299.696622
 20
558.53519
 30
0.0
 11
-299.934203
 21
558.504202
 31
0.0
  0
LINE
  8
0
 10
-299.934203
 20
558.504202
 30
0.0
 11
-299.696622
 21
558.53519
 31
0.0
  0
LINE
  8
0
 10
-299.934203
 20
558.504202
 30
0.0
 11
-300.180524
 21
558.504202
 31
0.0
  0
LINE
  8
0
 10
-300.180524
 20
558.504202
 30
0.0
 11
-299.934203
 21
558.504202
 31
0.0
  0
LINE
  8
0
 10
-300.180524
 20
558.504202
 30
0.0
 11
-300.418105
 21
558.53519
 31
0.0
  0
LINE
  8
0
 10
-300.418105
 20
558.53519
 30
0.0
 11
-300.180524
 21
558.504202
 31
0.0
  0
LINE
  8
0
 10
-300.418105
 20
558.53519
 30
0.0
 11
-300.648535
 21
558.589222
 31
0.0
  0
LINE
  8
0
 10
-300.648535
 20
558.589222
 30
0.0
 11
-300.418105
 21
558.53519
 31
0.0
  0
LINE
  8
0
 10
-300.648535
 20
558.589222
 30
0.0
 11
-300.878964
 21
558.673448
 31
0.0
  0
LINE
  8
0
 10
-300.878964
 20
558.673448
 30
0.0
 11
-300.648535
 21
558.589222
 31
0.0
  0
LINE
  8
0
 10
-300.878964
 20
558.673448
 30
0.0
 11
-301.086351
 21
558.788663
 31
0.0
  0
LINE
  8
0
 10
-301.086351
 20
558.788663
 30
0.0
 11
-300.878964
 21
558.673448
 31
0.0
  0
LINE
  8
0
 10
-301.086351
 20
558.788663
 30
0.0
 11
-301.285792
 21
558.926921
 31
0.0
  0
LINE
  8
0
 10
-301.285792
 20
558.926921
 30
0.0
 11
-301.086351
 21
558.788663
 31
0.0
  0
LINE
  8
0
 10
-301.285792
 20
558.926921
 30
0.0
 11
-301.470135
 21
559.088221
 31
0.0
  0
LINE
  8
0
 10
-301.470135
 20
559.088221
 30
0.0
 11
-301.285792
 21
558.926921
 31
0.0
  0
LINE
  8
0
 10
-301.470135
 20
559.088221
 30
0.0
 11
-304.91625
 21
562.534336
 31
0.0
  0
LINE
  8
0
 10
-304.91625
 20
562.534336
 30
0.0
 11
-301.470135
 21
559.088221
 31
0.0
  0
LINE
  8
0
 10
-299.420107
 20
557.752524
 30
0.0
 11
-306.912247
 21
557.752524
 31
0.0
  0
LINE
  8
0
 10
-306.912247
 20
557.752524
 30
0.0
 11
-306.912247
 21
560.539133
 31
0.0
  0
LINE
  8
0
 10
-306.912247
 20
560.539133
 30
0.0
 11
-304.91625
 21
562.534336
 31
0.0
  0
LINE
  8
0
 10
-304.91625
 20
562.534336
 30
0.0
 11
-306.912247
 21
560.539133
 31
0.0
  0
LINE
  8
0
 10
-306.912247
 20
560.539133
 30
0.0
 11
-306.912247
 21
557.752524
 31
0.0
  0
LINE
  8
0
 10
-306.912247
 20
557.752524
 30
0.0
 11
-299.420107
 21
557.752524
 31
0.0
  0
LINE
  8
0
 10
-299.420107
 20
557.752524
 30
0.0
 11
-281.189152
 21
575.976327
 31
0.0
  0
LINE
  8
0
 10
-281.189152
 20
575.976327
 30
0.0
 11
-299.420107
 21
557.752524
 31
0.0
  0
LINE
  8
0
 10
-296.595357
 20
553.76053
 30
0.0
 11
-306.912247
 21
553.76053
 31
0.0
  0
LINE
  8
0
 10
-306.912247
 20
553.76053
 30
0.0
 11
-296.595357
 21
553.76053
 31
0.0
  0
LINE
  8
0
 10
-293.770608
 20
554.927775
 30
0.0
 11
-278.709253
 21
569.988336
 31
0.0
  0
LINE
  8
0
 10
-278.709253
 20
569.988336
 30
0.0
 11
-293.770608
 21
554.927775
 31
0.0
  0
LINE
  8
0
 10
-310.904241
 20
557.752524
 30
0.0
 11
-310.904241
 21
562.196637
 31
0.0
  0
LINE
  8
0
 10
-310.904241
 20
562.196637
 30
0.0
 11
-310.904241
 21
557.752524
 31
0.0
  0
LINE
  8
0
 10
-310.904241
 20
603.992194
 30
0.0
 11
-307.741793
 21
600.829746
 31
0.0
  0
LINE
  8
0
 10
-307.741793
 20
600.829746
 30
0.0
 11
-310.904241
 21
603.992194
 31
0.0
  0
LINE
  8
0
 10
-310.904241
 20
603.992194
 30
0.0
 11
-310.904241
 21
608.437101
 31
0.0
  0
LINE
  8
0
 10
-310.904241
 20
608.437101
 30
0.0
 11
-310.904241
 21
603.992194
 31
0.0
  0
LINE
  8
0
 10
-306.912247
 20
605.650492
 30
0.0
 11
-306.912247
 21
608.437101
 31
0.0
  0
LINE
  8
0
 10
-306.912247
 20
608.437101
 30
0.0
 11
-299.420107
 21
608.437101
 31
0.0
  0
LINE
  8
0
 10
-299.420107
 20
608.437101
 30
0.0
 11
-281.189152
 21
590.213298
 31
0.0
  0
LINE
  8
0
 10
-299.420107
 20
608.437101
 30
0.0
 11
-306.912247
 21
608.437101
 31
0.0
  0
LINE
  8
0
 10
-306.912247
 20
608.437101
 30
0.0
 11
-306.912247
 21
605.650492
 31
0.0
  0
LINE
  8
0
 10
-306.912247
 20
605.650492
 30
0.0
 11
-304.91625
 21
603.654495
 31
0.0
  0
LINE
  8
0
 10
-304.91625
 20
603.654495
 30
0.0
 11
-306.912247
 21
605.650492
 31
0.0
  0
LINE
  8
0
 10
-304.91625
 20
603.654495
 30
0.0
 11
-301.470135
 21
607.101404
 31
0.0
  0
LINE
  8
0
 10
-301.470135
 20
607.101404
 30
0.0
 11
-304.91625
 21
603.654495
 31
0.0
  0
LINE
  8
0
 10
-302.099447
 20
600.829746
 30
0.0
 11
-298.644592
 21
604.283806
 31
0.0
  0
LINE
  8
0
 10
-298.644592
 20
604.283806
 30
0.0
 11
-302.099447
 21
600.829746
 31
0.0
  0
LINE
  8
0
 10
-306.912247
 20
612.428301
 30
0.0
 11
-296.595357
 21
612.428301
 31
0.0
  0
LINE
  8
0
 10
-296.595357
 20
612.428301
 30
0.0
 11
-306.912247
 21
612.428301
 31
0.0
  0
LINE
  8
0
 10
-293.770608
 20
611.26185
 30
0.0
 11
-278.709253
 21
596.200495
 31
0.0
  0
LINE
  8
0
 10
-278.709253
 20
596.200495
 30
0.0
 11
-293.770608
 21
611.26185
 31
0.0
  0
LINE
  8
0
 10
-271.654929
 20
592.802696
 30
0.0
 11
-140.143988
 21
592.863639
 31
0.0
  0
LINE
  8
0
 10
-140.143988
 20
592.863639
 30
0.0
 11
-271.654929
 21
592.802696
 31
0.0
  0
LINE
  8
0
 10
-274.134034
 20
586.922106
 30
0.0
 11
-255.035393
 21
586.876442
 31
0.0
  0
LINE
  8
0
 10
-255.035393
 20
586.876442
 30
0.0
 11
-274.134034
 21
586.922106
 31
0.0
  0
LINE
  8
0
 10
-274.134034
 20
578.9004
 30
0.0
 11
-255.035393
 21
578.9004
 31
0.0
  0
LINE
  8
0
 10
-255.035393
 20
578.9004
 30
0.0
 11
-274.134034
 21
578.9004
 31
0.0
  0
LINE
  8
0
 10
-271.654929
 20
572.913203
 30
0.0
 11
-140.143988
 21
572.913203
 31
0.0
  0
LINE
  8
0
 10
-140.143988
 20
572.913203
 30
0.0
 11
-271.654929
 21
572.913203
 31
0.0
  0
LINE
  8
0
 10
-138.147991
 20
573.450342
 30
0.0
 11
-127.63243
 21
579.522116
 31
0.0
  0
LINE
  8
0
 10
-127.631661
 20
579.522559
 30
0.0
 11
-127.63243
 21
579.522116
 31
0.0
  0
LINE
  8
0
 10
-138.147991
 20
592.326499
 30
0.0
 11
-127.63243
 21
586.254726
 31
0.0
  0
LINE
  8
0
 10
-127.631661
 20
586.254282
 30
0.0
 11
-127.63243
 21
586.254726
 31
0.0
  0
LINE
  8
0
 10
-127.63243
 20
586.254726
 30
0.0
 11
-127.631661
 21
586.254282
 31
0.0
  0
LINE
  8
0
 10
-127.63243
 20
586.254726
 30
0.0
 11
-138.147991
 21
592.326499
 31
0.0
  0
LINE
  8
0
 10
-127.63243
 20
579.522116
 30
0.0
 11
-127.631661
 21
579.522559
 31
0.0
  0
LINE
  8
0
 10
-127.63243
 20
579.522116
 30
0.0
 11
-138.147991
 21
573.450342
 31
0.0
  0
ARC
  8
0
 10
-111.56754
 20
582.888421
 30
0.0
 40
12.96683
 50
158.450964
 51
158.45419
  0
ARC
  8
0
 10
-126.232324
 20
588.679536
 30
0.0
 40
2.8
 50
239.997503
 51
338.450964
  0
ARC
  8
0
 10
-111.56754
 20
582.888421
 30
0.0
 40
12.96683
 50
201.549036
 51
158.450964
  0
ARC
  8
0
 10
-126.232324
 20
577.097305
 30
0.0
 40
2.8
 50
21.549036
 51
120.002497
  0
ARC
  8
0
 10
-111.56754
 20
582.888421
 30
0.0
 40
12.96683
 50
201.54581
 51
201.549036
  0
CIRCLE
  8
0
 10
-111.56754
 20
582.888421
 30
0.0
 40
8.980398
  0
LINE
  8
0
 10
-37.308052
 20
335.461236
 30
0.0
 11
-37.308052
 21
585.132514
 31
0.0
  0
LINE
  8
0
 10
-37.308052
 20
585.132514
 30
0.0
 11
-37.308232
 21
639.966102
 31
0.0
  0
ARC
  8
0
 10
-41.308232
 20
639.966089
 30
0.0
 40
4.0
 50
0.000188
 51
88.999959
  0
LINE
  8
0
 10
-48.107854
 20
644.085391
 30
0.0
 11
-41.238419
 21
643.965479
 31
0.0
  0
LINE
  8
0
 10
-37.308052
 20
335.461236
 30
0.0
 11
-37.308232
 21
280.627651
 31
0.0
  0
ARC
  8
0
 10
-41.308232
 20
280.627664
 30
0.0
 40
4.0
 50
271.0
 51
359.999812
  0
LINE
  8
0
 10
-48.107854
 20
276.508357
 30
0.0
 11
-41.238422
 21
276.628273
 31
0.0
  0
LINE
  8
0
 10
-98.221141
 20
687.894437
 30
0.0
 11
-109.304241
 21
687.894437
 31
0.0
  0
LINE
  8
0
 10
-97.304241
 20
693.094437
 30
0.0
 11
-108.904241
 21
693.094437
 31
0.0
  0
LINE
  8
0
 10
-84.852121
 20
688.562237
 30
0.0
 11
-97.304241
 21
693.094437
 31
0.0
  0
LINE
  8
0
 10
-90.736161
 20
685.170125
 30
0.0
 11
-98.221141
 21
687.894437
 31
0.0
  0
LINE
  8
0
 10
-108.904241
 20
680.294437
 30
0.0
 11
-101.904241
 21
680.294437
 31
0.0
  0
LINE
  8
0
 10
-110.104241
 20
687.094437
 30
0.0
 11
-110.104241
 21
686.294437
 31
0.0
  0
LINE
  8
0
 10
-101.904241
 20
685.494437
 30
0.0
 11
-109.304241
 21
685.494437
 31
0.0
  0
LINE
  8
0
 10
-80.904241
 20
243.264793
 30
0.0
 11
-80.904241
 21
463.494437
 31
0.0
  0
LINE
  8
0
 10
-88.104241
 20
244.777517
 30
0.0
 11
-88.104241
 21
463.494437
 31
0.0
  0
LINE
  8
0
 10
-80.904241
 20
463.494437
 30
0.0
 11
-80.904241
 21
682.924081
 31
0.0
  0
LINE
  8
0
 10
-88.104241
 20
463.494437
 30
0.0
 11
-88.104241
 21
681.411357
 31
0.0
  0
LINE
  8
0
 10
-109.304241
 20
238.294437
 30
0.0
 11
-98.221141
 21
238.294437
 31
0.0
  0
LINE
  8
0
 10
-108.904241
 20
233.094437
 30
0.0
 11
-97.304241
 21
233.094437
 31
0.0
  0
LINE
  8
0
 10
-97.304241
 20
233.094437
 30
0.0
 11
-84.852121
 21
237.626637
 31
0.0
  0
LINE
  8
0
 10
-98.221141
 20
238.294437
 30
0.0
 11
-90.736161
 21
241.018749
 31
0.0
  0
LINE
  8
0
 10
-101.904241
 20
245.894437
 30
0.0
 11
-108.904241
 21
245.894437
 31
0.0
  0
LINE
  8
0
 10
-110.104241
 20
239.894437
 30
0.0
 11
-110.104241
 21
239.094437
 31
0.0
  0
LINE
  8
0
 10
-109.304241
 20
240.694437
 30
0.0
 11
-101.904241
 21
240.694437
 31
0.0
  0
ARC
  8
0
 10
-92.104241
 20
681.411357
 30
0.0
 40
4.0
 50
0.0
 51
70.0
  0
ARC
  8
0
 10
-86.904241
 20
682.924081
 30
0.0
 40
6.0
 50
0.0
 51
70.0
  0
ARC
  8
0
 10
-101.904241
 20
682.894437
 30
0.0
 40
2.6
 50
270.0
 51
0.0
  0
ARC
  8
0
 10
-101.904241
 20
682.894437
 30
0.0
 40
2.6
 50
0.0
 51
90.0
  0
ARC
  8
0
 10
-109.304241
 20
687.094437
 30
0.0
 40
0.8
 50
90.0
 51
180.0
  0
ARC
  8
0
 10
-109.304241
 20
686.294437
 30
0.0
 40
0.8
 50
180.0
 51
270.0
  0
ARC
  8
0
 10
-92.104241
 20
244.777517
 30
0.0
 40
4.0
 50
290.0
 51
0.0
  0
ARC
  8
0
 10
-86.904241
 20
243.264793
 30
0.0
 40
6.0
 50
290.0
 51
0.0
  0
ARC
  8
0
 10
-101.904241
 20
243.294437
 30
0.0
 40
2.6
 50
0.0
 51
90.0
  0
ARC
  8
0
 10
-101.904241
 20
243.294437
 30
0.0
 40
2.6
 50
270.0
 51
0.0
  0
ARC
  8
0
 10
-109.304241
 20
239.094437
 30
0.0
 40
0.8
 50
180.0
 51
270.0
  0
ARC
  8
0
 10
-109.304241
 20
239.894437
 30
0.0
 40
0.8
 50
90.0
 51
180.0
  0
ARC
  8
0
 10
-108.904241
 20
239.494437
 30
0.0
 40
6.4
 50
180.0
 51
270.0
  0
ARC
  8
0
 10
-108.904241
 20
239.494437
 30
0.0
 40
6.4
 50
90.0
 51
180.0
  0
ARC
  8
0
 10
-108.904241
 20
686.694437
 30
0.0
 40
6.4
 50
180.0
 51
270.0
  0
ARC
  8
0
 10
-108.904241
 20
686.694437
 30
0.0
 40
6.4
 50
90.0
 51
180.0
  0
LINE
  8
0
 10
-75.604061
 20
721.550063
 30
0.0
 11
-75.261977
 21
721.207979
 31
0.0
  0
LINE
  8
0
 10
-72.904241
 20
210.963951
 30
0.0
 11
-72.904241
 21
230.654243
 31
0.0
  0
LINE
  8
0
 10
-72.904241
 20
695.846243
 30
0.0
 11
-72.904241
 21
715.536535
 31
0.0
  0
LINE
  8
0
 10
-75.261977
 20
721.207979
 30
0.0
 11
-75.247385
 21
721.193387
 31
0.0
  0
LINE
  8
0
 10
-75.261977
 20
205.292507
 30
0.0
 11
-75.604061
 21
204.950423
 31
0.0
  0
LINE
  8
0
 10
-80.904241
 20
238.650243
 30
0.0
 11
-80.900241
 21
238.650243
 31
0.0
  0
LINE
  8
0
 10
-80.904241
 20
687.850243
 30
0.0
 11
-80.904241
 21
238.650243
 31
0.0
  0
LINE
  8
0
 10
-80.900241
 20
687.850243
 30
0.0
 11
-80.904241
 21
687.850243
 31
0.0
  0
LINE
  8
0
 10
-75.247385
 20
205.307095
 30
0.0
 11
-75.261977
 21
205.292507
 31
0.0
  0
ARC
  8
0
 10
-74.755529
 20
722.398591
 30
0.0
 40
1.2
 50
89.0
 51
225.0
  0
ARC
  8
0
 10
-80.904241
 20
715.536535
 30
0.0
 40
8.0
 50
0.0
 51
45.0
  0
ARC
  8
0
 10
-80.900241
 20
695.846243
 30
0.0
 40
7.996
 50
270.0
 51
0.0
  0
ARC
  8
0
 10
-80.904241
 20
210.963951
 30
0.0
 40
8.0
 50
315.0
 51
0.0
  0
ARC
  8
0
 10
-80.900241
 20
230.654243
 30
0.0
 40
7.996
 50
0.0
 51
90.0
  0
ARC
  8
0
 10
-74.755529
 20
204.101895
 30
0.0
 40
1.2
 50
135.0
 51
271.0
  0
LINE
  8
0
 10
-198.054742
 20
572.431243
 30
0.0
 11
-198.104241
 21
572.430379
 31
0.0
  0
LINE
  8
0
 10
-100.104241
 20
536.13783
 30
0.0
 11
-100.104241
 21
491.534433
 31
0.0
  0
LINE
  8
0
 10
-100.104241
 20
389.534433
 30
0.0
 11
-100.104241
 21
434.13783
 31
0.0
  0
LINE
  8
0
 10
-184.104241
 20
380.836131
 30
0.0
 11
-80.904241
 21
379.935519
 31
0.0
  0
LINE
  8
0
 10
-206.104241
 20
451.220752
 30
0.0
 11
-206.104241
 21
474.451511
 31
0.0
  0
LINE
  8
0
 10
-206.104241
 20
592.427332
 30
0.0
 11
-206.104241
 21
551.220752
 31
0.0
  0
LINE
  8
0
 10
-198.054742
 20
353.24102
 30
0.0
 11
-198.104241
 21
353.241884
 31
0.0
  0
LINE
  8
0
 10
-184.104241
 20
486.836131
 30
0.0
 11
-104.069335
 21
487.534585
 31
0.0
  0
LINE
  8
0
 10
-184.104241
 20
438.836131
 30
0.0
 11
-104.069335
 21
438.137677
 31
0.0
  0
LINE
  8
0
 10
-104.069335
 20
385.534585
 30
0.0
 11
-184.104241
 21
384.836131
 31
0.0
  0
LINE
  8
0
 10
-184.104241
 20
442.836131
 30
0.0
 11
-184.104241
 21
438.836131
 31
0.0
  0
LINE
  8
0
 10
-184.104241
 20
380.836131
 30
0.0
 11
-184.104241
 21
384.836131
 31
0.0
  0
LINE
  8
0
 10
-104.069335
 20
540.137677
 30
0.0
 11
-184.104241
 21
540.836131
 31
0.0
  0
LINE
  8
0
 10
-184.104241
 20
482.836131
 30
0.0
 11
-184.104241
 21
486.836131
 31
0.0
  0
LINE
  8
0
 10
-184.104241
 20
544.836131
 30
0.0
 11
-184.104241
 21
540.836131
 31
0.0
  0
LINE
  8
0
 10
-206.104241
 20
353.379088
 30
0.0
 11
-206.104241
 21
374.451511
 31
0.0
  0
LINE
  8
0
 10
-206.104241
 20
333.24493
 30
0.0
 11
-206.104241
 21
353.379088
 31
0.0
  0
LINE
  8
0
 10
-80.172971
 20
323.185214
 30
0.0
 11
-198.24386
 21
325.246149
 31
0.0
  0
LINE
  8
0
 10
-224.24386
 20
478.698928
 30
0.0
 11
-210.034431
 21
478.450901
 31
0.0
  0
LINE
  8
0
 10
-210.034431
 20
547.221361
 30
0.0
 11
-224.24386
 21
546.973335
 31
0.0
  0
LINE
  8
0
 10
-232.104241
 20
486.69771
 30
0.0
 11
-232.104241
 21
538.974553
 31
0.0
  0
LINE
  8
0
 10
-232.104241
 20
438.974553
 30
0.0
 11
-232.104241
 21
386.69771
 31
0.0
  0
LINE
  8
0
 10
-224.24386
 20
446.973335
 30
0.0
 11
-210.034431
 21
447.221361
 31
0.0
  0
LINE
  8
0
 10
-210.034431
 20
378.450901
 30
0.0
 11
-224.24386
 21
378.698928
 31
0.0
  0
LINE
  8
0
 10
-100.104241
 20
482.103075
 30
0.0
 11
-100.104241
 21
443.569188
 31
0.0
  0
LINE
  8
0
 10
-100.104241
 20
482.103075
 30
0.0
 11
-104.104241
 21
482.137982
 31
0.0
  0
LINE
  8
0
 10
-100.104241
 20
443.569188
 30
0.0
 11
-104.104241
 21
443.534281
 31
0.0
  0
LINE
  8
0
 10
-104.104241
 20
443.534281
 30
0.0
 11
-104.104241
 21
482.137982
 31
0.0
  0
LINE
  8
0
 10
-104.104241
 20
482.137982
 30
0.0
 11
-184.104241
 21
482.836131
 31
0.0
  0
LINE
  8
0
 10
-104.104241
 20
443.534281
 30
0.0
 11
-184.104241
 21
442.836131
 31
0.0
  0
LINE
  8
0
 10
-184.104241
 20
442.836131
 30
0.0
 11
-206.104241
 21
442.836131
 31
0.0
  0
LINE
  8
0
 10
-206.104241
 20
442.836131
 30
0.0
 11
-206.104241
 21
451.220752
 31
0.0
  0
LINE
  8
0
 10
-206.104241
 20
474.451511
 30
0.0
 11
-206.104241
 21
482.836131
 31
0.0
  0
LINE
  8
0
 10
-206.104241
 20
482.836131
 30
0.0
 11
-184.104241
 21
482.836131
 31
0.0
  0
LINE
  8
0
 10
-184.104241
 20
544.836131
 30
0.0
 11
-206.104241
 21
544.836131
 31
0.0
  0
LINE
  8
0
 10
-206.104241
 20
544.836131
 30
0.0
 11
-206.104241
 21
551.220752
 31
0.0
  0
LINE
  8
0
 10
-184.104241
 20
380.836131
 30
0.0
 11
-206.104241
 21
380.793532
 31
0.0
  0
LINE
  8
0
 10
-206.104241
 20
380.793532
 30
0.0
 11
-206.104241
 21
374.451511
 31
0.0
  0
LINE
  8
0
 10
-80.904241
 20
443.736744
 30
0.0
 11
-100.104241
 21
443.569188
 31
0.0
  0
LINE
  8
0
 10
-80.904241
 20
481.935519
 30
0.0
 11
-100.104241
 21
482.103075
 31
0.0
  0
LINE
  8
0
 10
-80.904241
 20
545.736744
 30
0.0
 11
-184.104241
 21
544.836131
 31
0.0
  0
LINE
  8
0
 10
-80.904241
 20
602.474285
 30
0.0
 11
-198.24386
 21
600.426114
 31
0.0
  0
ARC
  8
0
 10
-104.104241
 20
389.534433
 30
0.0
 40
4.0
 50
270.5
 51
0.0
  0
ARC
  8
0
 10
-104.104241
 20
434.13783
 30
0.0
 40
4.0
 50
0.0
 51
89.5
  0
ARC
  8
0
 10
-104.104241
 20
491.534433
 30
0.0
 40
4.0
 50
270.5
 51
0.0
  0
ARC
  8
0
 10
-104.104241
 20
536.13783
 30
0.0
 40
4.0
 50
0.0
 51
89.5
  0
ARC
  8
0
 10
-198.104241
 20
333.24493
 30
0.0
 40
8.0
 50
180.0
 51
269.0
  0
ARC
  8
0
 10
-224.104241
 20
386.69771
 30
0.0
 40
8.0
 50
180.0
 51
269.0
  0
ARC
  8
0
 10
-224.104241
 20
438.974553
 30
0.0
 40
8.0
 50
91.0
 51
180.0
  0
ARC
  8
0
 10
-224.104241
 20
486.69771
 30
0.0
 40
8.0
 50
180.0
 51
269.0
  0
ARC
  8
0
 10
-224.104241
 20
538.974553
 30
0.0
 40
8.0
 50
91.0
 51
180.0
  0
ARC
  8
0
 10
-198.104241
 20
592.427332
 30
0.0
 40
8.0
 50
91.0
 51
180.0
  0
ARC
  8
0
 10
-210.104241
 20
474.451511
 30
0.0
 40
4.0
 50
0.0
 51
89.0
  0
ARC
  8
0
 10
-210.104241
 20
451.220752
 30
0.0
 40
4.0
 50
271.0
 51
0.0
  0
ARC
  8
0
 10
-210.104241
 20
551.220752
 30
0.0
 40
4.0
 50
271.0
 51
0.0
  0
ARC
  8
0
 10
-210.104241
 20
374.451511
 30
0.0
 40
4.0
 50
0.0
 51
89.0
  0
LINE
  8
0
 10
-82.904241
 20
123.094437
 30
0.0
 11
-82.904241
 21
203.094437
 31
0.0
  0
LINE
  8
0
 10
-82.904241
 20
803.094437
 30
0.0
 11
-82.904241
 21
723.094437
 31
0.0
  0
LINE
  8
0
 10
-48.104241
 20
719.202783
 30
0.0
 11
-48.104241
 21
719.042807
 31
0.0
  0
LINE
  8
0
 10
-48.104241
 20
719.042807
 30
0.0
 11
-48.104241
 21
706.714167
 31
0.0
  0
LINE
  8
0
 10
-48.104241
 20
706.714167
 30
0.0
 11
-48.104241
 21
683.203551
 31
0.0
  0
LINE
  8
0
 10
-48.104241
 20
683.203551
 30
0.0
 11
-48.104241
 21
661.132935
 31
0.0
  0
LINE
  8
0
 10
-48.104241
 20
661.132935
 30
0.0
 11
-48.104241
 21
640.395655
 31
0.0
  0
LINE
  8
0
 10
-48.104241
 20
640.395655
 30
0.0
 11
-48.104241
 21
620.885039
 31
0.0
  0
LINE
  8
0
 10
-48.104241
 20
620.885039
 30
0.0
 11
-48.104241
 21
602.494423
 31
0.0
  0
LINE
  8
0
 10
-48.104241
 20
602.494423
 30
0.0
 11
-48.104241
 21
585.117139
 31
0.0
  0
LINE
  8
0
 10
-48.104241
 20
585.117139
 30
0.0
 11
-48.104241
 21
568.646523
 31
0.0
  0
LINE
  8
0
 10
-48.104241
 20
568.646523
 30
0.0
 11
-48.104241
 21
552.975911
 31
0.0
  0
LINE
  8
0
 10
-48.104241
 20
552.975911
 30
0.0
 11
-48.104241
 21
537.998627
 31
0.0
  0
LINE
  8
0
 10
-48.104241
 20
537.998627
 30
0.0
 11
-48.104241
 21
523.608011
 31
0.0
  0
LINE
  8
0
 10
-48.104241
 20
523.608011
 30
0.0
 11
-48.104241
 21
509.697395
 31
0.0
  0
LINE
  8
0
 10
-48.104241
 20
509.697395
 30
0.0
 11
-48.104241
 21
496.160115
 31
0.0
  0
LINE
  8
0
 10
-48.104241
 20
496.160115
 30
0.0
 11
-48.104241
 21
482.889499
 31
0.0
  0
LINE
  8
0
 10
-48.104241
 20
482.889499
 30
0.0
 11
-48.104241
 21
469.778883
 31
0.0
  0
LINE
  8
0
 10
-48.104241
 20
469.778883
 30
0.0
 11
-48.104241
 21
456.721599
 31
0.0
  0
LINE
  8
0
 10
-48.104241
 20
456.721599
 30
0.0
 11
-48.104241
 21
443.610987
 31
0.0
  0
LINE
  8
0
 10
-48.104241
 20
443.610987
 30
0.0
 11
-48.104241
 21
430.340371
 31
0.0
  0
LINE
  8
0
 10
-48.104241
 20
430.340371
 30
0.0
 11
-48.104241
 21
416.803087
 31
0.0
  0
LINE
  8
0
 10
-48.104241
 20
416.803087
 30
0.0
 11
-48.104241
 21
402.892471
 31
0.0
  0
LINE
  8
0
 10
-48.104241
 20
402.892471
 30
0.0
 11
-48.104241
 21
388.501855
 31
0.0
  0
LINE
  8
0
 10
-48.104241
 20
388.501855
 30
0.0
 11
-48.104241
 21
373.524575
 31
0.0
  0
LINE
  8
0
 10
-48.104241
 20
373.524575
 30
0.0
 11
-48.104241
 21
357.853959
 31
0.0
  0
LINE
  8
0
 10
-48.104241
 20
357.853959
 30
0.0
 11
-48.104241
 21
341.383343
 31
0.0
  0
LINE
  8
0
 10
-48.104241
 20
341.383343
 30
0.0
 11
-48.104241
 21
324.006063
 31
0.0
  0
LINE
  8
0
 10
-48.104241
 20
324.006063
 30
0.0
 11
-48.104241
 21
305.615447
 31
0.0
  0
LINE
  8
0
 10
-48.104241
 20
305.615447
 30
0.0
 11
-48.104241
 21
286.104831
 31
0.0
  0
LINE
  8
0
 10
-48.104241
 20
286.104831
 30
0.0
 11
-48.104241
 21
265.367547
 31
0.0
  0
LINE
  8
0
 10
-48.104241
 20
265.367547
 30
0.0
 11
-48.104241
 21
243.296935
 31
0.0
  0
LINE
  8
0
 10
-48.104241
 20
243.296935
 30
0.0
 11
-48.104241
 21
219.786319
 31
0.0
  0
LINE
  8
0
 10
-48.104241
 20
219.786319
 30
0.0
 11
-48.104241
 21
207.457675
 31
0.0
  0
LINE
  8
0
 10
-48.104241
 20
207.457675
 30
0.0
 11
-48.104241
 21
207.297699
 31
0.0
  0
ARC
  8
0
 10
-52.434389
 20
207.622225
 30
0.0
 40
4.404697
 50
313.196876
 51
315.499172
  0
ARC
  8
0
 10
-52.426649
 20
207.613759
 30
0.0
 40
4.393228
 50
310.89108
 51
313.198876
  0
ARC
  8
0
 10
-52.411878
 20
207.596785
 30
0.0
 40
4.370727
 50
308.57179
 51
310.890357
  0
ARC
  8
0
 10
-52.391047
 20
207.57053
 30
0.0
 40
4.337212
 50
306.238059
 51
308.572896
  0
ARC
  8
0
 10
-52.365739
 20
207.535921
 30
0.0
 40
4.294337
 50
303.882527
 51
306.238676
  0
ARC
  8
0
 10
-52.023602
 20
207.007826
 30
0.0
 40
3.665197
 50
301.663552
 51
304.044679
  0
LINE
  8
0
 10
-52.034429
 20
203.298311
 30
0.0
 11
-62.946101
 21
203.107847
 31
0.0
  0
LINE
  8
0
 10
-62.946101
 20
203.107847
 30
0.0
 11
-74.734589
 21
202.902079
 31
0.0
  0
LINE
  8
0
 10
-51.600897
 20
203.332847
 30
0.0
 11
-51.551205
 21
203.340259
 31
0.0
  0
ARC
  8
0
 10
-52.108127
 20
206.904552
 30
0.0
 40
3.607541
 50
278.880682
 51
280.473708
  0
LINE
  8
0
 10
-51.452333
 20
203.357119
 30
0.0
 11
-51.400973
 21
203.366999
 31
0.0
  0
ARC
  8
0
 10
-52.118755
 20
206.960009
 30
0.0
 40
3.664005
 50
281.297351
 51
282.930482
  0
LINE
  8
0
 10
-51.298865
 20
203.388915
 30
0.0
 11
-51.246109
 21
203.401435
 31
0.0
  0
ARC
  8
0
 10
-52.133629
 20
207.022167
 30
0.0
 40
3.727921
 50
283.772875
 51
285.437174
  0
LINE
  8
0
 10
-51.141325
 20
203.428739
 30
0.0
 11
-51.087449
 21
203.444047
 31
0.0
  0
ARC
  8
0
 10
-52.152752
 20
207.090013
 30
0.0
 40
3.798413
 50
286.287658
 51
287.975332
  0
LINE
  8
0
 10
-50.980533
 20
203.477003
 30
0.0
 11
-50.926025
 21
203.495139
 31
0.0
  0
ARC
  8
0
 10
-52.176148
 20
207.160506
 30
0.0
 40
3.872689
 50
288.832637
 51
290.530624
  0
LINE
  8
0
 10
-50.817965
 20
203.533791
 30
0.0
 11
-50.769997
 21
203.552111
 31
0.0
  0
ARC
  8
0
 10
-52.201165
 20
207.226132
 30
0.0
 40
3.942927
 50
291.282768
 51
292.773812
  0
LINE
  8
0
 10
-50.674881
 20
203.590595
 30
0.0
 11
-50.626657
 21
203.611215
 31
0.0
  0
ARC
  8
0
 10
-52.227978
 20
207.288967
 30
0.0
 40
4.011245
 50
293.528678
 51
295.02591
  0
LINE
  8
0
 10
-50.531109
 20
203.654311
 30
0.0
 11
-50.482769
 21
203.677267
 31
0.0
  0
ARC
  8
0
 10
-52.256715
 20
207.349469
 30
0.0
 40
4.078229
 50
295.783979
 51
297.286711
  0
LINE
  8
0
 10
-50.387077
 20
203.725051
 30
0.0
 11
-50.338757
 21
203.750379
 31
0.0
  0
ARC
  8
0
 10
-52.286939
 20
207.407189
 30
0.0
 40
4.143389
 50
298.046664
 51
299.554667
  0
LINE
  8
0
 10
-50.243197
 20
203.802915
 30
0.0
 11
-50.195033
 21
203.830647
 31
0.0
  0
ARC
  8
0
 10
-52.317509
 20
207.460282
 30
0.0
 40
4.204659
 50
300.317509
 51
301.83147
  0
LINE
  8
0
 10
-52.034105
 20
203.298403
 30
0.0
 11
-52.000513
 21
203.299135
 31
0.0
  0
ARC
  8
0
 10
-52.093168
 20
206.762688
 30
0.0
 40
3.464792
 50
271.532371
 51
272.642067
  0
ARC
  8
0
 10
-52.093723
 20
206.779563
 30
0.0
 40
3.481675
 50
272.638401
 51
273.740993
  0
ARC
  8
0
 10
-52.095118
 20
206.797061
 30
0.0
 40
3.499227
 50
273.745082
 51
274.840569
  0
ARC
  8
0
 10
-52.096397
 20
206.815895
 30
0.0
 40
3.518102
 50
274.835441
 51
275.923594
  0
ARC
  8
0
 10
-52.098668
 20
206.836695
 30
0.0
 40
3.539025
 50
275.925409
 51
277.006
  0
ARC
  8
0
 10
-52.101261
 20
206.858081
 30
0.0
 40
3.560568
 50
277.005437
 51
278.078464
  0
LINE
  8
0
 10
-50.099877
 20
203.887991
 30
0.0
 11
-50.099865
 21
203.887999
 31
0.0
  0
ARC
  8
0
 10
-50.100419
 20
203.88892
 30
0.0
 40
0.001075
 50
300.999868
 51
303.010898
  0
ARC
  8
0
 10
-50.100392
 20
203.888831
 30
0.0
 40
0.000986
 50
304.537548
 51
306.537807
  0
ARC
  8
0
 10
-50.100484
 20
203.888859
 30
0.0
 40
0.001065
 50
309.608957
 51
311.593633
  0
ARC
  8
0
 10
-50.100348
 20
203.888773
 30
0.0
 40
0.000911
 50
308.823431
 51
310.787711
  0
ARC
  8
0
 10
-50.100448
 20
203.888922
 30
0.0
 40
0.001089
 50
309.631413
 51
311.571173
  0
ARC
  8
0
 10
-50.100433
 20
203.888838
 30
0.0
 40
0.001018
 50
314.044444
 51
315.955558
  0
ARC
  8
0
 10
-50.100421
 20
203.888875
 30
0.0
 40
0.001035
 50
314.0606
 51
315.939401
  0
ARC
  8
0
 10
-50.100535
 20
203.888915
 30
0.0
 40
0.001146
 50
318.477066
 51
320.320346
  0
ARC
  8
0
 10
-50.10053
 20
203.888958
 30
0.0
 40
0.001171
 50
318.496201
 51
320.30121
  0
LINE
  8
0
 10
-52.034389
 20
203.298311
 30
0.0
 11
-52.034429
 21
203.298311
 31
0.0
  0
ARC
  8
0
 10
-52.098272
 20
206.847037
 30
0.0
 40
3.549301
 50
271.0313
 51
273.837736
  0
ARC
  8
0
 10
-52.034615
 20
203.299142
 30
0.0
 40
0.000898
 50
302.77026
 51
304.609873
  0
ARC
  8
0
 10
-52.034503
 20
203.299105
 30
0.0
 40
0.00081
 50
295.616025
 51
297.514076
  0
ARC
  8
0
 10
-52.0344
 20
203.299074
 30
0.0
 40
0.000742
 50
287.457507
 51
289.412391
  0
ARC
  8
0
 10
-52.034533
 20
203.299159
 30
0.0
 40
0.000869
 50
292.193878
 51
294.203304
  0
ARC
  8
0
 10
-52.034439
 20
203.299018
 30
0.0
 40
0.000703
 50
287.40434
 51
289.465557
  0
ARC
  8
0
 10
-52.034458
 20
203.298994
 30
0.0
 40
0.000687
 50
287.380163
 51
289.489734
  0
ARC
  8
0
 10
-52.034478
 20
203.298973
 30
0.0
 40
0.000673
 50
287.358049
 51
289.511849
  0
ARC
  8
0
 10
-52.034396
 20
203.29906
 30
0.0
 40
0.000739
 50
277.033609
 51
279.226595
  0
ARC
  8
0
 10
-52.034523
 20
203.29894
 30
0.0
 40
0.000651
 50
287.321613
 51
289.548286
  0
ARC
  8
0
 10
-52.034443
 20
203.298927
 30
0.0
 40
0.000618
 50
278.335121
 51
280.589523
  0
ARC
  8
0
 10
-52.034367
 20
203.29902
 30
0.0
 40
0.000705
 50
268.862258
 51
271.137742
  0
ARC
  8
0
 10
-52.034493
 20
203.298913
 30
0.0
 40
0.000609
 50
278.317476
 51
280.607168
  0
ARC
  8
0
 10
-52.034417
 20
203.298909
 30
0.0
 40
0.000599
 50
268.851716
 51
271.148284
  0
LINE
  8
0
 10
-48.106969
 20
207.160107
 30
0.0
 11
-48.106169
 21
207.182735
 31
0.0
  0
ARC
  8
0
 10
-51.583026
 20
207.294459
 30
0.0
 40
3.478652
 50
358.159506
 51
359.053545
  0
ARC
  8
0
 10
-51.572028
 20
207.294031
 30
0.0
 40
3.467648
 50
359.057619
 51
359.955783
  0
LINE
  8
0
 10
-49.065813
 20
204.784279
 30
0.0
 11
-49.065845
 21
204.784231
 31
0.0
  0
ARC
  8
0
 10
-49.072351
 20
204.788767
 30
0.0
 40
0.007932
 50
324.263883
 51
325.11369
  0
ARC
  8
0
 10
-49.072397
 20
204.788856
 30
0.0
 40
0.00802
 50
323.122134
 51
323.939398
  0
ARC
  8
0
 10
-49.073012
 20
204.789241
 30
0.0
 40
0.008744
 50
322.73694
 51
323.523264
  0
ARC
  8
0
 10
-49.073658
 20
204.789647
 30
0.0
 40
0.009504
 50
322.386557
 51
323.143775
  0
ARC
  8
0
 10
-49.073705
 20
204.789766
 30
0.0
 40
0.009614
 50
321.267656
 51
321.997373
  0
ARC
  8
0
 10
-49.074386
 20
204.790213
 30
0.0
 40
0.010425
 50
320.988282
 51
321.692102
  0
ARC
  8
0
 10
-49.074764
 20
204.790688
 30
0.0
 40
0.011019
 50
319.630207
 51
320.309274
  0
LINE
  8
0
 10
-49.824489
 20
204.689635
 30
0.0
 11
-49.828781
 21
204.691651
 31
0.0
  0
LINE
  8
0
 10
-49.125545
 20
204.714843
 30
0.0
 11
-49.139325
 21
204.699239
 31
0.0
  0
ARC
  8
0
 10
-52.430866
 20
207.618767
 30
0.0
 40
4.39976
 50
317.451562
 51
318.427647
  0
ARC
  8
0
 10
-52.434095
 20
207.622018
 30
0.0
 40
4.404337
 50
316.473641
 51
317.448809
  0
ARC
  8
0
 10
-52.435974
 20
207.623393
 30
0.0
 40
4.406646
 50
315.50279
 51
316.4775
  0
LINE
  8
0
 10
-49.065813
 20
204.784279
 30
0.0
 11
-49.090073
 21
204.755723
 31
0.0
  0
ARC
  8
0
 10
-51.504014
 20
206.814495
 30
0.0
 40
3.172641
 50
318.562755
 51
319.540215
  0
LINE
  8
0
 10
-48.134217
 20
206.838079
 30
0.0
 11
-48.128577
 21
206.883603
 31
0.0
  0
LINE
  8
0
 10
-48.128577
 20
206.883603
 30
0.0
 11
-48.123521
 21
206.929163
 31
0.0
  0
ARC
  8
0
 10
-51.642281
 20
207.297438
 30
0.0
 40
3.537979
 50
354.02514
 51
355.496475
  0
LINE
  8
0
 10
-48.115149
 20
207.020583
 30
0.0
 11
-48.115225
 21
207.019635
 31
0.0
  0
LINE
  8
0
 10
-49.126081
 20
204.714199
 30
0.0
 11
-49.102317
 21
204.741435
 31
0.0
  0
LINE
  8
0
 10
-49.102317
 20
204.741435
 30
0.0
 11
-49.078757
 21
204.768891
 31
0.0
  0
ARC
  8
0
 10
-52.472947
 20
207.657817
 30
0.0
 40
4.457177
 50
319.59761
 51
320.571174
  0
LINE
  8
0
 10
-49.030161
 20
204.826979
 30
0.0
 11
-48.994817
 21
204.870515
 31
0.0
  0
LINE
  8
0
 10
-48.994817
 20
204.870515
 30
0.0
 11
-48.960029
 21
204.914495
 31
0.0
  0
ARC
  8
0
 10
-52.427265
 20
207.621452
 30
0.0
 40
4.398789
 50
322.019955
 51
322.960517
  0
LINE
  8
0
 10
-48.916061
 20
204.971775
 30
0.0
 11
-48.880153
 21
205.020043
 31
0.0
  0
LINE
  8
0
 10
-48.880153
 20
205.020043
 30
0.0
 11
-48.844937
 21
205.068771
 31
0.0
  0
ARC
  8
0
 10
-52.346023
 20
207.562566
 30
0.0
 40
4.298444
 50
324.538033
 51
326.663187
  0
LINE
  8
0
 10
-48.754869
 20
205.200315
 30
0.0
 11
-48.711733
 21
205.267247
 31
0.0
  0
ARC
  8
0
 10
-52.266027
 20
207.511109
 30
0.0
 40
4.203323
 50
327.735361
 51
329.75212
  0
LINE
  8
0
 10
-48.634969
 20
205.393719
 30
0.0
 11
-48.598309
 21
205.457903
 31
0.0
  0
ARC
  8
0
 10
-52.190543
 20
207.467978
 30
0.0
 40
4.116376
 50
330.77031
 51
332.635361
  0
LINE
  8
0
 10
-48.534793
 20
205.575879
 30
0.0
 11
-48.496189
 21
205.652439
 31
0.0
  0
ARC
  8
0
 10
-52.103151
 20
207.424167
 30
0.0
 40
4.018606
 50
333.839872
 51
336.282642
  0
LINE
  8
0
 10
-48.423953
 20
205.807783
 30
0.0
 11
-48.389557
 21
205.888499
 31
0.0
  0
ARC
  8
0
 10
-52.00502
 20
207.382379
 30
0.0
 40
3.911937
 50
337.549986
 51
340.117188
  0
LINE
  8
0
 10
-48.326273
 20
206.051939
 30
0.0
 11
-48.298233
 21
206.132239
 31
0.0
  0
ARC
  8
0
 10
-51.909131
 20
207.349009
 30
0.0
 40
3.810396
 50
341.377634
 51
343.931545
  0
LINE
  8
0
 10
-48.247601
 20
206.294347
 30
0.0
 11
-48.225477
 21
206.374499
 31
0.0
  0
ARC
  8
0
 10
-51.822406
 20
207.325057
 30
0.0
 40
3.720411
 50
345.196898
 51
347.752871
  0
LINE
  8
0
 10
-48.186665
 20
206.535851
 30
0.0
 11
-48.174105
 21
206.596151
 31
0.0
  0
LINE
  8
0
 10
-48.174105
 20
206.596151
 30
0.0
 11
-48.162573
 21
206.656583
 31
0.0
  0
ARC
  8
0
 10
-51.742256
 20
207.308919
 30
0.0
 40
3.638636
 50
349.672152
 51
351.601829
  0
LINE
  8
0
 10
-48.142637
 20
206.777491
 30
0.0
 11
-48.134217
 21
206.838079
 31
0.0
  0
ARC
  8
0
 10
-51.621902
 20
207.296311
 30
0.0
 40
3.517577
 50
355.504208
 51
356.384955
  0
ARC
  8
0
 10
-51.608092
 20
207.295435
 30
0.0
 40
3.503739
 50
356.385019
 51
357.270349
  0
ARC
  8
0
 10
-50.13932
 20
207.231968
 30
0.0
 40
2.033621
 50
357.085706
 51
357.974932
  0
ARC
  8
0
 10
-48.247933
 20
207.297636
 30
0.0
 40
0.143692
 50
359.394886
 51
0.024909
  0
ARC
  8
0
 10
-48.249103
 20
207.297521
 30
0.0
 40
0.14486
 50
358.818656
 51
359.445241
  0
ARC
  8
0
 10
-48.250304
 20
207.297786
 30
0.0
 40
0.146067
 50
358.101292
 51
358.724439
  0
ARC
  8
0
 10
-48.251592
 20
207.29807
 30
0.0
 40
0.147364
 50
357.388151
 51
358.007632
  0
ARC
  8
0
 10
-49.134493
 20
204.721687
 30
0.0
 40
0.011265
 50
322.022948
 51
322.58857
  0
ARC
  8
0
 10
-49.134877
 20
204.722261
 30
0.0
 40
0.011923
 50
320.437408
 51
320.983779
  0
ARC
  8
0
 10
-49.135697
 20
204.72286
 30
0.0
 40
0.012937
 50
320.176084
 51
320.704579
  0
ARC
  8
0
 10
-49.136104
 20
204.723041
 30
0.0
 40
0.013366
 50
320.184564
 51
320.6961
  0
ARC
  8
0
 10
-49.136515
 20
204.723687
 30
0.0
 40
0.014098
 50
318.743166
 51
319.238659
  0
ARC
  8
0
 10
-49.137402
 20
204.72388
 30
0.0
 40
0.014898
 50
319.954131
 51
320.434727
  0
ARC
  8
0
 10
-49.137833
 20
204.724566
 30
0.0
 40
0.015671
 50
318.580881
 51
319.047268
  0
LINE
  8
0
 10
-74.734589
 20
723.598407
 30
0.0
 11
-62.946101
 21
723.392639
 31
0.0
  0
LINE
  8
0
 10
-62.946101
 20
723.392639
 30
0.0
 11
-52.034429
 21
723.202175
 31
0.0
  0
LINE
  8
0
 10
-50.099877
 20
722.612495
 30
0.0
 11
-50.147261
 21
722.641475
 31
0.0
  0
ARC
  8
0
 10
-52.307821
 20
719.056545
 30
0.0
 40
4.185658
 50
58.923538
 51
60.444833
  0
LINE
  8
0
 10
-50.243197
 20
722.697571
 30
0.0
 11
-50.290797
 21
722.724147
 31
0.0
  0
ARC
  8
0
 10
-52.277174
 20
719.11125
 30
0.0
 40
4.12295
 50
61.197925
 51
62.713949
  0
LINE
  8
0
 10
-50.387077
 20
722.775435
 30
0.0
 11
-50.434757
 21
722.799635
 31
0.0
  0
ARC
  8
0
 10
-52.247607
 20
719.169492
 30
0.0
 40
4.05763
 50
63.46301
 51
64.973992
  0
LINE
  8
0
 10
-50.531109
 20
722.846175
 30
0.0
 11
-50.578733
 21
722.868031
 31
0.0
  0
ARC
  8
0
 10
-52.219432
 20
719.230517
 30
0.0
 40
3.990414
 50
65.722261
 51
67.227973
  0
LINE
  8
0
 10
-50.674881
 20
722.909887
 30
0.0
 11
-50.722301
 21
722.929435
 31
0.0
  0
ARC
  8
0
 10
-52.193731
 20
719.293017
 30
0.0
 40
3.922836
 50
67.969911
 51
69.469435
  0
LINE
  8
0
 10
-50.817965
 20
722.966695
 30
0.0
 11
-50.871833
 21
722.986415
 31
0.0
  0
ARC
  8
0
 10
-52.168839
 20
719.360924
 30
0.0
 40
3.850507
 50
70.315516
 51
72.024503
  0
LINE
  8
0
 10
-50.980533
 20
723.023483
 30
0.0
 11
-51.033849
 21
723.040347
 31
0.0
  0
ARC
  8
0
 10
-52.146765
 20
719.430689
 30
0.0
 40
3.777328
 50
72.864619
 51
74.563064
  0
LINE
  8
0
 10
-51.141325
 20
723.071747
 30
0.0
 11
-51.193593
 21
723.085771
 31
0.0
  0
ARC
  8
0
 10
-52.129002
 20
719.496123
 30
0.0
 40
3.709523
 50
75.394384
 51
77.068537
  0
LINE
  8
0
 10
-51.298865
 20
723.111567
 30
0.0
 11
-51.349813
 21
723.122883
 31
0.0
  0
ARC
  8
0
 10
-52.115621
 20
719.556195
 30
0.0
 40
3.647975
 50
77.881931
 51
79.524
  0
LINE
  8
0
 10
-51.452333
 20
723.143363
 30
0.0
 11
-51.501685
 21
723.152135
 31
0.0
  0
ARC
  8
0
 10
-52.106183
 20
719.608146
 30
0.0
 40
3.595174
 50
80.320218
 51
81.920578
  0
LINE
  8
0
 10
-52.034105
 20
723.202083
 30
0.0
 11
-52.034429
 21
723.202175
 31
0.0
  0
LINE
  8
0
 10
-50.099629
 20
722.612275
 30
0.0
 11
-50.099641
 21
722.612287
 31
0.0
  0
ARC
  8
0
 10
-50.100528
 20
722.611551
 30
0.0
 40
0.001153
 50
39.684696
 51
41.517893
  0
ARC
  8
0
 10
-50.100413
 20
722.611591
 30
0.0
 40
0.00104
 50
44.065298
 51
45.934703
  0
ARC
  8
0
 10
-50.100424
 20
722.611628
 30
0.0
 40
0.001022
 50
44.048684
 51
45.951319
  0
ARC
  8
0
 10
-50.100437
 20
722.611663
 30
0.0
 40
0.001007
 50
44.033901
 51
45.966098
  0
ARC
  8
0
 10
-50.100453
 20
722.611579
 30
0.0
 40
0.001079
 50
48.419773
 51
50.377636
  0
ARC
  8
0
 10
-50.100474
 20
722.611612
 30
0.0
 40
0.001068
 50
48.409118
 51
50.388294
  0
ARC
  8
0
 10
-50.100381
 20
722.611641
 30
0.0
 40
0.000988
 50
53.464255
 51
55.46039
  0
ARC
  8
0
 10
-50.100406
 20
722.611666
 30
0.0
 40
0.000982
 50
53.458297
 51
55.466348
  0
ARC
  8
0
 10
-50.100432
 20
722.611689
 30
0.0
 40
0.000978
 50
53.454744
 51
55.469899
  0
LINE
  8
0
 10
-49.292781
 20
721.965595
 30
0.0
 11
-49.292869
 21
721.965683
 31
0.0
  0
LINE
  8
0
 10
-50.099629
 20
722.612275
 30
0.0
 11
-50.048173
 21
722.579823
 31
0.0
  0
ARC
  8
0
 10
-52.347512
 20
718.991474
 30
0.0
 40
4.261832
 50
55.712529
 51
57.349098
  0
ARC
  8
0
 10
-52.367045
 20
718.96261
 30
0.0
 40
4.296683
 50
54.089725
 51
55.714148
  0
ARC
  8
0
 10
-52.384809
 20
718.93826
 30
0.0
 40
4.326823
 50
52.47422
 51
54.08833
  0
ARC
  8
0
 10
-52.400509
 20
718.917851
 30
0.0
 40
4.352574
 50
50.868553
 51
52.473954
  0
ARC
  8
0
 10
-52.413819
 20
718.901409
 30
0.0
 40
4.373727
 50
49.270933
 51
50.86923
  0
ARC
  8
0
 10
-52.424439
 20
718.889246
 30
0.0
 40
4.389874
 50
47.676455
 51
49.269482
  0
ARC
  8
0
 10
-52.431317
 20
718.881417
 30
0.0
 40
4.400293
 50
46.089282
 51
47.678871
  0
ARC
  8
0
 10
-52.432194
 20
718.880702
 30
0.0
 40
4.401417
 50
44.499767
 51
46.087522
  0
LINE
  8
0
 10
-49.066369
 20
721.716931
 30
0.0
 11
-49.066325
 21
721.716883
 31
0.0
  0
ARC
  8
0
 10
-49.074495
 20
721.710265
 30
0.0
 40
0.010514
 50
38.310878
 51
39.008738
  0
ARC
  8
0
 10
-49.074124
 20
721.710398
 30
0.0
 40
0.010141
 50
38.298044
 51
39.021572
  0
ARC
  8
0
 10
-49.073453
 20
721.710835
 30
0.0
 40
0.009344
 50
37.992085
 51
38.742886
  0
ARC
  8
0
 10
-49.07311
 20
721.711246
 30
0.0
 40
0.008821
 50
36.480173
 51
37.259622
  0
ARC
  8
0
 10
-49.072774
 20
721.711348
 30
0.0
 40
0.008491
 50
36.465047
 51
37.274748
  0
ARC
  8
0
 10
-49.072443
 20
721.71172
 30
0.0
 40
0.008005
 50
34.890206
 51
35.732221
  0
ARC
  8
0
 10
-49.071863
 20
721.712066
 30
0.0
 40
0.007331
 50
34.386522
 51
35.262456
  0
ARC
  8
0
 10
-51.810367
 20
719.181617
 30
0.0
 40
3.707452
 50
7.451156
 51
9.255019
  0
LINE
  8
0
 10
-48.151177
 20
719.777883
 30
0.0
 11
-48.161301
 21
719.836823
 31
0.0
  0
ARC
  8
0
 10
-51.775501
 20
719.185289
 30
0.0
 40
3.672457
 50
10.218979
 51
12.089759
  0
LINE
  8
0
 10
-48.184497
 20
719.954463
 30
0.0
 11
-48.202309
 21
720.033403
 31
0.0
  0
ARC
  8
0
 10
-51.846671
 20
719.16889
 30
0.0
 40
3.745498
 50
13.344987
 51
15.826256
  0
LINE
  8
0
 10
-48.243153
 20
720.190367
 30
0.0
 11
-48.266477
 21
720.269355
 31
0.0
  0
ARC
  8
0
 10
-51.933895
 20
719.142825
 30
0.0
 40
3.836538
 50
17.075516
 51
19.539598
  0
LINE
  8
0
 10
-48.318301
 20
720.425987
 30
0.0
 11
-48.346781
 21
720.503619
 31
0.0
  0
ARC
  8
0
 10
-52.027473
 20
719.108232
 30
0.0
 40
3.936317
 50
20.762208
 51
23.172667
  0
LINE
  8
0
 10
-48.408725
 20
720.657187
 30
0.0
 11
-48.442189
 21
720.733183
 31
0.0
  0
ARC
  8
0
 10
-52.1236
 20
719.065747
 30
0.0
 40
4.041427
 50
24.367379
 51
26.724215
  0
LINE
  8
0
 10
-48.513873
 20
720.883163
 30
0.0
 11
-48.552149
 21
720.957307
 31
0.0
  0
ARC
  8
0
 10
-52.220972
 20
719.015392
 30
0.0
 40
4.151059
 50
27.89235
 51
30.197396
  0
LINE
  8
0
 10
-48.633221
 20
721.103295
 30
0.0
 11
-48.675825
 21
721.174871
 31
0.0
  0
ARC
  8
0
 10
-52.315094
 20
718.959341
 30
0.0
 40
4.260616
 50
31.332396
 51
33.573277
  0
LINE
  8
0
 10
-48.765237
 20
721.315475
 30
0.0
 11
-48.812409
 21
721.385071
 31
0.0
  0
ARC
  8
0
 10
-52.396444
 20
718.904336
 30
0.0
 40
4.358824
 50
34.689528
 51
36.898556
  0
LINE
  8
0
 10
-48.910693
 20
721.521375
 30
0.0
 11
-48.961401
 21
721.587603
 31
0.0
  0
ARC
  8
0
 10
-52.444759
 20
718.867626
 30
0.0
 40
4.419509
 50
37.984461
 51
40.143989
  0
LINE
  8
0
 10
-48.115225
 20
719.480847
 30
0.0
 11
-48.119053
 21
719.525751
 31
0.0
  0
LINE
  8
0
 10
-48.119053
 20
719.525751
 30
0.0
 11
-48.123449
 21
719.570627
 31
0.0
  0
ARC
  8
0
 10
-51.700411
 20
719.197358
 30
0.0
 40
3.596385
 50
5.957464
 51
7.387319
  0
LINE
  8
0
 10
-48.133877
 20
719.659767
 30
0.0
 11
-48.134221
 21
719.662403
 31
0.0
  0
LINE
  8
0
 10
-49.065813
 20
721.716207
 30
0.0
 11
-49.090073
 21
721.744759
 31
0.0
  0
ARC
  8
0
 10
-51.504014
 20
719.685987
 30
0.0
 40
3.172641
 50
40.459785
 51
41.437245
  0
LINE
  8
0
 10
-48.115225
 20
719.480847
 30
0.0
 11
-48.115149
 21
719.479903
 31
0.0
  0
ARC
  8
0
 10
-52.599396
 20
711.507908
 30
0.0
 40
11.7102
 50
86.383363
 51
86.575877
  0
ARC
  8
0
 10
-52.093328
 20
719.727127
 30
0.0
 40
3.475457
 50
86.81093
 51
87.916272
  0
ARC
  8
0
 10
-52.09307
 20
719.741662
 30
0.0
 40
3.460923
 50
87.911796
 51
89.023784
  0
ARC
  8
0
 10
-52.10146
 20
719.640891
 30
0.0
 40
3.562089
 50
81.921765
 51
82.994334
  0
ARC
  8
0
 10
-52.098837
 20
719.662294
 30
0.0
 40
3.540527
 50
82.994229
 51
84.074361
  0
ARC
  8
0
 10
-52.096816
 20
719.682374
 30
0.0
 40
3.520346
 50
84.073334
 51
85.1608
  0
ARC
  8
0
 10
-52.071896
 20
720.006203
 30
0.0
 40
3.19557
 50
85.116204
 51
86.210774
  0
ARC
  8
0
 10
-48.251374
 20
719.202424
 30
0.0
 40
0.147146
 50
1.99191
 51
2.612307
  0
ARC
  8
0
 10
-48.250143
 20
719.202704
 30
0.0
 40
0.145906
 50
1.275217
 51
1.899052
  0
ARC
  8
0
 10
-48.248944
 20
719.202967
 30
0.0
 40
0.144702
 50
0.554415
 51
1.181688
  0
ARC
  8
0
 10
-48.248139
 20
719.202848
 30
0.0
 40
0.143898
 50
359.974015
 51
0.604725
  0
ARC
  8
0
 10
-49.137724
 20
721.776015
 30
0.0
 40
0.015526
 50
40.950555
 51
41.421296
  0
ARC
  8
0
 10
-49.137294
 20
721.776695
 30
0.0
 40
0.014757
 50
39.562981
 51
40.048161
  0
ARC
  8
0
 10
-49.136408
 20
721.776891
 30
0.0
 40
0.013956
 50
40.758819
 51
41.259354
  0
ARC
  8
0
 10
-49.135999
 20
721.777531
 30
0.0
 40
0.01323
 50
39.301264
 51
39.818071
  0
ARC
  8
0
 10
-49.135594
 20
721.77771
 30
0.0
 40
0.012804
 50
39.29267
 51
39.826666
  0
ARC
  8
0
 10
-49.135193
 20
721.778304
 30
0.0
 40
0.012119
 50
37.770877
 51
38.323208
  0
ARC
  8
0
 10
-49.1344
 20
721.778866
 30
0.0
 40
0.011148
 50
37.40845
 51
37.980031
  0
ARC
  8
0
 10
-52.435788
 20
718.877005
 30
0.0
 40
4.406572
 50
43.700984
 51
44.499684
  0
ARC
  8
0
 10
-52.434897
 20
718.87794
 30
0.0
 40
4.405282
 50
42.90127
 51
43.700199
  0
ARC
  8
0
 10
-52.432815
 20
718.879689
 30
0.0
 40
4.402567
 50
42.103648
 51
42.903035
  0
ARC
  8
0
 10
-52.429808
 20
718.882507
 30
0.0
 40
4.398446
 50
41.302605
 51
42.10268
  0
ARC
  8
0
 10
-50.950327
 20
719.215176
 30
0.0
 40
2.846113
 50
359.750501
 51
2.512024
  0
ARC
  8
0
 10
-51.569248
 20
719.206425
 30
0.0
 40
3.464868
 50
0.044734
 51
0.946794
  0
ARC
  8
0
 10
-51.580828
 20
719.206147
 30
0.0
 40
3.476451
 50
0.948226
 51
1.845931
  0
ARC
  8
0
 10
-51.59285
 20
719.205748
 30
0.0
 40
3.488479
 50
1.846124
 51
2.739475
  0
ARC
  8
0
 10
-51.605817
 20
719.205224
 30
0.0
 40
3.501456
 50
2.737906
 51
3.626903
  0
ARC
  8
0
 10
-51.558403
 20
719.208693
 30
0.0
 40
3.453918
 50
3.619215
 51
4.503628
  0
LINE
  8
0
 10
-400.667064
 20
794.075716
 30
0.0
 11
-391.648344
 21
803.094436
 31
0.0
  0
LINE
  8
0
 10
-400.677856
 20
765.780656
 30
0.0
 11
-363.364072
 21
803.094436
 31
0.0
  0
LINE
  8
0
 10
-400.688644
 20
737.485596
 30
0.0
 11
-335.079804
 21
803.094436
 31
0.0
  0
LINE
  8
0
 10
-400.699432
 20
709.190536
 30
0.0
 11
-306.795532
 21
803.094436
 31
0.0
  0
LINE
  8
0
 10
-400.71022
 20
680.895476
 30
0.0
 11
-278.51126
 21
803.094436
 31
0.0
  0
LINE
  8
0
 10
-400.721008
 20
652.600416
 30
0.0
 11
-250.226988
 21
803.094436
 31
0.0
  0
LINE
  8
0
 10
-301.942716
 20
723.094436
 30
0.0
 11
-221.942716
 21
803.094436
 31
0.0
  0
LINE
  8
0
 10
-400.7318
 20
624.305356
 30
0.0
 11
-320.92646
 21
704.110696
 31
0.0
  0
LINE
  8
0
 10
-273.658448
 20
723.094436
 30
0.0
 11
-193.658448
 21
803.094436
 31
0.0
  0
LINE
  8
0
 10
-400.742588
 20
596.010296
 30
0.0
 11
-320.92646
 21
675.826424
 31
0.0
  0
LINE
  8
0
 10
-245.374176
 20
723.094436
 30
0.0
 11
-165.374176
 21
803.094436
 31
0.0
  0
LINE
  8
0
 10
-400.753376
 20
567.715236
 30
0.0
 11
-320.92646
 21
647.542152
 31
0.0
  0
LINE
  8
0
 10
-217.089904
 20
723.094436
 30
0.0
 11
-137.089904
 21
803.094436
 31
0.0
  0
LINE
  8
0
 10
-400.764164
 20
539.420176
 30
0.0
 11
-320.92646
 21
619.25788
 31
0.0
  0
LINE
  8
0
 10
-188.805632
 20
723.094436
 30
0.0
 11
-108.805632
 21
803.094436
 31
0.0
  0
LINE
  8
0
 10
-400.774956
 20
511.125116
 30
0.0
 11
-320.92646
 21
590.973608
 31
0.0
  0
LINE
  8
0
 10
-160.52136
 20
723.094436
 30
0.0
 11
-82.90424
 21
800.711556
 31
0.0
  0
LINE
  8
0
 10
-400.785744
 20
482.830056
 30
0.0
 11
-320.92646
 21
562.689336
 31
0.0
  0
LINE
  8
0
 10
-132.237088
 20
723.094436
 30
0.0
 11
-82.90424
 21
772.427284
 31
0.0
  0
LINE
  8
0
 10
-400.796532
 20
454.534996
 30
0.0
 11
-320.92646
 21
534.405068
 31
0.0
  0
LINE
  8
0
 10
-103.95282
 20
723.094436
 30
0.0
 11
-82.90424
 21
744.143016
 31
0.0
  0
LINE
  8
0
 10
-400.80732
 20
426.239936
 30
0.0
 11
-320.92646
 21
506.120796
 31
0.0
  0
LINE
  8
0
 10
-400.818112
 20
397.944876
 30
0.0
 11
-320.92646
 21
477.836524
 31
0.0
  0
LINE
  8
0
 10
-400.8289
 20
369.649816
 30
0.0
 11
-320.92646
 21
449.552252
 31
0.0
  0
LINE
  8
0
 10
-400.839688
 20
341.354756
 30
0.0
 11
-320.92646
 21
421.26798
 31
0.0
  0
LINE
  8
0
 10
-400.850476
 20
313.059696
 30
0.0
 11
-320.92646
 21
392.983712
 31
0.0
  0
LINE
  8
0
 10
-400.861264
 20
284.764632
 30
0.0
 11
-320.92646
 21
364.69944
 31
0.0
  0
LINE
  8
0
 10
-400.872056
 20
256.469572
 30
0.0
 11
-320.92646
 21
336.415168
 31
0.0
  0
LINE
  8
0
 10
-400.882844
 20
228.174512
 30
0.0
 11
-320.92646
 21
308.130896
 31
0.0
  0
LINE
  8
0
 10
-400.893632
 20
199.879452
 30
0.0
 11
-320.92646
 21
279.846624
 31
0.0
  0
LINE
  8
0
 10
-400.90442
 20
171.584392
 30
0.0
 11
-320.92646
 21
251.562356
 31
0.0
  0
LINE
  8
0
 10
-400.915212
 20
143.289332
 30
0.0
 11
-320.92646
 21
223.278084
 31
0.0
  0
LINE
  8
0
 10
-392.825836
 20
123.094436
 30
0.0
 11
-312.825836
 21
203.094436
 31
0.0
  0
LINE
  8
0
 10
-364.541564
 20
123.094436
 30
0.0
 11
-284.541564
 21
203.094436
 31
0.0
  0
LINE
  8
0
 10
-336.257292
 20
123.094436
 30
0.0
 11
-256.257292
 21
203.094436
 31
0.0
  0
LINE
  8
0
 10
-307.97302
 20
123.094436
 30
0.0
 11
-227.97302
 21
203.094436
 31
0.0
  0
LINE
  8
0
 10
-279.688748
 20
123.094436
 30
0.0
 11
-199.688748
 21
203.094436
 31
0.0
  0
LINE
  8
0
 10
-251.40448
 20
123.094436
 30
0.0
 11
-171.40448
 21
203.094436
 31
0.0
  0
LINE
  8
0
 10
-223.120208
 20
123.094436
 30
0.0
 11
-143.120208
 21
203.094436
 31
0.0
  0
LINE
  8
0
 10
-194.835936
 20
123.094436
 30
0.0
 11
-114.835936
 21
203.094436
 31
0.0
  0
LINE
  8
0
 10
-166.551664
 20
123.094436
 30
0.0
 11
-86.551664
 21
203.094436
 31
0.0
  0
LINE
  8
0
 10
-138.267392
 20
123.094436
 30
0.0
 11
-82.90424
 21
178.457588
 31
0.0
  0
LINE
  8
0
 10
-109.983124
 20
123.094436
 30
0.0
 11
-82.90424
 21
150.17332
 31
0.0
  0
ENDSEC
  0
EOF
