  0
SECTION
  2
HEADER
  9
$ACADVER
  1
AC1009
  9
$INSBASE
 10
0.0
 20
0.0
 30
0.0
  9
$EXTMIN
 10
-255.540178
 20
382.878269
 30
0.0
  9
$EXTMAX
 10
-164.434416
 20
552.878269
 30
0.0
  9
$LIMMIN
 10
-255.542103
 20
382.878269
  9
$LIMMAX
 10
-167.337429
 20
552.878269
  9
$ORTHOMODE
 70
     0
  9
$REGENMODE
 70
     1
  9
$FILLMODE
 70
     1
  9
$QTEXTMODE
 70
     0
  9
$MIRRTEXT
 70
     1
  9
$DRAGMODE
 70
     2
  9
$LTSCALE
 40
1.0
  9
$OSMODE
 70
     0
  9
$ATTMODE
 70
     1
  9
$TEXTSIZE
 40
3.5
  9
$TRACEWID
 40
0.5
  9
$TEXTSTYLE
  7
STANDARD
  9
$CLAYER
  8
0
  9
$CELTYPE
  6
BYLAYER
  9
$CECOLOR
 62
   256
  9
$DIMSCALE
 40
1.0
  9
$DIMASZ
 40
0.18
  9
$DIMEXO
 40
0.0625
  9
$DIMDLI
 40
0.38
  9
$DIMRND
 40
0.0
  9
$DIMDLE
 40
0.0
  9
$DIMEXE
 40
0.18
  9
$DIMTP
 40
0.0
  9
$DIMTM
 40
0.0
  9
$DIMTXT
 40
0.18
  9
$DIMCEN
 40
0.09
  9
$DIMTSZ
 40
0.0
  9
$DIMTOL
 70
     0
  9
$DIMLIM
 70
     0
  9
$DIMTIH
 70
     1
  9
$DIMTOH
 70
     1
  9
$DIMSE1
 70
     0
  9
$DIMSE2
 70
     0
  9
$DIMTAD
 70
     0
  9
$DIMZIN
 70
     0
  9
$DIMBLK
  1

  9
$DIMASO
 70
     1
  9
$DIMSHO
 70
     1
  9
$DIMPOST
  1

  9
$DIMAPOST
  1

  9
$DIMALT
 70
     0
  9
$DIMALTD
 70
     2
  9
$DIMALTF
 40
25.4
  9
$DIMLFAC
 40
1.0
  9
$DIMTOFL
 70
     0
  9
$DIMTVP
 40
0.0
  9
$DIMTIX
 70
     0
  9
$DIMSOXD
 70
     0
  9
$DIMSAH
 70
     0
  9
$DIMBLK1
  1

  9
$DIMBLK2
  1

  9
$DIMSTYLE
  2
*UNNAMED
  9
$DIMCLRD
 70
     0
  9
$DIMCLRE
 70
     0
  9
$DIMCLRT
 70
     0
  9
$DIMTFAC
 40
1.0
  9
$DIMGAP
 40
0.09
  9
$LUNITS
 70
     2
  9
$LUPREC
 70
     4
  9
$SKETCHINC
 40
0.1
  9
$FILLETRAD
 40
2.0
  9
$AUNITS
 70
     0
  9
$AUPREC
 70
     0
  9
$MENU
  1
ACAD
  9
$ELEVATION
 40
0.0
  9
$PELEVATION
 40
0.0
  9
$THICKNESS
 40
0.0
  9
$LIMCHECK
 70
     0
  9
$BLIPMODE
 70
     1
  9
$CHAMFERA
 40
0.0
  9
$CHAMFERB
 40
0.0
  9
$SKPOLY
 70
     0
  9
$TDCREATE
 40
2450948.647408796
  9
$TDUPDATE
 40
2450948.647408796
  9
$TDINDWG
 40
0.0000000000
  9
$TDUSRTIMER
 40
0.0000000000
  9
$USRTIMER
 70
     1
  9
$ANGBASE
 50
0.0
  9
$ANGDIR
 70
     0
  9
$PDMODE
 70
     0
  9
$PDSIZE
 40
0.0
  9
$PLINEWID
 40
0.0
  9
$COORDS
 70
     2
  9
$SPLFRAME
 70
     0
  9
$SPLINETYPE
 70
     6
  9
$SPLINESEGS
 70
     8
  9
$ATTDIA
 70
     0
  9
$ATTREQ
 70
     1
  9
$HANDLING
 70
     0
  9
$HANDSEED
  5
0
  9
$SURFTAB1
 70
     6
  9
$SURFTAB2
 70
     6
  9
$SURFTYPE
 70
     6
  9
$SURFU
 70
     6
  9
$SURFV
 70
     6
  9
$UCSNAME
  2

  9
$UCSORG
 10
0.0
 20
0.0
 30
0.0
  9
$UCSXDIR
 10
1.0
 20
0.0
 30
0.0
  9
$UCSYDIR
 10
0.0
 20
1.0
 30
0.0
  9
$PUCSNAME
  2

  9
$PUCSORG
 10
0.0
 20
0.0
 30
0.0
  9
$PUCSXDIR
 10
1.0
 20
0.0
 30
0.0
  9
$PUCSYDIR
 10
0.0
 20
1.0
 30
0.0
  9
$USERI1
 70
     0
  9
$USERI2
 70
     0
  9
$USERI3
 70
     0
  9
$USERI4
 70
     0
  9
$USERI5
 70
     0
  9
$USERR1
 40
0.0
  9
$USERR2
 40
0.0
  9
$USERR3
 40
0.0
  9
$USERR4
 40
0.0
  9
$USERR5
 40
0.0
  9
$WORLDVIEW
 70
     1
  9
$SHADEDGE
 70
     3
  9
$SHADEDIF
 70
    70
  9
$TILEMODE
 70
     1
  9
$MAXACTVP
 70
    16
  9
$PINSBASE
 10
0.0
 20
0.0
 30
0.0
  9
$PLIMCHECK
 70
     0
  9
$PEXTMIN
 10
1.000000E+20
 20
1.000000E+20
 30
1.000000E+20
  9
$PEXTMAX
 10
-1.000000E+20
 20
-1.000000E+20
 30
-1.000000E+20
  9
$PLIMMIN
 10
0.0
 20
0.0
  9
$PLIMMAX
 10
420.0
 20
297.0
  9
$UNITMODE
 70
     0
  9
$VISRETAIN
 70
     0
  9
$PLINEGEN
 70
     0
  9
$PSLTSCALE
 70
     1
  9
$TREEDEPTH
 70
  3020
  9
$DWGCODEPAGE
  3
iso8859-1
  0
ENDSEC
  0
SECTION
  2
TABLES
  0
TABLE
  2
VPORT
 70
     2
  0
VPORT
  2
*ACTIVE
 70
     0
 10
0.0
 20
0.0
 11
1.0
 21
1.0
 12
-103.651937
 22
463.327651
 13
0.0
 23
0.0
 14
1.0
 24
1.0
 15
0.0
 25
0.0
 16
0.0
 26
0.0
 36
1.0
 17
0.0
 27
0.0
 37
0.0
 40
230.70498
 41
1.748359
 42
50.0
 43
0.0
 44
0.0
 50
0.0
 51
0.0
 71
     0
 72
   100
 73
     1
 74
     0
 75
     0
 76
     0
 77
     0
 78
     0
  0
ENDTAB
  0
TABLE
  2
LTYPE
 70
     1
  0
LTYPE
  2
CONTINUOUS
 70
    64
  3
Solid line
 72
    65
 73
     0
 40
0.0
  0
ENDTAB
  0
TABLE
  2
LAYER
 70
     1
  0
LAYER
  2
0
 70
    64
 62
     7
  6
CONTINUOUS
  0
ENDTAB
  0
TABLE
  2
STYLE
 70
     1
  0
STYLE
  2
STANDARD
 70
     0
 40
0.0
 41
1.0
 50
0.0
 71
     0
 42
3.5
  3
txt
  4

  0
ENDTAB
  0
TABLE
  2
VIEW
 70
     0
  0
ENDTAB
  0
TABLE
  2
UCS
 70
     0
  0
ENDTAB
  0
TABLE
  2
APPID
 70
     1
  0
APPID
  2
ACAD
 70
    64
  0
ENDTAB
  0
TABLE
  2
DIMSTYLE
 70
     0
  0
ENDTAB
  0
ENDSEC
  0
SECTION
  2
BLOCKS
  0
ENDSEC
  0
SECTION
  2
ENTITIES
  0
LINE
  8
0
 10
-185.537435
 20
419.878269
 30
0.0
 11
-185.537435
 21
410.778269
 31
0.0
  0
LINE
  8
0
 10
-179.537435
 20
415.228269
 30
0.0
 11
-179.537435
 21
419.228269
 31
0.0
  0
LINE
  8
0
 10
-179.537435
 20
419.228269
 30
0.0
 11
-179.537435
 21
419.878269
 31
0.0
  0
LINE
  8
0
 10
-184.137435
 20
419.178269
 30
0.0
 11
-184.137435
 21
415.278269
 31
0.0
  0
LINE
  8
0
 10
-180.937435
 20
419.178269
 30
0.0
 11
-180.937435
 21
415.278269
 31
0.0
  0
LINE
  8
0
 10
-179.537435
 20
414.578269
 30
0.0
 11
-179.537435
 21
415.228269
 31
0.0
  0
LINE
  8
0
 10
-233.037435
 20
434.378269
 30
0.0
 11
-233.037435
 21
407.378269
 31
0.0
  0
LINE
  8
0
 10
-232.037435
 20
435.378269
 30
0.0
 11
-228.027385
 21
435.378269
 31
0.0
  0
LINE
  8
0
 10
-232.137435
 20
436.978269
 30
0.0
 11
-228.351649
 21
436.978269
 31
0.0
  0
LINE
  8
0
 10
-230.037435
 20
432.878269
 30
0.0
 11
-230.037435
 21
434.878269
 31
0.0
  0
LINE
  8
0
 10
-228.678857
 20
434.726798
 30
0.0
 11
-228.027385
 21
435.378269
 31
0.0
  0
LINE
  8
0
 10
-228.027385
 20
440.378269
 30
0.0
 11
-232.037435
 21
440.378269
 31
0.0
  0
LINE
  8
0
 10
-228.351649
 20
438.778269
 30
0.0
 11
-232.137435
 21
438.778269
 31
0.0
  0
LINE
  8
0
 10
-230.037435
 20
440.878269
 30
0.0
 11
-230.037435
 21
442.878269
 31
0.0
  0
LINE
  8
0
 10
-228.027385
 20
440.378269
 30
0.0
 11
-228.678857
 21
441.029741
 31
0.0
  0
LINE
  8
0
 10
-233.037435
 20
494.378269
 30
0.0
 11
-233.037435
 21
471.378269
 31
0.0
  0
LINE
  8
0
 10
-183.137435
 20
413.578269
 30
0.0
 11
-180.537435
 21
413.578269
 31
0.0
  0
LINE
  8
0
 10
-183.837435
 20
414.978269
 30
0.0
 11
-181.237435
 21
414.978269
 31
0.0
  0
LINE
  8
0
 10
-184.537435
 20
420.878269
 30
0.0
 11
-180.537435
 21
420.878269
 31
0.0
  0
LINE
  8
0
 10
-173.537435
 20
409.742192
 30
0.0
 11
-173.537435
 21
404.878269
 31
0.0
  0
LINE
  8
0
 10
-183.837435
 20
419.478269
 30
0.0
 11
-181.237435
 21
419.478269
 31
0.0
  0
LINE
  8
0
 10
-176.037435
 20
408.55773
 30
0.0
 11
-176.037435
 21
405.878269
 31
0.0
  0
LINE
  8
0
 10
-179.355312
 20
408.778269
 30
0.0
 11
-183.537435
 21
408.778269
 31
0.0
  0
LINE
  8
0
 10
-179.637435
 20
410.378269
 30
0.0
 11
-183.137435
 21
410.378269
 31
0.0
  0
LINE
  8
0
 10
-176.221476
 20
411.621577
 30
0.0
 11
-179.637435
 21
410.378269
 31
0.0
  0
LINE
  8
0
 10
-184.137435
 20
412.578269
 30
0.0
 11
-184.137435
 21
411.378269
 31
0.0
  0
LINE
  8
0
 10
-233.537435
 20
402.878269
 30
0.0
 11
-175.537435
 21
402.878269
 31
0.0
  0
LINE
  8
0
 10
-235.537435
 20
404.878269
 30
0.0
 11
-235.537435
 21
530.878269
 31
0.0
  0
LINE
  8
0
 10
-233.037435
 20
528.378269
 30
0.0
 11
-233.037435
 21
501.378269
 31
0.0
  0
LINE
  8
0
 10
-177.379455
 20
409.497423
 30
0.0
 11
-179.355312
 21
408.778269
 31
0.0
  0
LINE
  8
0
 10
-229.183882
 20
435.231823
 30
0.0
 11
-228.678857
 21
434.726798
 31
0.0
  0
LINE
  8
0
 10
-227.290989
 20
434.417609
 30
0.0
 11
-229.183882
 21
432.524716
 31
0.0
  0
LINE
  8
0
 10
-227.290989
 20
441.33893
 30
0.0
 11
-229.183882
 21
443.231823
 31
0.0
  0
LINE
  8
0
 10
-229.183882
 20
440.524716
 30
0.0
 11
-228.678857
 21
441.029741
 31
0.0
  0
LINE
  8
0
 10
-230.037435
 20
462.878269
 30
0.0
 11
-230.037435
 21
464.878269
 31
0.0
  0
LINE
  8
0
 10
-228.678857
 20
464.726798
 30
0.0
 11
-228.027385
 21
465.378269
 31
0.0
  0
LINE
  8
0
 10
-230.037435
 20
470.878269
 30
0.0
 11
-230.037435
 21
472.878269
 31
0.0
  0
LINE
  8
0
 10
-228.027385
 20
470.378269
 30
0.0
 11
-228.678857
 21
471.029741
 31
0.0
  0
LINE
  8
0
 10
-229.183882
 20
465.231823
 30
0.0
 11
-228.678857
 21
464.726798
 31
0.0
  0
LINE
  8
0
 10
-227.290989
 20
464.417609
 30
0.0
 11
-229.183882
 21
462.524716
 31
0.0
  0
LINE
  8
0
 10
-227.290989
 20
471.33893
 30
0.0
 11
-229.183882
 21
473.231823
 31
0.0
  0
LINE
  8
0
 10
-229.183882
 20
470.524716
 30
0.0
 11
-228.678857
 21
471.029741
 31
0.0
  0
LINE
  8
0
 10
-228.027385
 20
470.378269
 30
0.0
 11
-232.037435
 21
470.378269
 31
0.0
  0
LINE
  8
0
 10
-228.351649
 20
468.778269
 30
0.0
 11
-232.137435
 21
468.778269
 31
0.0
  0
LINE
  8
0
 10
-232.137435
 20
466.978269
 30
0.0
 11
-228.351649
 21
466.978269
 31
0.0
  0
LINE
  8
0
 10
-232.037435
 20
465.378269
 30
0.0
 11
-228.027385
 21
465.378269
 31
0.0
  0
LINE
  8
0
 10
-228.027385
 20
470.378269
 30
0.0
 11
-232.037435
 21
470.378269
 31
0.0
  0
LINE
  8
0
 10
-230.037435
 20
492.878269
 30
0.0
 11
-230.037435
 21
494.878269
 31
0.0
  0
LINE
  8
0
 10
-228.678857
 20
494.726798
 30
0.0
 11
-228.027385
 21
495.378269
 31
0.0
  0
LINE
  8
0
 10
-230.037435
 20
500.878269
 30
0.0
 11
-230.037435
 21
502.878269
 31
0.0
  0
LINE
  8
0
 10
-228.027385
 20
500.378269
 30
0.0
 11
-228.678857
 21
501.029741
 31
0.0
  0
LINE
  8
0
 10
-229.183882
 20
495.231823
 30
0.0
 11
-228.678857
 21
494.726798
 31
0.0
  0
LINE
  8
0
 10
-227.290989
 20
494.417609
 30
0.0
 11
-229.183882
 21
492.524716
 31
0.0
  0
LINE
  8
0
 10
-227.290989
 20
501.33893
 30
0.0
 11
-229.183882
 21
503.231823
 31
0.0
  0
LINE
  8
0
 10
-229.183882
 20
500.524716
 30
0.0
 11
-228.678857
 21
501.029741
 31
0.0
  0
LINE
  8
0
 10
-228.027385
 20
500.378269
 30
0.0
 11
-232.037435
 21
500.378269
 31
0.0
  0
LINE
  8
0
 10
-228.351649
 20
498.778269
 30
0.0
 11
-232.137435
 21
498.778269
 31
0.0
  0
LINE
  8
0
 10
-232.137435
 20
496.978269
 30
0.0
 11
-228.351649
 21
496.978269
 31
0.0
  0
LINE
  8
0
 10
-232.037435
 20
495.378269
 30
0.0
 11
-228.027385
 21
495.378269
 31
0.0
  0
LINE
  8
0
 10
-232.037435
 20
495.378269
 30
0.0
 11
-228.027385
 21
495.378269
 31
0.0
  0
LINE
  8
0
 10
-233.037435
 20
464.378269
 30
0.0
 11
-233.037435
 21
441.378269
 31
0.0
  0
LINE
  8
0
 10
-185.537435
 20
524.978269
 30
0.0
 11
-185.537435
 21
515.878269
 31
0.0
  0
LINE
  8
0
 10
-179.537435
 20
516.528269
 30
0.0
 11
-179.537435
 21
520.528269
 31
0.0
  0
LINE
  8
0
 10
-179.537435
 20
515.878269
 30
0.0
 11
-179.537435
 21
516.528269
 31
0.0
  0
LINE
  8
0
 10
-184.137435
 20
520.478269
 30
0.0
 11
-184.137435
 21
516.578269
 31
0.0
  0
LINE
  8
0
 10
-180.937435
 20
520.478269
 30
0.0
 11
-180.937435
 21
516.578269
 31
0.0
  0
LINE
  8
0
 10
-179.537435
 20
520.528269
 30
0.0
 11
-179.537435
 21
521.178269
 31
0.0
  0
LINE
  8
0
 10
-180.537435
 20
522.178269
 30
0.0
 11
-183.137435
 21
522.178269
 31
0.0
  0
LINE
  8
0
 10
-181.237435
 20
520.778269
 30
0.0
 11
-183.837435
 21
520.778269
 31
0.0
  0
LINE
  8
0
 10
-180.537435
 20
514.878269
 30
0.0
 11
-184.537435
 21
514.878269
 31
0.0
  0
LINE
  8
0
 10
-173.537435
 20
530.878269
 30
0.0
 11
-173.537435
 21
526.014346
 31
0.0
  0
LINE
  8
0
 10
-181.237435
 20
516.278269
 30
0.0
 11
-183.837435
 21
516.278269
 31
0.0
  0
LINE
  8
0
 10
-176.037435
 20
529.878269
 30
0.0
 11
-176.037435
 21
527.198808
 31
0.0
  0
LINE
  8
0
 10
-183.537435
 20
526.978269
 30
0.0
 11
-179.355312
 21
526.978269
 31
0.0
  0
LINE
  8
0
 10
-183.137435
 20
525.378269
 30
0.0
 11
-179.637435
 21
525.378269
 31
0.0
  0
LINE
  8
0
 10
-179.637435
 20
525.378269
 30
0.0
 11
-176.221476
 21
524.134961
 31
0.0
  0
LINE
  8
0
 10
-184.137435
 20
524.378269
 30
0.0
 11
-184.137435
 21
523.178269
 31
0.0
  0
LINE
  8
0
 10
-179.355312
 20
526.978269
 30
0.0
 11
-177.379455
 21
526.259116
 31
0.0
  0
LINE
  8
0
 10
-231.037435
 20
530.378269
 30
0.0
 11
-176.537435
 21
530.378269
 31
0.0
  0
LINE
  8
0
 10
-175.537435
 20
532.878269
 30
0.0
 11
-233.537435
 21
532.878269
 31
0.0
  0
LINE
  8
0
 10
-231.037435
 20
530.378269
 30
0.0
 11
-176.537435
 21
530.378269
 31
0.0
  0
LINE
  8
0
 10
-176.537435
 20
405.378269
 30
0.0
 11
-231.037435
 21
405.378269
 31
0.0
  0
ARC
  8
0
 10
-228.351649
 20
435.478269
 30
0.0
 40
1.5
 50
315.0
 51
90.0
  0
ARC
  8
0
 10
-229.537435
 20
432.878269
 30
0.0
 40
0.5
 50
270.0
 51
315.0
  0
ARC
  8
0
 10
-229.537435
 20
434.878269
 30
0.0
 40
0.5
 50
45.0
 51
180.0
  0
ARC
  8
0
 10
-228.351649
 20
440.278269
 30
0.0
 40
1.5
 50
270.0
 51
45.0
  0
ARC
  8
0
 10
-229.537435
 20
442.878269
 30
0.0
 40
0.5
 50
90.0
 51
180.0
  0
ARC
  8
0
 10
-229.537435
 20
440.878269
 30
0.0
 40
0.5
 50
180.0
 51
315.0
  0
ARC
  8
0
 10
-229.537435
 20
442.878269
 30
0.0
 40
0.5
 50
45.0
 51
90.0
  0
ARC
  8
0
 10
-229.537435
 20
432.878269
 30
0.0
 40
0.5
 50
180.0
 51
270.0
  0
ARC
  8
0
 10
-183.837435
 20
415.278269
 30
0.0
 40
0.3
 50
180.0
 51
189.594068
  0
ARC
  8
0
 10
-183.837435
 20
419.178269
 30
0.0
 40
0.3
 50
90.0
 51
170.405932
  0
ARC
  8
0
 10
-181.237435
 20
415.278269
 30
0.0
 40
0.3
 50
270.0
 51
350.405932
  0
ARC
  8
0
 10
-181.237435
 20
419.178269
 30
0.0
 40
0.3
 50
0.0
 51
9.594068
  0
ARC
  8
0
 10
-232.137435
 20
437.878269
 30
0.0
 40
0.9
 50
90.0
 51
270.0
  0
ARC
  8
0
 10
-232.037435
 20
441.378269
 30
0.0
 40
1.0
 50
180.0
 51
270.0
  0
ARC
  8
0
 10
-232.037435
 20
434.378269
 30
0.0
 40
1.0
 50
90.0
 51
180.0
  0
ARC
  8
0
 10
-183.837435
 20
415.278269
 30
0.0
 40
0.3
 50
189.594068
 51
270.0
  0
ARC
  8
0
 10
-181.237435
 20
415.278269
 30
0.0
 40
0.3
 50
350.405932
 51
0.0
  0
ARC
  8
0
 10
-183.137435
 20
412.578269
 30
0.0
 40
1.0
 50
90.0
 51
180.0
  0
ARC
  8
0
 10
-180.537435
 20
414.578269
 30
0.0
 40
1.0
 50
270.0
 51
0.0
  0
ARC
  8
0
 10
-176.537435
 20
405.878269
 30
0.0
 40
0.5
 50
270.0
 51
0.0
  0
ARC
  8
0
 10
-175.537435
 20
404.878269
 30
0.0
 40
2.0
 50
270.0
 51
0.0
  0
ARC
  8
0
 10
-184.537435
 20
419.878269
 30
0.0
 40
1.0
 50
90.0
 51
180.0
  0
ARC
  8
0
 10
-180.537435
 20
419.878269
 30
0.0
 40
1.0
 50
0.0
 51
90.0
  0
ARC
  8
0
 10
-181.237435
 20
419.178269
 30
0.0
 40
0.3
 50
9.594068
 51
90.0
  0
ARC
  8
0
 10
-183.837435
 20
419.178269
 30
0.0
 40
0.3
 50
170.405932
 51
180.0
  0
ARC
  8
0
 10
-183.137435
 20
411.378269
 30
0.0
 40
1.0
 50
180.0
 51
270.0
  0
ARC
  8
0
 10
-183.537435
 20
410.778269
 30
0.0
 40
2.0
 50
180.0
 51
270.0
  0
ARC
  8
0
 10
-177.037435
 20
408.55773
 30
0.0
 40
1.0
 50
0.0
 51
110.0
  0
ARC
  8
0
 10
-233.537435
 20
404.878269
 30
0.0
 40
2.0
 50
180.0
 51
270.0
  0
ARC
  8
0
 10
-231.037435
 20
407.378269
 30
0.0
 40
2.0
 50
180.0
 51
270.0
  0
ARC
  8
0
 10
-175.537435
 20
409.742192
 30
0.0
 40
2.0
 50
359.999999
 51
110.000022
  0
ARC
  8
0
 10
-228.351649
 20
465.478269
 30
0.0
 40
1.5
 50
315.0
 51
90.0
  0
ARC
  8
0
 10
-229.537435
 20
462.878269
 30
0.0
 40
0.5
 50
270.0
 51
315.0
  0
ARC
  8
0
 10
-229.537435
 20
464.878269
 30
0.0
 40
0.5
 50
45.0
 51
180.0
  0
ARC
  8
0
 10
-228.351649
 20
470.278269
 30
0.0
 40
1.5
 50
270.0
 51
45.0
  0
ARC
  8
0
 10
-229.537435
 20
472.878269
 30
0.0
 40
0.5
 50
90.0
 51
180.0
  0
ARC
  8
0
 10
-229.537435
 20
470.878269
 30
0.0
 40
0.5
 50
180.0
 51
315.0
  0
ARC
  8
0
 10
-229.537435
 20
472.878269
 30
0.0
 40
0.5
 50
45.0
 51
90.0
  0
ARC
  8
0
 10
-229.537435
 20
462.878269
 30
0.0
 40
0.5
 50
180.0
 51
270.0
  0
ARC
  8
0
 10
-232.037435
 20
471.378269
 30
0.0
 40
1.0
 50
180.0
 51
270.0
  0
ARC
  8
0
 10
-232.137435
 20
467.878269
 30
0.0
 40
0.9
 50
90.0
 51
270.0
  0
ARC
  8
0
 10
-232.037435
 20
464.378269
 30
0.0
 40
1.0
 50
90.0
 51
180.0
  0
ARC
  8
0
 10
-232.037435
 20
471.378269
 30
0.0
 40
1.0
 50
180.0
 51
270.0
  0
ARC
  8
0
 10
-228.351649
 20
495.478269
 30
0.0
 40
1.5
 50
315.0
 51
90.0
  0
ARC
  8
0
 10
-229.537435
 20
492.878269
 30
0.0
 40
0.5
 50
270.0
 51
315.0
  0
ARC
  8
0
 10
-229.537435
 20
494.878269
 30
0.0
 40
0.5
 50
45.0
 51
180.0
  0
ARC
  8
0
 10
-228.351649
 20
500.278269
 30
0.0
 40
1.5
 50
270.0
 51
45.0
  0
ARC
  8
0
 10
-229.537435
 20
502.878269
 30
0.0
 40
0.5
 50
90.0
 51
180.0
  0
ARC
  8
0
 10
-229.537435
 20
500.878269
 30
0.0
 40
0.5
 50
180.0
 51
315.0
  0
ARC
  8
0
 10
-229.537435
 20
502.878269
 30
0.0
 40
0.5
 50
45.0
 51
90.0
  0
ARC
  8
0
 10
-229.537435
 20
492.878269
 30
0.0
 40
0.5
 50
180.0
 51
270.0
  0
ARC
  8
0
 10
-232.037435
 20
494.378269
 30
0.0
 40
1.0
 50
90.0
 51
180.0
  0
ARC
  8
0
 10
-232.137435
 20
497.878269
 30
0.0
 40
0.9
 50
90.0
 51
270.0
  0
ARC
  8
0
 10
-232.037435
 20
501.378269
 30
0.0
 40
1.0
 50
180.0
 51
270.0
  0
ARC
  8
0
 10
-183.837435
 20
520.478269
 30
0.0
 40
0.3
 50
170.405932
 51
180.0
  0
ARC
  8
0
 10
-183.837435
 20
516.578269
 30
0.0
 40
0.3
 50
189.594068
 51
270.0
  0
ARC
  8
0
 10
-181.237435
 20
520.478269
 30
0.0
 40
0.3
 50
9.594068
 51
90.0
  0
ARC
  8
0
 10
-181.237435
 20
516.578269
 30
0.0
 40
0.3
 50
350.405932
 51
0.0
  0
ARC
  8
0
 10
-183.837435
 20
520.478269
 30
0.0
 40
0.3
 50
90.0
 51
170.405932
  0
ARC
  8
0
 10
-181.237435
 20
520.478269
 30
0.0
 40
0.3
 50
0.0
 51
9.594068
  0
ARC
  8
0
 10
-183.137435
 20
523.178269
 30
0.0
 40
1.0
 50
180.0
 51
270.0
  0
ARC
  8
0
 10
-180.537435
 20
521.178269
 30
0.0
 40
1.0
 50
0.0
 51
90.0
  0
ARC
  8
0
 10
-176.537435
 20
529.878269
 30
0.0
 40
0.5
 50
0.0
 51
90.0
  0
ARC
  8
0
 10
-175.537435
 20
530.878269
 30
0.0
 40
2.0
 50
0.0
 51
90.0
  0
ARC
  8
0
 10
-184.537435
 20
515.878269
 30
0.0
 40
1.0
 50
180.0
 51
270.0
  0
ARC
  8
0
 10
-180.537435
 20
515.878269
 30
0.0
 40
1.0
 50
270.0
 51
0.0
  0
ARC
  8
0
 10
-181.237435
 20
516.578269
 30
0.0
 40
0.3
 50
270.0
 51
350.405932
  0
ARC
  8
0
 10
-183.837435
 20
516.578269
 30
0.0
 40
0.3
 50
180.0
 51
189.594068
  0
ARC
  8
0
 10
-183.137435
 20
524.378269
 30
0.0
 40
1.0
 50
90.0
 51
180.0
  0
ARC
  8
0
 10
-183.537435
 20
524.978269
 30
0.0
 40
2.0
 50
90.0
 51
180.0
  0
ARC
  8
0
 10
-177.037435
 20
527.198808
 30
0.0
 40
1.0
 50
250.0
 51
0.0
  0
ARC
  8
0
 10
-175.537435
 20
526.014346
 30
0.0
 40
2.0
 50
249.999978
 51
0.000001
  0
ARC
  8
0
 10
-233.537435
 20
530.878269
 30
0.0
 40
2.0
 50
90.0
 51
180.0
  0
ARC
  8
0
 10
-231.037435
 20
528.378269
 30
0.0
 40
2.0
 50
90.0
 51
180.0
  0
LINE
  8
0
 10
-180.337435
 20
486.139117
 30
0.0
 11
-180.337435
 21
474.988268
 31
0.0
  0
LINE
  8
0
 10
-180.337435
 20
449.488268
 30
0.0
 11
-180.337435
 21
460.639117
 31
0.0
  0
LINE
  8
0
 10
-201.337435
 20
447.313693
 30
0.0
 11
-175.537435
 21
447.08854
 31
0.0
  0
LINE
  8
0
 10
-206.837435
 20
464.909848
 30
0.0
 11
-206.837435
 21
470.717538
 31
0.0
  0
LINE
  8
0
 10
-206.837435
 20
500.211493
 30
0.0
 11
-206.837435
 21
489.909848
 31
0.0
  0
LINE
  8
0
 10
-201.337435
 20
473.813693
 30
0.0
 11
-181.328709
 21
473.988306
 31
0.0
  0
LINE
  8
0
 10
-201.337435
 20
461.813693
 30
0.0
 11
-181.328709
 21
461.639079
 31
0.0
  0
LINE
  8
0
 10
-181.328709
 20
448.488306
 30
0.0
 11
-201.337435
 21
448.313693
 31
0.0
  0
LINE
  8
0
 10
-201.337435
 20
462.813693
 30
0.0
 11
-201.337435
 21
461.813693
 31
0.0
  0
LINE
  8
0
 10
-201.337435
 20
447.313693
 30
0.0
 11
-201.337435
 21
448.313693
 31
0.0
  0
LINE
  8
0
 10
-181.328709
 20
487.139079
 30
0.0
 11
-201.337435
 21
487.313693
 31
0.0
  0
LINE
  8
0
 10
-201.337435
 20
472.813693
 30
0.0
 11
-201.337435
 21
473.813693
 31
0.0
  0
LINE
  8
0
 10
-201.337435
 20
488.313693
 30
0.0
 11
-201.337435
 21
487.313693
 31
0.0
  0
LINE
  8
0
 10
-206.837435
 20
440.449432
 30
0.0
 11
-206.837435
 21
445.717538
 31
0.0
  0
LINE
  8
0
 10
-206.837435
 20
435.415893
 30
0.0
 11
-206.837435
 21
440.449432
 31
0.0
  0
LINE
  8
0
 10
-175.354618
 20
432.900963
 30
0.0
 11
-204.87234
 21
433.416197
 31
0.0
  0
LINE
  8
0
 10
-211.37234
 20
471.779392
 30
0.0
 11
-207.819983
 21
471.717385
 31
0.0
  0
LINE
  8
0
 10
-207.819983
 20
488.91
 30
0.0
 11
-211.37234
 21
488.847994
 31
0.0
  0
LINE
  8
0
 10
-213.337435
 20
473.779087
 30
0.0
 11
-213.337435
 21
486.848298
 31
0.0
  0
LINE
  8
0
 10
-213.337435
 20
461.848298
 30
0.0
 11
-213.337435
 21
448.779087
 31
0.0
  0
LINE
  8
0
 10
-211.37234
 20
463.847994
 30
0.0
 11
-207.819983
 21
463.91
 31
0.0
  0
LINE
  8
0
 10
-207.819983
 20
446.717385
 30
0.0
 11
-211.37234
 21
446.779392
 31
0.0
  0
LINE
  8
0
 10
-180.337435
 20
472.630429
 30
0.0
 11
-180.337435
 21
462.996957
 31
0.0
  0
LINE
  8
0
 10
-180.337435
 20
472.630429
 30
0.0
 11
-181.337435
 21
472.639156
 31
0.0
  0
LINE
  8
0
 10
-180.337435
 20
462.996957
 30
0.0
 11
-181.337435
 21
462.98823
 31
0.0
  0
LINE
  8
0
 10
-181.337435
 20
462.98823
 30
0.0
 11
-181.337435
 21
472.639156
 31
0.0
  0
LINE
  8
0
 10
-181.337435
 20
472.639156
 30
0.0
 11
-201.337435
 21
472.813693
 31
0.0
  0
LINE
  8
0
 10
-181.337435
 20
462.98823
 30
0.0
 11
-201.337435
 21
462.813693
 31
0.0
  0
LINE
  8
0
 10
-201.337435
 20
462.813693
 30
0.0
 11
-206.837435
 21
462.813693
 31
0.0
  0
LINE
  8
0
 10
-206.837435
 20
462.813693
 30
0.0
 11
-206.837435
 21
464.909848
 31
0.0
  0
LINE
  8
0
 10
-206.837435
 20
470.717538
 30
0.0
 11
-206.837435
 21
472.813693
 31
0.0
  0
LINE
  8
0
 10
-206.837435
 20
472.813693
 30
0.0
 11
-201.337435
 21
472.813693
 31
0.0
  0
LINE
  8
0
 10
-201.337435
 20
488.313693
 30
0.0
 11
-206.837435
 21
488.313693
 31
0.0
  0
LINE
  8
0
 10
-206.837435
 20
488.313693
 30
0.0
 11
-206.837435
 21
489.909848
 31
0.0
  0
LINE
  8
0
 10
-201.337435
 20
447.313693
 30
0.0
 11
-206.837435
 21
447.303043
 31
0.0
  0
LINE
  8
0
 10
-206.837435
 20
447.303043
 30
0.0
 11
-206.837435
 21
445.717538
 31
0.0
  0
LINE
  8
0
 10
-175.537435
 20
463.038846
 30
0.0
 11
-180.337435
 21
462.996957
 31
0.0
  0
LINE
  8
0
 10
-175.537435
 20
472.58854
 30
0.0
 11
-180.337435
 21
472.630429
 31
0.0
  0
LINE
  8
0
 10
-175.537435
 20
488.538846
 30
0.0
 11
-201.337435
 21
488.313693
 31
0.0
  0
LINE
  8
0
 10
-175.537435
 20
502.723231
 30
0.0
 11
-204.87234
 21
502.211189
 31
0.0
  0
ARC
  8
0
 10
-181.337435
 20
449.488268
 30
0.0
 40
1.0
 50
270.5
 51
0.0
  0
ARC
  8
0
 10
-181.337435
 20
460.639117
 30
0.0
 40
1.0
 50
0.0
 51
89.5
  0
ARC
  8
0
 10
-181.337435
 20
474.988268
 30
0.0
 40
1.0
 50
270.5
 51
0.0
  0
ARC
  8
0
 10
-181.337435
 20
486.139117
 30
0.0
 40
1.0
 50
0.0
 51
89.5
  0
ARC
  8
0
 10
-204.837435
 20
435.415893
 30
0.0
 40
2.0
 50
180.0
 51
269.0
  0
ARC
  8
0
 10
-211.337435
 20
448.779087
 30
0.0
 40
2.0
 50
180.0
 51
269.0
  0
ARC
  8
0
 10
-211.337435
 20
461.848298
 30
0.0
 40
2.0
 50
91.0
 51
180.0
  0
ARC
  8
0
 10
-211.337435
 20
473.779087
 30
0.0
 40
2.0
 50
180.0
 51
269.0
  0
ARC
  8
0
 10
-211.337435
 20
486.848298
 30
0.0
 40
2.0
 50
91.0
 51
180.0
  0
ARC
  8
0
 10
-204.837435
 20
500.211493
 30
0.0
 40
2.0
 50
91.0
 51
180.0
  0
ARC
  8
0
 10
-207.837435
 20
470.717538
 30
0.0
 40
1.0
 50
0.0
 51
89.0
  0
ARC
  8
0
 10
-207.837435
 20
464.909848
 30
0.0
 40
1.0
 50
271.0
 51
0.0
  0
ARC
  8
0
 10
-207.837435
 20
489.909848
 30
0.0
 40
1.0
 50
271.0
 51
0.0
  0
ARC
  8
0
 10
-207.837435
 20
445.717538
 30
0.0
 40
1.0
 50
0.0
 51
89.0
  0
LINE
  8
0
 10
-225.608663
 20
469.657985
 30
0.0
 11
-230.166402
 21
474.213935
 31
0.0
  0
LINE
  8
0
 10
-230.166402
 20
474.213935
 30
0.0
 11
-225.608663
 21
469.657985
 31
0.0
  0
LINE
  8
0
 10
-216.076426
 20
466.330959
 30
0.0
 11
-216.078413
 21
466.330959
 31
0.0
  0
LINE
  8
0
 10
-216.078413
 20
466.330959
 30
0.0
 11
-216.164824
 21
466.334734
 31
0.0
  0
LINE
  8
0
 10
-216.164824
 20
466.334734
 30
0.0
 11
-216.251235
 21
466.346255
 31
0.0
  0
LINE
  8
0
 10
-216.251235
 20
466.346255
 30
0.0
 11
-216.335659
 21
466.363537
 31
0.0
  0
LINE
  8
0
 10
-216.335659
 20
466.363537
 30
0.0
 11
-216.251235
 21
466.346255
 31
0.0
  0
LINE
  8
0
 10
-216.251235
 20
466.346255
 30
0.0
 11
-216.164824
 21
466.334734
 31
0.0
  0
LINE
  8
0
 10
-216.164824
 20
466.334734
 30
0.0
 11
-216.076426
 21
466.330959
 31
0.0
  0
LINE
  8
0
 10
-216.335659
 20
466.363537
 30
0.0
 11
-216.418098
 21
466.390355
 31
0.0
  0
LINE
  8
0
 10
-216.418098
 20
466.390355
 30
0.0
 11
-216.335659
 21
466.363537
 31
0.0
  0
LINE
  8
0
 10
-216.418098
 20
466.390355
 30
0.0
 11
-216.498748
 21
466.422932
 31
0.0
  0
LINE
  8
0
 10
-216.498748
 20
466.422932
 30
0.0
 11
-216.418098
 21
466.390355
 31
0.0
  0
LINE
  8
0
 10
-216.498748
 20
466.422932
 30
0.0
 11
-216.575425
 21
466.463258
 31
0.0
  0
LINE
  8
0
 10
-216.575425
 20
466.463258
 30
0.0
 11
-216.498748
 21
466.422932
 31
0.0
  0
LINE
  8
0
 10
-216.575425
 20
466.463258
 30
0.0
 11
-216.650315
 21
466.51133
 31
0.0
  0
LINE
  8
0
 10
-216.650315
 20
466.51133
 30
0.0
 11
-216.575425
 21
466.463258
 31
0.0
  0
LINE
  8
0
 10
-216.650315
 20
466.51133
 30
0.0
 11
-216.719444
 21
466.562978
 31
0.0
  0
LINE
  8
0
 10
-216.719444
 20
466.562978
 30
0.0
 11
-216.650315
 21
466.51133
 31
0.0
  0
LINE
  8
0
 10
-216.719444
 20
466.562978
 30
0.0
 11
-216.782812
 21
466.622572
 31
0.0
  0
LINE
  8
0
 10
-216.782812
 20
466.622572
 30
0.0
 11
-216.719444
 21
466.562978
 31
0.0
  0
LINE
  8
0
 10
-216.782812
 20
466.622572
 30
0.0
 11
-216.842207
 21
466.68594
 31
0.0
  0
LINE
  8
0
 10
-216.842207
 20
466.68594
 30
0.0
 11
-216.782812
 21
466.622572
 31
0.0
  0
LINE
  8
0
 10
-216.842207
 20
466.68594
 30
0.0
 11
-216.894054
 21
466.755069
 31
0.0
  0
LINE
  8
0
 10
-216.894054
 20
466.755069
 30
0.0
 11
-216.842207
 21
466.68594
 31
0.0
  0
LINE
  8
0
 10
-216.894054
 20
466.755069
 30
0.0
 11
-216.941928
 21
466.82976
 31
0.0
  0
LINE
  8
0
 10
-216.941928
 20
466.82976
 30
0.0
 11
-216.894054
 21
466.755069
 31
0.0
  0
LINE
  8
0
 10
-216.941928
 20
466.82976
 30
0.0
 11
-216.982253
 21
466.906636
 31
0.0
  0
LINE
  8
0
 10
-216.982253
 20
466.906636
 30
0.0
 11
-216.941928
 21
466.82976
 31
0.0
  0
LINE
  8
0
 10
-216.982253
 20
466.906636
 30
0.0
 11
-217.01503
 21
466.987286
 31
0.0
  0
LINE
  8
0
 10
-217.01503
 20
466.987286
 30
0.0
 11
-216.982253
 21
466.906636
 31
0.0
  0
LINE
  8
0
 10
-217.01503
 20
466.987286
 30
0.0
 11
-217.041847
 21
467.069725
 31
0.0
  0
LINE
  8
0
 10
-217.041847
 20
467.069725
 30
0.0
 11
-217.01503
 21
466.987286
 31
0.0
  0
LINE
  8
0
 10
-217.041847
 20
467.069725
 30
0.0
 11
-217.059129
 21
467.154149
 31
0.0
  0
LINE
  8
0
 10
-217.059129
 20
467.154149
 30
0.0
 11
-217.041847
 21
467.069725
 31
0.0
  0
LINE
  8
0
 10
-217.059129
 20
467.154149
 30
0.0
 11
-217.07065
 21
467.24056
 31
0.0
  0
LINE
  8
0
 10
-217.07065
 20
467.24056
 30
0.0
 11
-217.059129
 21
467.154149
 31
0.0
  0
LINE
  8
0
 10
-217.07065
 20
467.24056
 30
0.0
 11
-217.074425
 21
467.326773
 31
0.0
  0
LINE
  8
0
 10
-217.074425
 20
467.326773
 30
0.0
 11
-217.074425
 21
467.328759
 31
0.0
  0
LINE
  8
0
 10
-217.074425
 20
467.328759
 30
0.0
 11
-217.07065
 21
467.24056
 31
0.0
  0
LINE
  8
0
 10
-217.074425
 20
468.324771
 30
0.0
 11
-217.07065
 21
468.413169
 31
0.0
  0
LINE
  8
0
 10
-217.07065
 20
468.413169
 30
0.0
 11
-217.074425
 21
468.326758
 31
0.0
  0
LINE
  8
0
 10
-217.07065
 20
468.413169
 30
0.0
 11
-217.059129
 21
468.499381
 31
0.0
  0
LINE
  8
0
 10
-217.059129
 20
468.499381
 30
0.0
 11
-217.07065
 21
468.413169
 31
0.0
  0
LINE
  8
0
 10
-217.059129
 20
468.499381
 30
0.0
 11
-217.041847
 21
468.583806
 31
0.0
  0
LINE
  8
0
 10
-217.041847
 20
468.583806
 30
0.0
 11
-217.059129
 21
468.499381
 31
0.0
  0
LINE
  8
0
 10
-217.041847
 20
468.583806
 30
0.0
 11
-217.01503
 21
468.666443
 31
0.0
  0
LINE
  8
0
 10
-217.01503
 20
468.666443
 30
0.0
 11
-217.041847
 21
468.583806
 31
0.0
  0
LINE
  8
0
 10
-217.01503
 20
468.666443
 30
0.0
 11
-216.982253
 21
468.747093
 31
0.0
  0
LINE
  8
0
 10
-216.982253
 20
468.747093
 30
0.0
 11
-217.01503
 21
468.666443
 31
0.0
  0
LINE
  8
0
 10
-216.982253
 20
468.747093
 30
0.0
 11
-216.941928
 21
468.823771
 31
0.0
  0
LINE
  8
0
 10
-216.941928
 20
468.823771
 30
0.0
 11
-216.982253
 21
468.747093
 31
0.0
  0
LINE
  8
0
 10
-216.941928
 20
468.823771
 30
0.0
 11
-216.894054
 21
468.89866
 31
0.0
  0
LINE
  8
0
 10
-216.894054
 20
468.89866
 30
0.0
 11
-216.941928
 21
468.823771
 31
0.0
  0
LINE
  8
0
 10
-216.894054
 20
468.89866
 30
0.0
 11
-216.842207
 21
468.96759
 31
0.0
  0
LINE
  8
0
 10
-216.842207
 20
468.96759
 30
0.0
 11
-216.894054
 21
468.89866
 31
0.0
  0
LINE
  8
0
 10
-216.842207
 20
468.96759
 30
0.0
 11
-216.782812
 21
469.030959
 31
0.0
  0
LINE
  8
0
 10
-216.782812
 20
469.030959
 30
0.0
 11
-216.842207
 21
468.96759
 31
0.0
  0
LINE
  8
0
 10
-216.782812
 20
469.030959
 30
0.0
 11
-216.719444
 21
469.090552
 31
0.0
  0
LINE
  8
0
 10
-216.719444
 20
469.090552
 30
0.0
 11
-216.782812
 21
469.030959
 31
0.0
  0
LINE
  8
0
 10
-216.719444
 20
469.090552
 30
0.0
 11
-216.650315
 21
469.142399
 31
0.0
  0
LINE
  8
0
 10
-216.650315
 20
469.142399
 30
0.0
 11
-216.719444
 21
469.090552
 31
0.0
  0
LINE
  8
0
 10
-216.650315
 20
469.142399
 30
0.0
 11
-216.575425
 21
469.190273
 31
0.0
  0
LINE
  8
0
 10
-216.575425
 20
469.190273
 30
0.0
 11
-216.650315
 21
469.142399
 31
0.0
  0
LINE
  8
0
 10
-216.575425
 20
469.190273
 30
0.0
 11
-216.498748
 21
469.230598
 31
0.0
  0
LINE
  8
0
 10
-216.498748
 20
469.230598
 30
0.0
 11
-216.575425
 21
469.190273
 31
0.0
  0
LINE
  8
0
 10
-216.498748
 20
469.230598
 30
0.0
 11
-216.418098
 21
469.263176
 31
0.0
  0
LINE
  8
0
 10
-216.418098
 20
469.263176
 30
0.0
 11
-216.498748
 21
469.230598
 31
0.0
  0
LINE
  8
0
 10
-216.418098
 20
469.263176
 30
0.0
 11
-216.335659
 21
469.290192
 31
0.0
  0
LINE
  8
0
 10
-216.335659
 20
469.290192
 30
0.0
 11
-216.418098
 21
469.263176
 31
0.0
  0
LINE
  8
0
 10
-216.335659
 20
469.290192
 30
0.0
 11
-216.251235
 21
469.307275
 31
0.0
  0
LINE
  8
0
 10
-216.251235
 20
469.307275
 30
0.0
 11
-216.335659
 21
469.290192
 31
0.0
  0
LINE
  8
0
 10
-216.251235
 20
469.307275
 30
0.0
 11
-216.164824
 21
469.318797
 31
0.0
  0
LINE
  8
0
 10
-216.164824
 20
469.318797
 30
0.0
 11
-216.251235
 21
469.307275
 31
0.0
  0
LINE
  8
0
 10
-216.164824
 20
469.318797
 30
0.0
 11
-216.076426
 21
469.32277
 31
0.0
  0
LINE
  8
0
 10
-216.076426
 20
469.32277
 30
0.0
 11
-216.164824
 21
469.318797
 31
0.0
  0
LINE
  8
0
 10
-216.076426
 20
469.32277
 30
0.0
 11
-190.347372
 21
469.32277
 31
0.0
  0
LINE
  8
0
 10
-190.347372
 20
469.32277
 30
0.0
 11
-216.076426
 21
469.32277
 31
0.0
  0
LINE
  8
0
 10
-217.074425
 20
468.324771
 30
0.0
 11
-217.074425
 21
467.328759
 31
0.0
  0
LINE
  8
0
 10
-217.074425
 20
467.328759
 30
0.0
 11
-217.074425
 21
468.324771
 31
0.0
  0
LINE
  8
0
 10
-218.206708
 20
468.324771
 30
0.0
 11
-218.252794
 21
468.399661
 31
0.0
  0
LINE
  8
0
 10
-218.252794
 20
468.399661
 30
0.0
 11
-218.306429
 21
468.46879
 31
0.0
  0
LINE
  8
0
 10
-218.306429
 20
468.46879
 30
0.0
 11
-218.364036
 21
468.532158
 31
0.0
  0
LINE
  8
0
 10
-218.364036
 20
468.532158
 30
0.0
 11
-218.429391
 21
468.591553
 31
0.0
  0
LINE
  8
0
 10
-218.429391
 20
468.591553
 30
0.0
 11
-218.498321
 21
468.6434
 31
0.0
  0
LINE
  8
0
 10
-218.498321
 20
468.6434
 30
0.0
 11
-218.571224
 21
468.691274
 31
0.0
  0
LINE
  8
0
 10
-218.571224
 20
468.691274
 30
0.0
 11
-218.6481
 21
468.731599
 31
0.0
  0
LINE
  8
0
 10
-218.6481
 20
468.731599
 30
0.0
 11
-218.72875
 21
468.764177
 31
0.0
  0
LINE
  8
0
 10
-218.72875
 20
468.764177
 30
0.0
 11
-218.811189
 21
468.791193
 31
0.0
  0
LINE
  8
0
 10
-218.811189
 20
468.791193
 30
0.0
 11
-218.8976
 21
468.808475
 31
0.0
  0
LINE
  8
0
 10
-218.8976
 20
468.808475
 30
0.0
 11
-218.984011
 21
468.819996
 31
0.0
  0
LINE
  8
0
 10
-218.984011
 20
468.819996
 30
0.0
 11
-219.070223
 21
468.823771
 31
0.0
  0
LINE
  8
0
 10
-218.206708
 20
468.324771
 30
0.0
 11
-218.166383
 21
468.248094
 31
0.0
  0
LINE
  8
0
 10
-218.166383
 20
468.248094
 30
0.0
 11
-218.133805
 21
468.167443
 31
0.0
  0
LINE
  8
0
 10
-218.133805
 20
468.167443
 30
0.0
 11
-218.106988
 21
468.085005
 31
0.0
  0
LINE
  8
0
 10
-218.106988
 20
468.085005
 30
0.0
 11
-218.087719
 21
468.000382
 31
0.0
  0
LINE
  8
0
 10
-218.087719
 20
468.000382
 30
0.0
 11
-218.076198
 21
467.91417
 31
0.0
  0
LINE
  8
0
 10
-218.076198
 20
467.91417
 30
0.0
 11
-218.072423
 21
467.827758
 31
0.0
  0
LINE
  8
0
 10
-218.072423
 20
467.827758
 30
0.0
 11
-218.076198
 21
467.73956
 31
0.0
  0
LINE
  8
0
 10
-218.076198
 20
467.73956
 30
0.0
 11
-218.087719
 21
467.653148
 31
0.0
  0
LINE
  8
0
 10
-218.087719
 20
467.653148
 30
0.0
 11
-218.076198
 21
467.73956
 31
0.0
  0
LINE
  8
0
 10
-218.076198
 20
467.73956
 30
0.0
 11
-218.072423
 21
467.827758
 31
0.0
  0
LINE
  8
0
 10
-218.072423
 20
467.827758
 30
0.0
 11
-218.076198
 21
467.91417
 31
0.0
  0
LINE
  8
0
 10
-218.076198
 20
467.91417
 30
0.0
 11
-218.087719
 21
468.000382
 31
0.0
  0
LINE
  8
0
 10
-218.087719
 20
468.000382
 30
0.0
 11
-218.106988
 21
468.085005
 31
0.0
  0
LINE
  8
0
 10
-218.106988
 20
468.085005
 30
0.0
 11
-218.133805
 21
468.167443
 31
0.0
  0
LINE
  8
0
 10
-218.133805
 20
468.167443
 30
0.0
 11
-218.166383
 21
468.248094
 31
0.0
  0
LINE
  8
0
 10
-218.166383
 20
468.248094
 30
0.0
 11
-218.206708
 21
468.324771
 31
0.0
  0
LINE
  8
0
 10
-218.206708
 20
468.324771
 30
0.0
 11
-218.252794
 21
468.399661
 31
0.0
  0
LINE
  8
0
 10
-218.252794
 20
468.399661
 30
0.0
 11
-218.306429
 21
468.46879
 31
0.0
  0
LINE
  8
0
 10
-218.306429
 20
468.46879
 30
0.0
 11
-218.364036
 21
468.532158
 31
0.0
  0
LINE
  8
0
 10
-218.364036
 20
468.532158
 30
0.0
 11
-218.429391
 21
468.591553
 31
0.0
  0
LINE
  8
0
 10
-218.429391
 20
468.591553
 30
0.0
 11
-218.498321
 21
468.6434
 31
0.0
  0
LINE
  8
0
 10
-218.498321
 20
468.6434
 30
0.0
 11
-218.571224
 21
468.691274
 31
0.0
  0
LINE
  8
0
 10
-218.571224
 20
468.691274
 30
0.0
 11
-218.6481
 21
468.731599
 31
0.0
  0
LINE
  8
0
 10
-218.6481
 20
468.731599
 30
0.0
 11
-218.72875
 21
468.764177
 31
0.0
  0
LINE
  8
0
 10
-218.72875
 20
468.764177
 30
0.0
 11
-218.811189
 21
468.791193
 31
0.0
  0
LINE
  8
0
 10
-218.811189
 20
468.791193
 30
0.0
 11
-218.8976
 21
468.808475
 31
0.0
  0
LINE
  8
0
 10
-218.8976
 20
468.808475
 30
0.0
 11
-218.984011
 21
468.819996
 31
0.0
  0
LINE
  8
0
 10
-218.984011
 20
468.819996
 30
0.0
 11
-219.070223
 21
468.823771
 31
0.0
  0
LINE
  8
0
 10
-218.087719
 20
467.653148
 30
0.0
 11
-218.106988
 21
467.568724
 31
0.0
  0
LINE
  8
0
 10
-218.106988
 20
467.568724
 30
0.0
 11
-218.087719
 21
467.653148
 31
0.0
  0
LINE
  8
0
 10
-218.106988
 20
467.568724
 30
0.0
 11
-218.133805
 21
467.486087
 31
0.0
  0
LINE
  8
0
 10
-218.133805
 20
467.486087
 30
0.0
 11
-218.106988
 21
467.568724
 31
0.0
  0
LINE
  8
0
 10
-218.133805
 20
467.486087
 30
0.0
 11
-218.166383
 21
467.405635
 31
0.0
  0
LINE
  8
0
 10
-218.166383
 20
467.405635
 30
0.0
 11
-218.133805
 21
467.486087
 31
0.0
  0
LINE
  8
0
 10
-218.166383
 20
467.405635
 30
0.0
 11
-218.206708
 21
467.328759
 31
0.0
  0
LINE
  8
0
 10
-218.206708
 20
467.328759
 30
0.0
 11
-218.166383
 21
467.405635
 31
0.0
  0
LINE
  8
0
 10
-218.206708
 20
467.328759
 30
0.0
 11
-218.252794
 21
467.25387
 31
0.0
  0
LINE
  8
0
 10
-218.252794
 20
467.25387
 30
0.0
 11
-218.206708
 21
467.328759
 31
0.0
  0
LINE
  8
0
 10
-218.252794
 20
467.25387
 30
0.0
 11
-218.306429
 21
467.184939
 31
0.0
  0
LINE
  8
0
 10
-218.306429
 20
467.184939
 30
0.0
 11
-218.252794
 21
467.25387
 31
0.0
  0
LINE
  8
0
 10
-218.306429
 20
467.184939
 30
0.0
 11
-218.364036
 21
467.121571
 31
0.0
  0
LINE
  8
0
 10
-218.364036
 20
467.121571
 30
0.0
 11
-218.306429
 21
467.184939
 31
0.0
  0
LINE
  8
0
 10
-218.364036
 20
467.121571
 30
0.0
 11
-218.429391
 21
467.061977
 31
0.0
  0
LINE
  8
0
 10
-218.429391
 20
467.061977
 30
0.0
 11
-218.364036
 21
467.121571
 31
0.0
  0
LINE
  8
0
 10
-218.429391
 20
467.061977
 30
0.0
 11
-218.498321
 21
467.010131
 31
0.0
  0
LINE
  8
0
 10
-218.498321
 20
467.010131
 30
0.0
 11
-218.429391
 21
467.061977
 31
0.0
  0
LINE
  8
0
 10
-218.498321
 20
467.010131
 30
0.0
 11
-218.571224
 21
466.962257
 31
0.0
  0
LINE
  8
0
 10
-218.571224
 20
466.962257
 30
0.0
 11
-218.498321
 21
467.010131
 31
0.0
  0
LINE
  8
0
 10
-218.571224
 20
466.962257
 30
0.0
 11
-218.6481
 21
466.921932
 31
0.0
  0
LINE
  8
0
 10
-218.6481
 20
466.921932
 30
0.0
 11
-218.571224
 21
466.962257
 31
0.0
  0
LINE
  8
0
 10
-218.6481
 20
466.921932
 30
0.0
 11
-218.72875
 21
466.889354
 31
0.0
  0
LINE
  8
0
 10
-218.72875
 20
466.889354
 30
0.0
 11
-218.6481
 21
466.921932
 31
0.0
  0
LINE
  8
0
 10
-218.72875
 20
466.889354
 30
0.0
 11
-218.811189
 21
466.862537
 31
0.0
  0
LINE
  8
0
 10
-218.811189
 20
466.862537
 30
0.0
 11
-218.72875
 21
466.889354
 31
0.0
  0
LINE
  8
0
 10
-218.811189
 20
466.862537
 30
0.0
 11
-218.8976
 21
466.845254
 31
0.0
  0
LINE
  8
0
 10
-218.8976
 20
466.845254
 30
0.0
 11
-218.811189
 21
466.862537
 31
0.0
  0
LINE
  8
0
 10
-218.8976
 20
466.845254
 30
0.0
 11
-218.984011
 21
466.833733
 31
0.0
  0
LINE
  8
0
 10
-218.984011
 20
466.833733
 30
0.0
 11
-218.8976
 21
466.845254
 31
0.0
  0
LINE
  8
0
 10
-218.984011
 20
466.833733
 30
0.0
 11
-219.070223
 21
466.82976
 31
0.0
  0
LINE
  8
0
 10
-219.070223
 20
466.82976
 30
0.0
 11
-218.984011
 21
466.833733
 31
0.0
  0
LINE
  8
0
 10
-216.076426
 20
466.330959
 30
0.0
 11
-190.347372
 21
466.330959
 31
0.0
  0
LINE
  8
0
 10
-190.347372
 20
466.330959
 30
0.0
 11
-187.756628
 21
467.827758
 31
0.0
  0
LINE
  8
0
 10
-187.756628
 20
467.827758
 30
0.0
 11
-190.347372
 21
469.32277
 31
0.0
  0
LINE
  8
0
 10
-190.347372
 20
469.32277
 30
0.0
 11
-187.756628
 21
467.827758
 31
0.0
  0
LINE
  8
0
 10
-187.756628
 20
467.827758
 30
0.0
 11
-190.347372
 21
466.330959
 31
0.0
  0
LINE
  8
0
 10
-190.347372
 20
466.330959
 30
0.0
 11
-216.076426
 21
466.330959
 31
0.0
  0
LINE
  8
0
 10
-223.869913
 20
470.428036
 30
0.0
 11
-223.743177
 21
470.372779
 31
0.0
  0
LINE
  8
0
 10
-223.743177
 20
470.372779
 30
0.0
 11
-223.614652
 21
470.321098
 31
0.0
  0
LINE
  8
0
 10
-223.614652
 20
470.321098
 30
0.0
 11
-223.486128
 21
470.303816
 31
0.0
  0
LINE
  8
0
 10
-223.486128
 20
470.303816
 30
0.0
 11
-223.355618
 21
470.309307
 31
0.0
  0
LINE
  8
0
 10
-223.355618
 20
470.309307
 30
0.0
 11
-223.225107
 21
470.305334
 31
0.0
  0
LINE
  8
0
 10
-223.225107
 20
470.305334
 30
0.0
 11
-223.355618
 21
470.309307
 31
0.0
  0
LINE
  8
0
 10
-223.355618
 20
470.309307
 30
0.0
 11
-223.486128
 21
470.303816
 31
0.0
  0
LINE
  8
0
 10
-223.486128
 20
470.303816
 30
0.0
 11
-223.614652
 21
470.321098
 31
0.0
  0
LINE
  8
0
 10
-223.614652
 20
470.321098
 30
0.0
 11
-223.743177
 21
470.372779
 31
0.0
  0
LINE
  8
0
 10
-223.743177
 20
470.372779
 30
0.0
 11
-223.869913
 21
470.428036
 31
0.0
  0
LINE
  8
0
 10
-223.869913
 20
470.428036
 30
0.0
 11
-223.996649
 21
470.493225
 31
0.0
  0
LINE
  8
0
 10
-223.996649
 20
470.493225
 30
0.0
 11
-223.869913
 21
470.428036
 31
0.0
  0
LINE
  8
0
 10
-223.996649
 20
470.493225
 30
0.0
 11
-224.119412
 21
470.56199
 31
0.0
  0
LINE
  8
0
 10
-224.119412
 20
470.56199
 30
0.0
 11
-223.996649
 21
470.493225
 31
0.0
  0
LINE
  8
0
 10
-224.119412
 20
470.56199
 30
0.0
 11
-224.240388
 21
470.61185
 31
0.0
  0
LINE
  8
0
 10
-224.240388
 20
470.61185
 30
0.0
 11
-224.119412
 21
470.56199
 31
0.0
  0
LINE
  8
0
 10
-224.240388
 20
470.61185
 30
0.0
 11
-224.357391
 21
470.669458
 31
0.0
  0
LINE
  8
0
 10
-224.357391
 20
470.669458
 30
0.0
 11
-224.240388
 21
470.61185
 31
0.0
  0
LINE
  8
0
 10
-224.357391
 20
470.669458
 30
0.0
 11
-224.472605
 21
470.757491
 31
0.0
  0
LINE
  8
0
 10
-224.472605
 20
470.757491
 30
0.0
 11
-224.357391
 21
470.669458
 31
0.0
  0
LINE
  8
0
 10
-224.472605
 20
470.757491
 30
0.0
 11
-224.583847
 21
470.82662
 31
0.0
  0
LINE
  8
0
 10
-224.583847
 20
470.82662
 30
0.0
 11
-224.472605
 21
470.757491
 31
0.0
  0
LINE
  8
0
 10
-224.583847
 20
470.82662
 30
0.0
 11
-224.691315
 21
470.899523
 31
0.0
  0
LINE
  8
0
 10
-224.691315
 20
470.899523
 30
0.0
 11
-224.583847
 21
470.82662
 31
0.0
  0
LINE
  8
0
 10
-224.691315
 20
470.899523
 30
0.0
 11
-224.795008
 21
470.980174
 31
0.0
  0
LINE
  8
0
 10
-224.795008
 20
470.980174
 30
0.0
 11
-224.691315
 21
470.899523
 31
0.0
  0
LINE
  8
0
 10
-224.795008
 20
470.980174
 30
0.0
 11
-224.894729
 21
471.064598
 31
0.0
  0
LINE
  8
0
 10
-224.894729
 20
471.064598
 30
0.0
 11
-224.795008
 21
470.980174
 31
0.0
  0
LINE
  8
0
 10
-224.894729
 20
471.064598
 30
0.0
 11
-224.988688
 21
471.154784
 31
0.0
  0
LINE
  8
0
 10
-224.988688
 20
471.154784
 30
0.0
 11
-224.894729
 21
471.064598
 31
0.0
  0
LINE
  8
0
 10
-233.02214
 20
461.368181
 30
0.0
 11
-233.033661
 21
461.454394
 31
0.0
  0
LINE
  8
0
 10
-233.033661
 20
461.454394
 30
0.0
 11
-233.037435
 21
461.542791
 31
0.0
  0
LINE
  8
0
 10
-233.02214
 20
461.368181
 30
0.0
 11
-233.004857
 21
461.283756
 31
0.0
  0
LINE
  8
0
 10
-233.004857
 20
461.283756
 30
0.0
 11
-232.977841
 21
461.20112
 31
0.0
  0
LINE
  8
0
 10
-232.977841
 20
461.20112
 30
0.0
 11
-232.945263
 21
461.120469
 31
0.0
  0
LINE
  8
0
 10
-232.945263
 20
461.120469
 30
0.0
 11
-232.904938
 21
461.043792
 31
0.0
  0
LINE
  8
0
 10
-232.904938
 20
461.043792
 30
0.0
 11
-232.857065
 21
460.968902
 31
0.0
  0
LINE
  8
0
 10
-232.857065
 20
460.968902
 30
0.0
 11
-232.805218
 21
460.899773
 31
0.0
  0
LINE
  8
0
 10
-232.805218
 20
460.899773
 30
0.0
 11
-232.745624
 21
460.836604
 31
0.0
  0
LINE
  8
0
 10
-232.745624
 20
460.836604
 30
0.0
 11
-232.682455
 21
460.77701
 31
0.0
  0
LINE
  8
0
 10
-232.682455
 20
460.77701
 30
0.0
 11
-232.613326
 21
460.725163
 31
0.0
  0
LINE
  8
0
 10
-232.613326
 20
460.725163
 30
0.0
 11
-232.538436
 21
460.67729
 31
0.0
  0
LINE
  8
0
 10
-232.538436
 20
460.67729
 30
0.0
 11
-232.461759
 21
460.636964
 31
0.0
  0
LINE
  8
0
 10
-232.461759
 20
460.636964
 30
0.0
 11
-232.381108
 21
460.604386
 31
0.0
  0
LINE
  8
0
 10
-232.381108
 20
460.604386
 30
0.0
 11
-232.298471
 21
460.577371
 31
0.0
  0
LINE
  8
0
 10
-232.298471
 20
460.577371
 30
0.0
 11
-232.214047
 21
460.560088
 31
0.0
  0
LINE
  8
0
 10
-232.214047
 20
460.560088
 30
0.0
 11
-232.127834
 21
460.548567
 31
0.0
  0
LINE
  8
0
 10
-232.127834
 20
460.548567
 30
0.0
 11
-232.039437
 21
460.544793
 31
0.0
  0
LINE
  8
0
 10
-233.033661
 20
461.454394
 30
0.0
 11
-233.037435
 21
461.542791
 31
0.0
  0
LINE
  8
0
 10
-233.033661
 20
461.454394
 30
0.0
 11
-233.02214
 21
461.368181
 31
0.0
  0
LINE
  8
0
 10
-233.02214
 20
461.368181
 30
0.0
 11
-233.004857
 21
461.283756
 31
0.0
  0
LINE
  8
0
 10
-233.004857
 20
461.283756
 30
0.0
 11
-232.977841
 21
461.20112
 31
0.0
  0
LINE
  8
0
 10
-232.977841
 20
461.20112
 30
0.0
 11
-232.945263
 21
461.120469
 31
0.0
  0
LINE
  8
0
 10
-232.945263
 20
461.120469
 30
0.0
 11
-232.904938
 21
461.043792
 31
0.0
  0
LINE
  8
0
 10
-232.904938
 20
461.043792
 30
0.0
 11
-232.857065
 21
460.968902
 31
0.0
  0
LINE
  8
0
 10
-232.857065
 20
460.968902
 30
0.0
 11
-232.805218
 21
460.899773
 31
0.0
  0
LINE
  8
0
 10
-232.805218
 20
460.899773
 30
0.0
 11
-232.745624
 21
460.836604
 31
0.0
  0
LINE
  8
0
 10
-232.745624
 20
460.836604
 30
0.0
 11
-232.682455
 21
460.77701
 31
0.0
  0
LINE
  8
0
 10
-232.682455
 20
460.77701
 30
0.0
 11
-232.613326
 21
460.725163
 31
0.0
  0
LINE
  8
0
 10
-232.613326
 20
460.725163
 30
0.0
 11
-232.538436
 21
460.67729
 31
0.0
  0
LINE
  8
0
 10
-232.538436
 20
460.67729
 30
0.0
 11
-232.461759
 21
460.636964
 31
0.0
  0
LINE
  8
0
 10
-232.461759
 20
460.636964
 30
0.0
 11
-232.381108
 21
460.604386
 31
0.0
  0
LINE
  8
0
 10
-232.381108
 20
460.604386
 30
0.0
 11
-232.298471
 21
460.577371
 31
0.0
  0
LINE
  8
0
 10
-232.298471
 20
460.577371
 30
0.0
 11
-232.214047
 21
460.560088
 31
0.0
  0
LINE
  8
0
 10
-232.214047
 20
460.560088
 30
0.0
 11
-232.127834
 21
460.548567
 31
0.0
  0
LINE
  8
0
 10
-232.127834
 20
460.548567
 30
0.0
 11
-232.039437
 21
460.544793
 31
0.0
  0
LINE
  8
0
 10
-229.460214
 20
460.544793
 30
0.0
 11
-229.373803
 21
460.548567
 31
0.0
  0
LINE
  8
0
 10
-229.373803
 20
460.548567
 30
0.0
 11
-229.287591
 21
460.560088
 31
0.0
  0
LINE
  8
0
 10
-229.287591
 20
460.560088
 30
0.0
 11
-229.202968
 21
460.577371
 31
0.0
  0
LINE
  8
0
 10
-229.202968
 20
460.577371
 30
0.0
 11
-229.118543
 21
460.604386
 31
0.0
  0
LINE
  8
0
 10
-229.118543
 20
460.604386
 30
0.0
 11
-229.038091
 21
460.636964
 31
0.0
  0
LINE
  8
0
 10
-229.038091
 20
460.636964
 30
0.0
 11
-228.961215
 21
460.67729
 31
0.0
  0
LINE
  8
0
 10
-228.961215
 20
460.67729
 30
0.0
 11
-228.888312
 21
460.725163
 31
0.0
  0
LINE
  8
0
 10
-228.888312
 20
460.725163
 30
0.0
 11
-228.819183
 21
460.77701
 31
0.0
  0
LINE
  8
0
 10
-228.819183
 20
460.77701
 30
0.0
 11
-228.754027
 21
460.836604
 31
0.0
  0
LINE
  8
0
 10
-229.373803
 20
460.548567
 30
0.0
 11
-229.460214
 21
460.544793
 31
0.0
  0
LINE
  8
0
 10
-229.373803
 20
460.548567
 30
0.0
 11
-229.287591
 21
460.560088
 31
0.0
  0
LINE
  8
0
 10
-229.287591
 20
460.560088
 30
0.0
 11
-229.202968
 21
460.577371
 31
0.0
  0
LINE
  8
0
 10
-229.202968
 20
460.577371
 30
0.0
 11
-229.118543
 21
460.604386
 31
0.0
  0
LINE
  8
0
 10
-229.118543
 20
460.604386
 30
0.0
 11
-229.038091
 21
460.636964
 31
0.0
  0
LINE
  8
0
 10
-229.038091
 20
460.636964
 30
0.0
 11
-228.961215
 21
460.67729
 31
0.0
  0
LINE
  8
0
 10
-228.961215
 20
460.67729
 30
0.0
 11
-228.888312
 21
460.725163
 31
0.0
  0
LINE
  8
0
 10
-228.888312
 20
460.725163
 30
0.0
 11
-228.819183
 21
460.77701
 31
0.0
  0
LINE
  8
0
 10
-228.819183
 20
460.77701
 30
0.0
 11
-228.754027
 21
460.836604
 31
0.0
  0
LINE
  8
0
 10
-224.988688
 20
464.601744
 30
0.0
 11
-224.894729
 21
464.691929
 31
0.0
  0
LINE
  8
0
 10
-224.894729
 20
464.691929
 30
0.0
 11
-224.988688
 21
464.601744
 31
0.0
  0
LINE
  8
0
 10
-224.894729
 20
464.691929
 30
0.0
 11
-224.795008
 21
464.776354
 31
0.0
  0
LINE
  8
0
 10
-224.795008
 20
464.776354
 30
0.0
 11
-224.894729
 21
464.691929
 31
0.0
  0
LINE
  8
0
 10
-224.795008
 20
464.776354
 30
0.0
 11
-224.691315
 21
464.857004
 31
0.0
  0
LINE
  8
0
 10
-224.691315
 20
464.857004
 30
0.0
 11
-224.795008
 21
464.776354
 31
0.0
  0
LINE
  8
0
 10
-224.691315
 20
464.857004
 30
0.0
 11
-224.583847
 21
464.929908
 31
0.0
  0
LINE
  8
0
 10
-224.583847
 20
464.929908
 30
0.0
 11
-224.691315
 21
464.857004
 31
0.0
  0
LINE
  8
0
 10
-224.583847
 20
464.929908
 30
0.0
 11
-224.472605
 21
464.999036
 31
0.0
  0
LINE
  8
0
 10
-224.472605
 20
464.999036
 30
0.0
 11
-224.583847
 21
464.929908
 31
0.0
  0
LINE
  8
0
 10
-224.472605
 20
464.999036
 30
0.0
 11
-224.357391
 21
465.060418
 31
0.0
  0
LINE
  8
0
 10
-224.357391
 20
465.060418
 30
0.0
 11
-224.472605
 21
464.999036
 31
0.0
  0
LINE
  8
0
 10
-224.357391
 20
465.060418
 30
0.0
 11
-224.240388
 21
465.118026
 31
0.0
  0
LINE
  8
0
 10
-224.240388
 20
465.118026
 30
0.0
 11
-224.357391
 21
465.060418
 31
0.0
  0
LINE
  8
0
 10
-224.240388
 20
465.118026
 30
0.0
 11
-224.119412
 21
465.167886
 31
0.0
  0
LINE
  8
0
 10
-224.119412
 20
465.167886
 30
0.0
 11
-224.240388
 21
465.118026
 31
0.0
  0
LINE
  8
0
 10
-224.119412
 20
465.167886
 30
0.0
 11
-223.996649
 21
465.210197
 31
0.0
  0
LINE
  8
0
 10
-223.996649
 20
465.210197
 30
0.0
 11
-224.119412
 21
465.167886
 31
0.0
  0
LINE
  8
0
 10
-223.996649
 20
465.210197
 30
0.0
 11
-223.869913
 21
465.248536
 31
0.0
  0
LINE
  8
0
 10
-223.869913
 20
465.248536
 30
0.0
 11
-223.996649
 21
465.210197
 31
0.0
  0
LINE
  8
0
 10
-223.869913
 20
465.248536
 30
0.0
 11
-223.743177
 21
465.279128
 31
0.0
  0
LINE
  8
0
 10
-223.743177
 20
465.279128
 30
0.0
 11
-223.869913
 21
465.248536
 31
0.0
  0
LINE
  8
0
 10
-223.743177
 20
465.279128
 30
0.0
 11
-223.614652
 21
465.302171
 31
0.0
  0
LINE
  8
0
 10
-223.614652
 20
465.302171
 30
0.0
 11
-223.743177
 21
465.279128
 31
0.0
  0
LINE
  8
0
 10
-223.614652
 20
465.302171
 30
0.0
 11
-223.486128
 21
465.319453
 31
0.0
  0
LINE
  8
0
 10
-223.486128
 20
465.319453
 30
0.0
 11
-223.614652
 21
465.302171
 31
0.0
  0
LINE
  8
0
 10
-223.486128
 20
465.319453
 30
0.0
 11
-223.355618
 21
465.329186
 31
0.0
  0
LINE
  8
0
 10
-223.355618
 20
465.329186
 30
0.0
 11
-223.486128
 21
465.319453
 31
0.0
  0
LINE
  8
0
 10
-223.355618
 20
465.329186
 30
0.0
 11
-223.225107
 21
465.332961
 31
0.0
  0
LINE
  8
0
 10
-223.225107
 20
465.332961
 30
0.0
 11
-223.355618
 21
465.329186
 31
0.0
  0
LINE
  8
0
 10
-190.347372
 20
465.332961
 30
0.0
 11
-190.260961
 21
465.336735
 31
0.0
  0
LINE
  8
0
 10
-190.260961
 20
465.336735
 30
0.0
 11
-190.17455
 21
465.348257
 31
0.0
  0
LINE
  8
0
 10
-190.17455
 20
465.348257
 30
0.0
 11
-190.090125
 21
465.367525
 31
0.0
  0
LINE
  8
0
 10
-190.090125
 20
465.367525
 30
0.0
 11
-190.007687
 21
465.392356
 31
0.0
  0
LINE
  8
0
 10
-190.007687
 20
465.392356
 30
0.0
 11
-189.927037
 21
465.42692
 31
0.0
  0
LINE
  8
0
 10
-189.927037
 20
465.42692
 30
0.0
 11
-189.848373
 21
465.467246
 31
0.0
  0
LINE
  8
0
 10
-189.848373
 20
465.467246
 30
0.0
 11
-189.927037
 21
465.42692
 31
0.0
  0
LINE
  8
0
 10
-189.927037
 20
465.42692
 30
0.0
 11
-190.007687
 21
465.392356
 31
0.0
  0
LINE
  8
0
 10
-190.007687
 20
465.392356
 30
0.0
 11
-190.090125
 21
465.367525
 31
0.0
  0
LINE
  8
0
 10
-190.090125
 20
465.367525
 30
0.0
 11
-190.17455
 21
465.348257
 31
0.0
  0
LINE
  8
0
 10
-190.17455
 20
465.348257
 30
0.0
 11
-190.260961
 21
465.336735
 31
0.0
  0
LINE
  8
0
 10
-190.260961
 20
465.336735
 30
0.0
 11
-190.347372
 21
465.332961
 31
0.0
  0
LINE
  8
0
 10
-189.848373
 20
470.186285
 30
0.0
 11
-189.927037
 21
470.22661
 31
0.0
  0
LINE
  8
0
 10
-189.927037
 20
470.22661
 30
0.0
 11
-190.007687
 21
470.261175
 31
0.0
  0
LINE
  8
0
 10
-190.007687
 20
470.261175
 30
0.0
 11
-190.090125
 21
470.286005
 31
0.0
  0
LINE
  8
0
 10
-190.090125
 20
470.286005
 30
0.0
 11
-190.17455
 21
470.305274
 31
0.0
  0
LINE
  8
0
 10
-190.17455
 20
470.305274
 30
0.0
 11
-190.260961
 21
470.316795
 31
0.0
  0
LINE
  8
0
 10
-190.260961
 20
470.316795
 30
0.0
 11
-190.347372
 21
470.32057
 31
0.0
  0
LINE
  8
0
 10
-190.347372
 20
470.32057
 30
0.0
 11
-190.260961
 21
470.316795
 31
0.0
  0
LINE
  8
0
 10
-190.260961
 20
470.316795
 30
0.0
 11
-190.17455
 21
470.305274
 31
0.0
  0
LINE
  8
0
 10
-190.17455
 20
470.305274
 30
0.0
 11
-190.090125
 21
470.286005
 31
0.0
  0
LINE
  8
0
 10
-190.090125
 20
470.286005
 30
0.0
 11
-190.007687
 21
470.261175
 31
0.0
  0
LINE
  8
0
 10
-190.007687
 20
470.261175
 30
0.0
 11
-189.927037
 21
470.22661
 31
0.0
  0
LINE
  8
0
 10
-189.927037
 20
470.22661
 30
0.0
 11
-189.848373
 21
470.186285
 31
0.0
  0
LINE
  8
0
 10
-230.836237
 20
472.312097
 30
0.0
 11
-230.899605
 21
472.252503
 31
0.0
  0
LINE
  8
0
 10
-230.899605
 20
472.252503
 30
0.0
 11
-230.836237
 21
472.312097
 31
0.0
  0
LINE
  8
0
 10
-230.899605
 20
472.252503
 30
0.0
 11
-230.968535
 21
472.200656
 31
0.0
  0
LINE
  8
0
 10
-230.968535
 20
472.200656
 30
0.0
 11
-230.899605
 21
472.252503
 31
0.0
  0
LINE
  8
0
 10
-230.968535
 20
472.200656
 30
0.0
 11
-231.043425
 21
472.152782
 31
0.0
  0
LINE
  8
0
 10
-231.043425
 20
472.152782
 30
0.0
 11
-230.968535
 21
472.200656
 31
0.0
  0
LINE
  8
0
 10
-231.043425
 20
472.152782
 30
0.0
 11
-231.120301
 21
472.114444
 31
0.0
  0
LINE
  8
0
 10
-231.120301
 20
472.114444
 30
0.0
 11
-231.043425
 21
472.152782
 31
0.0
  0
LINE
  8
0
 10
-231.120301
 20
472.114444
 30
0.0
 11
-231.200752
 21
472.079879
 31
0.0
  0
LINE
  8
0
 10
-231.200752
 20
472.079879
 30
0.0
 11
-231.120301
 21
472.114444
 31
0.0
  0
LINE
  8
0
 10
-231.200752
 20
472.079879
 30
0.0
 11
-231.283389
 21
472.05485
 31
0.0
  0
LINE
  8
0
 10
-231.283389
 20
472.05485
 30
0.0
 11
-231.200752
 21
472.079879
 31
0.0
  0
LINE
  8
0
 10
-231.283389
 20
472.05485
 30
0.0
 11
-231.367814
 21
472.03578
 31
0.0
  0
LINE
  8
0
 10
-231.367814
 20
472.03578
 30
0.0
 11
-231.283389
 21
472.05485
 31
0.0
  0
LINE
  8
0
 10
-231.367814
 20
472.03578
 30
0.0
 11
-231.454225
 21
472.024258
 31
0.0
  0
LINE
  8
0
 10
-231.454225
 20
472.024258
 30
0.0
 11
-231.367814
 21
472.03578
 31
0.0
  0
LINE
  8
0
 10
-231.454225
 20
472.024258
 30
0.0
 11
-231.540437
 21
472.020285
 31
0.0
  0
LINE
  8
0
 10
-231.540437
 20
472.020285
 30
0.0
 11
-231.454225
 21
472.024258
 31
0.0
  0
LINE
  8
0
 10
-231.540437
 20
472.020285
 30
0.0
 11
-231.628835
 21
472.024258
 31
0.0
  0
LINE
  8
0
 10
-231.628835
 20
472.024258
 30
0.0
 11
-231.540437
 21
472.020285
 31
0.0
  0
LINE
  8
0
 10
-231.628835
 20
472.024258
 30
0.0
 11
-231.715246
 21
472.03578
 31
0.0
  0
LINE
  8
0
 10
-231.715246
 20
472.03578
 30
0.0
 11
-231.628835
 21
472.024258
 31
0.0
  0
LINE
  8
0
 10
-231.715246
 20
472.03578
 30
0.0
 11
-231.799671
 21
472.05485
 31
0.0
  0
LINE
  8
0
 10
-231.799671
 20
472.05485
 30
0.0
 11
-231.715246
 21
472.03578
 31
0.0
  0
LINE
  8
0
 10
-231.799671
 20
472.05485
 30
0.0
 11
-231.882109
 21
472.079879
 31
0.0
  0
LINE
  8
0
 10
-231.882109
 20
472.079879
 30
0.0
 11
-231.799671
 21
472.05485
 31
0.0
  0
LINE
  8
0
 10
-231.882109
 20
472.079879
 30
0.0
 11
-231.962759
 21
472.114444
 31
0.0
  0
LINE
  8
0
 10
-231.962759
 20
472.114444
 30
0.0
 11
-231.882109
 21
472.079879
 31
0.0
  0
LINE
  8
0
 10
-231.962759
 20
472.114444
 30
0.0
 11
-232.039437
 21
472.152782
 31
0.0
  0
LINE
  8
0
 10
-232.039437
 20
472.152782
 30
0.0
 11
-231.962759
 21
472.114444
 31
0.0
  0
LINE
  8
0
 10
-232.039437
 20
472.152782
 30
0.0
 11
-232.114326
 21
472.200656
 31
0.0
  0
LINE
  8
0
 10
-232.114326
 20
472.200656
 30
0.0
 11
-232.039437
 21
472.152782
 31
0.0
  0
LINE
  8
0
 10
-232.114326
 20
472.200656
 30
0.0
 11
-232.183455
 21
472.252503
 31
0.0
  0
LINE
  8
0
 10
-232.183455
 20
472.252503
 30
0.0
 11
-232.114326
 21
472.200656
 31
0.0
  0
LINE
  8
0
 10
-232.183455
 20
472.252503
 30
0.0
 11
-232.246823
 21
472.312097
 31
0.0
  0
LINE
  8
0
 10
-232.246823
 20
472.312097
 30
0.0
 11
-232.183455
 21
472.252503
 31
0.0
  0
LINE
  8
0
 10
-233.037435
 20
474.213935
 30
0.0
 11
-233.033661
 21
474.302134
 31
0.0
  0
LINE
  8
0
 10
-233.033661
 20
474.302134
 30
0.0
 11
-233.037435
 21
474.213935
 31
0.0
  0
LINE
  8
0
 10
-233.033661
 20
474.302134
 30
0.0
 11
-233.02214
 21
474.388545
 31
0.0
  0
LINE
  8
0
 10
-233.02214
 20
474.388545
 30
0.0
 11
-233.033661
 21
474.302134
 31
0.0
  0
LINE
  8
0
 10
-233.02214
 20
474.388545
 30
0.0
 11
-233.004857
 21
474.47297
 31
0.0
  0
LINE
  8
0
 10
-233.004857
 20
474.47297
 30
0.0
 11
-233.02214
 21
474.388545
 31
0.0
  0
LINE
  8
0
 10
-233.004857
 20
474.47297
 30
0.0
 11
-232.977841
 21
474.555408
 31
0.0
  0
LINE
  8
0
 10
-232.977841
 20
474.555408
 30
0.0
 11
-233.004857
 21
474.47297
 31
0.0
  0
LINE
  8
0
 10
-232.977841
 20
474.555408
 30
0.0
 11
-232.945263
 21
474.636058
 31
0.0
  0
LINE
  8
0
 10
-232.945263
 20
474.636058
 30
0.0
 11
-232.977841
 21
474.555408
 31
0.0
  0
LINE
  8
0
 10
-232.945263
 20
474.636058
 30
0.0
 11
-232.904938
 21
474.712736
 31
0.0
  0
LINE
  8
0
 10
-232.904938
 20
474.712736
 30
0.0
 11
-232.945263
 21
474.636058
 31
0.0
  0
LINE
  8
0
 10
-232.904938
 20
474.712736
 30
0.0
 11
-232.857065
 21
474.787626
 31
0.0
  0
LINE
  8
0
 10
-232.857065
 20
474.787626
 30
0.0
 11
-232.904938
 21
474.712736
 31
0.0
  0
LINE
  8
0
 10
-232.857065
 20
474.787626
 30
0.0
 11
-232.805218
 21
474.856754
 31
0.0
  0
LINE
  8
0
 10
-232.805218
 20
474.856754
 30
0.0
 11
-232.857065
 21
474.787626
 31
0.0
  0
LINE
  8
0
 10
-232.805218
 20
474.856754
 30
0.0
 11
-232.745624
 21
474.920123
 31
0.0
  0
LINE
  8
0
 10
-232.745624
 20
474.920123
 30
0.0
 11
-232.805218
 21
474.856754
 31
0.0
  0
LINE
  8
0
 10
-232.745624
 20
474.920123
 30
0.0
 11
-232.682455
 21
474.979518
 31
0.0
  0
LINE
  8
0
 10
-232.682455
 20
474.979518
 30
0.0
 11
-232.745624
 21
474.920123
 31
0.0
  0
LINE
  8
0
 10
-232.682455
 20
474.979518
 30
0.0
 11
-232.613326
 21
475.031364
 31
0.0
  0
LINE
  8
0
 10
-232.613326
 20
475.031364
 30
0.0
 11
-232.682455
 21
474.979518
 31
0.0
  0
LINE
  8
0
 10
-232.613326
 20
475.031364
 30
0.0
 11
-232.538436
 21
475.079437
 31
0.0
  0
LINE
  8
0
 10
-232.538436
 20
475.079437
 30
0.0
 11
-232.613326
 21
475.031364
 31
0.0
  0
LINE
  8
0
 10
-232.538436
 20
475.079437
 30
0.0
 11
-232.461759
 21
475.119563
 31
0.0
  0
LINE
  8
0
 10
-232.461759
 20
475.119563
 30
0.0
 11
-232.538436
 21
475.079437
 31
0.0
  0
LINE
  8
0
 10
-232.461759
 20
475.119563
 30
0.0
 11
-232.381108
 21
475.15234
 31
0.0
  0
LINE
  8
0
 10
-232.381108
 20
475.15234
 30
0.0
 11
-232.461759
 21
475.119563
 31
0.0
  0
LINE
  8
0
 10
-232.381108
 20
475.15234
 30
0.0
 11
-232.298471
 21
475.179157
 31
0.0
  0
LINE
  8
0
 10
-232.298471
 20
475.179157
 30
0.0
 11
-232.381108
 21
475.15234
 31
0.0
  0
LINE
  8
0
 10
-232.298471
 20
475.179157
 30
0.0
 11
-232.214047
 21
475.196439
 31
0.0
  0
LINE
  8
0
 10
-232.214047
 20
475.196439
 30
0.0
 11
-232.298471
 21
475.179157
 31
0.0
  0
LINE
  8
0
 10
-232.214047
 20
475.196439
 30
0.0
 11
-232.127834
 21
475.207961
 31
0.0
  0
LINE
  8
0
 10
-232.127834
 20
475.207961
 30
0.0
 11
-232.214047
 21
475.196439
 31
0.0
  0
LINE
  8
0
 10
-232.127834
 20
475.207961
 30
0.0
 11
-232.039437
 21
475.211735
 31
0.0
  0
LINE
  8
0
 10
-232.039437
 20
475.211735
 30
0.0
 11
-232.127834
 21
475.207961
 31
0.0
  0
LINE
  8
0
 10
-229.460214
 20
475.211735
 30
0.0
 11
-229.373803
 21
475.207961
 31
0.0
  0
LINE
  8
0
 10
-229.373803
 20
475.207961
 30
0.0
 11
-229.460214
 21
475.211735
 31
0.0
  0
LINE
  8
0
 10
-229.373803
 20
475.207961
 30
0.0
 11
-229.287591
 21
475.196439
 31
0.0
  0
LINE
  8
0
 10
-229.287591
 20
475.196439
 30
0.0
 11
-229.373803
 21
475.207961
 31
0.0
  0
LINE
  8
0
 10
-229.287591
 20
475.196439
 30
0.0
 11
-229.202968
 21
475.179157
 31
0.0
  0
LINE
  8
0
 10
-229.202968
 20
475.179157
 30
0.0
 11
-229.287591
 21
475.196439
 31
0.0
  0
LINE
  8
0
 10
-229.202968
 20
475.179157
 30
0.0
 11
-229.118543
 21
475.15234
 31
0.0
  0
LINE
  8
0
 10
-229.118543
 20
475.15234
 30
0.0
 11
-229.202968
 21
475.179157
 31
0.0
  0
LINE
  8
0
 10
-229.118543
 20
475.15234
 30
0.0
 11
-229.038091
 21
475.119563
 31
0.0
  0
LINE
  8
0
 10
-229.038091
 20
475.119563
 30
0.0
 11
-229.118543
 21
475.15234
 31
0.0
  0
LINE
  8
0
 10
-229.038091
 20
475.119563
 30
0.0
 11
-228.961215
 21
475.079437
 31
0.0
  0
LINE
  8
0
 10
-228.961215
 20
475.079437
 30
0.0
 11
-229.038091
 21
475.119563
 31
0.0
  0
LINE
  8
0
 10
-228.961215
 20
475.079437
 30
0.0
 11
-228.888312
 21
475.031364
 31
0.0
  0
LINE
  8
0
 10
-228.888312
 20
475.031364
 30
0.0
 11
-228.961215
 21
475.079437
 31
0.0
  0
LINE
  8
0
 10
-228.888312
 20
475.031364
 30
0.0
 11
-228.819183
 21
474.979518
 31
0.0
  0
LINE
  8
0
 10
-228.819183
 20
474.979518
 30
0.0
 11
-228.888312
 21
475.031364
 31
0.0
  0
LINE
  8
0
 10
-228.819183
 20
474.979518
 30
0.0
 11
-228.754027
 21
474.920123
 31
0.0
  0
LINE
  8
0
 10
-228.754027
 20
474.920123
 30
0.0
 11
-228.819183
 21
474.979518
 31
0.0
  0
LINE
  8
0
 10
-229.972523
 20
473.880011
 30
0.0
 11
-230.018609
 21
473.920138
 31
0.0
  0
LINE
  8
0
 10
-230.018609
 20
473.920138
 30
0.0
 11
-230.066681
 21
473.954702
 31
0.0
  0
LINE
  8
0
 10
-230.066681
 20
473.954702
 30
0.0
 11
-230.120316
 21
473.983506
 31
0.0
  0
LINE
  8
0
 10
-230.120316
 20
473.983506
 30
0.0
 11
-230.177923
 21
474.004562
 31
0.0
  0
LINE
  8
0
 10
-230.177923
 20
474.004562
 30
0.0
 11
-230.235531
 21
474.01807
 31
0.0
  0
LINE
  8
0
 10
-230.235531
 20
474.01807
 30
0.0
 11
-230.294926
 21
474.025817
 31
0.0
  0
LINE
  8
0
 10
-230.294926
 20
474.025817
 30
0.0
 11
-230.356506
 21
474.025817
 31
0.0
  0
LINE
  8
0
 10
-230.356506
 20
474.025817
 30
0.0
 11
-230.415901
 21
474.01807
 31
0.0
  0
LINE
  8
0
 10
-230.415901
 20
474.01807
 30
0.0
 11
-230.473509
 21
474.004562
 31
0.0
  0
LINE
  8
0
 10
-230.473509
 20
474.004562
 30
0.0
 11
-230.531116
 21
473.983506
 31
0.0
  0
LINE
  8
0
 10
-230.531116
 20
473.983506
 30
0.0
 11
-230.582963
 21
473.954702
 31
0.0
  0
LINE
  8
0
 10
-230.582963
 20
473.954702
 30
0.0
 11
-230.632823
 21
473.920138
 31
0.0
  0
LINE
  8
0
 10
-230.632823
 20
473.920138
 30
0.0
 11
-230.678909
 21
473.880011
 31
0.0
  0
LINE
  8
0
 10
-230.678909
 20
473.880011
 30
0.0
 11
-230.632823
 21
473.920138
 31
0.0
  0
LINE
  8
0
 10
-230.632823
 20
473.920138
 30
0.0
 11
-230.582963
 21
473.954702
 31
0.0
  0
LINE
  8
0
 10
-230.582963
 20
473.954702
 30
0.0
 11
-230.531116
 21
473.983506
 31
0.0
  0
LINE
  8
0
 10
-230.531116
 20
473.983506
 30
0.0
 11
-230.473509
 21
474.004562
 31
0.0
  0
LINE
  8
0
 10
-230.473509
 20
474.004562
 30
0.0
 11
-230.415901
 21
474.01807
 31
0.0
  0
LINE
  8
0
 10
-230.415901
 20
474.01807
 30
0.0
 11
-230.356506
 21
474.025817
 31
0.0
  0
LINE
  8
0
 10
-230.356506
 20
474.025817
 30
0.0
 11
-230.294926
 21
474.025817
 31
0.0
  0
LINE
  8
0
 10
-230.294926
 20
474.025817
 30
0.0
 11
-230.235531
 21
474.01807
 31
0.0
  0
LINE
  8
0
 10
-230.235531
 20
474.01807
 30
0.0
 11
-230.177923
 21
474.004562
 31
0.0
  0
LINE
  8
0
 10
-230.177923
 20
474.004562
 30
0.0
 11
-230.120316
 21
473.983506
 31
0.0
  0
LINE
  8
0
 10
-230.120316
 20
473.983506
 30
0.0
 11
-230.066681
 21
473.954702
 31
0.0
  0
LINE
  8
0
 10
-230.066681
 20
473.954702
 30
0.0
 11
-230.018609
 21
473.920138
 31
0.0
  0
LINE
  8
0
 10
-230.018609
 20
473.920138
 30
0.0
 11
-229.972523
 21
473.880011
 31
0.0
  0
LINE
  8
0
 10
-229.972523
 20
473.880011
 30
0.0
 11
-229.932396
 21
473.835713
 31
0.0
  0
LINE
  8
0
 10
-229.932396
 20
473.835713
 30
0.0
 11
-229.972523
 21
473.880011
 31
0.0
  0
LINE
  8
0
 10
-229.932396
 20
473.835713
 30
0.0
 11
-229.897832
 21
473.785853
 31
0.0
  0
LINE
  8
0
 10
-229.897832
 20
473.785853
 30
0.0
 11
-229.932396
 21
473.835713
 31
0.0
  0
LINE
  8
0
 10
-229.897832
 20
473.785853
 30
0.0
 11
-229.870816
 21
473.732218
 31
0.0
  0
LINE
  8
0
 10
-229.870816
 20
473.732218
 30
0.0
 11
-229.897832
 21
473.785853
 31
0.0
  0
LINE
  8
0
 10
-229.870816
 20
473.732218
 30
0.0
 11
-229.84976
 21
473.676399
 31
0.0
  0
LINE
  8
0
 10
-229.84976
 20
473.676399
 30
0.0
 11
-229.870816
 21
473.732218
 31
0.0
  0
LINE
  8
0
 10
-229.84976
 20
473.676399
 30
0.0
 11
-229.834464
 21
473.617003
 31
0.0
  0
LINE
  8
0
 10
-229.834464
 20
473.617003
 30
0.0
 11
-229.84976
 21
473.676399
 31
0.0
  0
LINE
  8
0
 10
-229.834464
 20
473.617003
 30
0.0
 11
-229.826717
 21
473.557608
 31
0.0
  0
LINE
  8
0
 10
-229.826717
 20
473.557608
 30
0.0
 11
-229.834464
 21
473.617003
 31
0.0
  0
LINE
  8
0
 10
-229.826717
 20
473.557608
 30
0.0
 11
-229.826717
 21
473.498014
 31
0.0
  0
LINE
  8
0
 10
-229.826717
 20
473.498014
 30
0.0
 11
-229.826717
 21
473.557608
 31
0.0
  0
LINE
  8
0
 10
-229.826717
 20
473.498014
 30
0.0
 11
-229.834464
 21
473.438619
 31
0.0
  0
LINE
  8
0
 10
-229.834464
 20
473.438619
 30
0.0
 11
-229.826717
 21
473.498014
 31
0.0
  0
LINE
  8
0
 10
-229.834464
 20
473.438619
 30
0.0
 11
-229.84976
 21
473.379025
 31
0.0
  0
LINE
  8
0
 10
-229.84976
 20
473.379025
 30
0.0
 11
-229.834464
 21
473.438619
 31
0.0
  0
LINE
  8
0
 10
-229.84976
 20
473.379025
 30
0.0
 11
-229.870816
 21
473.323404
 31
0.0
  0
LINE
  8
0
 10
-229.870816
 20
473.323404
 30
0.0
 11
-229.84976
 21
473.379025
 31
0.0
  0
LINE
  8
0
 10
-229.870816
 20
473.323404
 30
0.0
 11
-229.897832
 21
473.269571
 31
0.0
  0
LINE
  8
0
 10
-229.897832
 20
473.269571
 30
0.0
 11
-229.870816
 21
473.323404
 31
0.0
  0
LINE
  8
0
 10
-229.897832
 20
473.269571
 30
0.0
 11
-229.932396
 21
473.219711
 31
0.0
  0
LINE
  8
0
 10
-229.932396
 20
473.219711
 30
0.0
 11
-229.897832
 21
473.269571
 31
0.0
  0
LINE
  8
0
 10
-229.932396
 20
473.219711
 30
0.0
 11
-229.972523
 21
473.175612
 31
0.0
  0
LINE
  8
0
 10
-229.972523
 20
473.175612
 30
0.0
 11
-229.932396
 21
473.219711
 31
0.0
  0
LINE
  8
0
 10
-225.608663
 20
469.657985
 30
0.0
 11
-225.514505
 21
469.580064
 31
0.0
  0
LINE
  8
0
 10
-225.514505
 20
469.580064
 30
0.0
 11
-225.414784
 21
469.499447
 31
0.0
  0
LINE
  8
0
 10
-225.414784
 20
469.499447
 30
0.0
 11
-225.311091
 21
469.42237
 31
0.0
  0
LINE
  8
0
 10
-225.311091
 20
469.42237
 30
0.0
 11
-225.203623
 21
469.34912
 31
0.0
  0
LINE
  8
0
 10
-225.203623
 20
469.34912
 30
0.0
 11
-225.092382
 21
469.279835
 31
0.0
  0
LINE
  8
0
 10
-225.092382
 20
469.279835
 30
0.0
 11
-224.977167
 21
469.214564
 31
0.0
  0
LINE
  8
0
 10
-224.977167
 20
469.214564
 30
0.0
 11
-224.860164
 21
469.154576
 31
0.0
  0
LINE
  8
0
 10
-224.860164
 20
469.154576
 30
0.0
 11
-224.739189
 21
469.098807
 31
0.0
  0
LINE
  8
0
 10
-224.739189
 20
469.098807
 30
0.0
 11
-224.616425
 21
469.048349
 31
0.0
  0
LINE
  8
0
 10
-224.616425
 20
469.048349
 30
0.0
 11
-224.489888
 21
469.00248
 31
0.0
  0
LINE
  8
0
 10
-224.489888
 20
469.00248
 30
0.0
 11
-224.363151
 21
468.962508
 31
0.0
  0
LINE
  8
0
 10
-224.363151
 20
468.962508
 30
0.0
 11
-224.234627
 21
468.927834
 31
0.0
  0
LINE
  8
0
 10
-224.234627
 20
468.927834
 30
0.0
 11
-224.105905
 21
468.898825
 31
0.0
  0
LINE
  8
0
 10
-224.105905
 20
468.898825
 30
0.0
 11
-223.975394
 21
468.867782
 31
0.0
  0
LINE
  8
0
 10
-223.975394
 20
468.867782
 30
0.0
 11
-223.844883
 21
468.835187
 31
0.0
  0
LINE
  8
0
 10
-223.844883
 20
468.835187
 30
0.0
 11
-223.975394
 21
468.867782
 31
0.0
  0
LINE
  8
0
 10
-223.975394
 20
468.867782
 30
0.0
 11
-224.105905
 21
468.898825
 31
0.0
  0
LINE
  8
0
 10
-224.105905
 20
468.898825
 30
0.0
 11
-224.234627
 21
468.927834
 31
0.0
  0
LINE
  8
0
 10
-224.234627
 20
468.927834
 30
0.0
 11
-224.363151
 21
468.962508
 31
0.0
  0
LINE
  8
0
 10
-224.363151
 20
468.962508
 30
0.0
 11
-224.489888
 21
469.00248
 31
0.0
  0
LINE
  8
0
 10
-224.489888
 20
469.00248
 30
0.0
 11
-224.616425
 21
469.048349
 31
0.0
  0
LINE
  8
0
 10
-224.616425
 20
469.048349
 30
0.0
 11
-224.739189
 21
469.098807
 31
0.0
  0
LINE
  8
0
 10
-224.739189
 20
469.098807
 30
0.0
 11
-224.860164
 21
469.154576
 31
0.0
  0
LINE
  8
0
 10
-224.860164
 20
469.154576
 30
0.0
 11
-224.977167
 21
469.214564
 31
0.0
  0
LINE
  8
0
 10
-224.977167
 20
469.214564
 30
0.0
 11
-225.092382
 21
469.279835
 31
0.0
  0
LINE
  8
0
 10
-225.092382
 20
469.279835
 30
0.0
 11
-225.203623
 21
469.34912
 31
0.0
  0
LINE
  8
0
 10
-225.203623
 20
469.34912
 30
0.0
 11
-225.311091
 21
469.42237
 31
0.0
  0
LINE
  8
0
 10
-225.311091
 20
469.42237
 30
0.0
 11
-225.414784
 21
469.499447
 31
0.0
  0
LINE
  8
0
 10
-225.414784
 20
469.499447
 30
0.0
 11
-225.514505
 21
469.580064
 31
0.0
  0
LINE
  8
0
 10
-225.514505
 20
469.580064
 30
0.0
 11
-225.608663
 21
469.657985
 31
0.0
  0
LINE
  8
0
 10
-225.608663
 20
466.098742
 30
0.0
 11
-225.514505
 21
466.188927
 31
0.0
  0
LINE
  8
0
 10
-225.514505
 20
466.188927
 30
0.0
 11
-225.608663
 21
466.098742
 31
0.0
  0
LINE
  8
0
 10
-225.514505
 20
466.188927
 30
0.0
 11
-225.414784
 21
466.273352
 31
0.0
  0
LINE
  8
0
 10
-225.414784
 20
466.273352
 30
0.0
 11
-225.514505
 21
466.188927
 31
0.0
  0
LINE
  8
0
 10
-225.414784
 20
466.273352
 30
0.0
 11
-225.311091
 21
466.352016
 31
0.0
  0
LINE
  8
0
 10
-225.311091
 20
466.352016
 30
0.0
 11
-225.414784
 21
466.273352
 31
0.0
  0
LINE
  8
0
 10
-225.311091
 20
466.352016
 30
0.0
 11
-225.203623
 21
466.426905
 31
0.0
  0
LINE
  8
0
 10
-225.203623
 20
466.426905
 30
0.0
 11
-225.311091
 21
466.352016
 31
0.0
  0
LINE
  8
0
 10
-225.203623
 20
466.426905
 30
0.0
 11
-225.092382
 21
466.495836
 31
0.0
  0
LINE
  8
0
 10
-225.092382
 20
466.495836
 30
0.0
 11
-225.203623
 21
466.426905
 31
0.0
  0
LINE
  8
0
 10
-225.092382
 20
466.495836
 30
0.0
 11
-224.977167
 21
466.557416
 31
0.0
  0
LINE
  8
0
 10
-224.977167
 20
466.557416
 30
0.0
 11
-225.092382
 21
466.495836
 31
0.0
  0
LINE
  8
0
 10
-224.977167
 20
466.557416
 30
0.0
 11
-224.860164
 21
466.613037
 31
0.0
  0
LINE
  8
0
 10
-224.860164
 20
466.613037
 30
0.0
 11
-224.977167
 21
466.557416
 31
0.0
  0
LINE
  8
0
 10
-224.860164
 20
466.613037
 30
0.0
 11
-224.739189
 21
466.662897
 31
0.0
  0
LINE
  8
0
 10
-224.739189
 20
466.662897
 30
0.0
 11
-224.860164
 21
466.613037
 31
0.0
  0
LINE
  8
0
 10
-224.739189
 20
466.662897
 30
0.0
 11
-224.616425
 21
466.706997
 31
0.0
  0
LINE
  8
0
 10
-224.616425
 20
466.706997
 30
0.0
 11
-224.739189
 21
466.662897
 31
0.0
  0
LINE
  8
0
 10
-224.616425
 20
466.706997
 30
0.0
 11
-224.489888
 21
466.743547
 31
0.0
  0
LINE
  8
0
 10
-224.489888
 20
466.743547
 30
0.0
 11
-224.616425
 21
466.706997
 31
0.0
  0
LINE
  8
0
 10
-224.489888
 20
466.743547
 30
0.0
 11
-224.363151
 21
466.774139
 31
0.0
  0
LINE
  8
0
 10
-224.363151
 20
466.774139
 30
0.0
 11
-224.489888
 21
466.743547
 31
0.0
  0
LINE
  8
0
 10
-224.363151
 20
466.774139
 30
0.0
 11
-224.234627
 21
466.799168
 31
0.0
  0
LINE
  8
0
 10
-224.234627
 20
466.799168
 30
0.0
 11
-224.363151
 21
466.774139
 31
0.0
  0
LINE
  8
0
 10
-224.234627
 20
466.799168
 30
0.0
 11
-224.105905
 21
466.816451
 31
0.0
  0
LINE
  8
0
 10
-224.105905
 20
466.816451
 30
0.0
 11
-224.234627
 21
466.799168
 31
0.0
  0
LINE
  8
0
 10
-224.105905
 20
466.816451
 30
0.0
 11
-223.975394
 21
466.825986
 31
0.0
  0
LINE
  8
0
 10
-223.975394
 20
466.825986
 30
0.0
 11
-224.105905
 21
466.816451
 31
0.0
  0
LINE
  8
0
 10
-223.975394
 20
466.825986
 30
0.0
 11
-223.844883
 21
466.82976
 31
0.0
  0
LINE
  8
0
 10
-223.844883
 20
466.82976
 30
0.0
 11
-223.975394
 21
466.825986
 31
0.0
  0
LINE
  8
0
 10
-229.972523
 20
462.580916
 30
0.0
 11
-229.932396
 21
462.536817
 31
0.0
  0
LINE
  8
0
 10
-229.932396
 20
462.536817
 30
0.0
 11
-229.972523
 21
462.580916
 31
0.0
  0
LINE
  8
0
 10
-229.972523
 20
462.580916
 30
0.0
 11
-230.836237
 21
463.44463
 31
0.0
  0
LINE
  8
0
 10
-230.836237
 20
463.44463
 30
0.0
 11
-230.899605
 21
463.504025
 31
0.0
  0
LINE
  8
0
 10
-230.899605
 20
463.504025
 30
0.0
 11
-230.968535
 21
463.555872
 31
0.0
  0
LINE
  8
0
 10
-230.968535
 20
463.555872
 30
0.0
 11
-231.043425
 21
463.603944
 31
0.0
  0
LINE
  8
0
 10
-231.043425
 20
463.603944
 30
0.0
 11
-231.120301
 21
463.642283
 31
0.0
  0
LINE
  8
0
 10
-231.120301
 20
463.642283
 30
0.0
 11
-231.200752
 21
463.676847
 31
0.0
  0
LINE
  8
0
 10
-231.200752
 20
463.676847
 30
0.0
 11
-231.283389
 21
463.701678
 31
0.0
  0
LINE
  8
0
 10
-231.283389
 20
463.701678
 30
0.0
 11
-231.367814
 21
463.720947
 31
0.0
  0
LINE
  8
0
 10
-231.367814
 20
463.720947
 30
0.0
 11
-231.454225
 21
463.732468
 31
0.0
  0
LINE
  8
0
 10
-231.454225
 20
463.732468
 30
0.0
 11
-231.540437
 21
463.736243
 31
0.0
  0
LINE
  8
0
 10
-231.540437
 20
463.736243
 30
0.0
 11
-231.628835
 21
463.732468
 31
0.0
  0
LINE
  8
0
 10
-231.628835
 20
463.732468
 30
0.0
 11
-231.715246
 21
463.720947
 31
0.0
  0
LINE
  8
0
 10
-231.715246
 20
463.720947
 30
0.0
 11
-231.799671
 21
463.701678
 31
0.0
  0
LINE
  8
0
 10
-231.799671
 20
463.701678
 30
0.0
 11
-231.882109
 21
463.676847
 31
0.0
  0
LINE
  8
0
 10
-231.882109
 20
463.676847
 30
0.0
 11
-231.962759
 21
463.642283
 31
0.0
  0
LINE
  8
0
 10
-231.962759
 20
463.642283
 30
0.0
 11
-232.039437
 21
463.603944
 31
0.0
  0
LINE
  8
0
 10
-232.039437
 20
463.603944
 30
0.0
 11
-232.114326
 21
463.555872
 31
0.0
  0
LINE
  8
0
 10
-232.114326
 20
463.555872
 30
0.0
 11
-232.183455
 21
463.504025
 31
0.0
  0
LINE
  8
0
 10
-232.183455
 20
463.504025
 30
0.0
 11
-232.246823
 21
463.44463
 31
0.0
  0
LINE
  8
0
 10
-232.246823
 20
463.44463
 30
0.0
 11
-233.037435
 21
462.653819
 31
0.0
  0
LINE
  8
0
 10
-233.037435
 20
462.653819
 30
0.0
 11
-232.246823
 21
463.44463
 31
0.0
  0
LINE
  8
0
 10
-232.246823
 20
463.44463
 30
0.0
 11
-232.183455
 21
463.504025
 31
0.0
  0
LINE
  8
0
 10
-232.183455
 20
463.504025
 30
0.0
 11
-232.114326
 21
463.555872
 31
0.0
  0
LINE
  8
0
 10
-232.114326
 20
463.555872
 30
0.0
 11
-232.039437
 21
463.603944
 31
0.0
  0
LINE
  8
0
 10
-232.039437
 20
463.603944
 30
0.0
 11
-231.962759
 21
463.642283
 31
0.0
  0
LINE
  8
0
 10
-231.962759
 20
463.642283
 30
0.0
 11
-231.882109
 21
463.676847
 31
0.0
  0
LINE
  8
0
 10
-231.882109
 20
463.676847
 30
0.0
 11
-231.799671
 21
463.701678
 31
0.0
  0
LINE
  8
0
 10
-231.799671
 20
463.701678
 30
0.0
 11
-231.715246
 21
463.720947
 31
0.0
  0
LINE
  8
0
 10
-231.715246
 20
463.720947
 30
0.0
 11
-231.628835
 21
463.732468
 31
0.0
  0
LINE
  8
0
 10
-231.628835
 20
463.732468
 30
0.0
 11
-231.540437
 21
463.736243
 31
0.0
  0
LINE
  8
0
 10
-231.540437
 20
463.736243
 30
0.0
 11
-231.454225
 21
463.732468
 31
0.0
  0
LINE
  8
0
 10
-231.454225
 20
463.732468
 30
0.0
 11
-231.367814
 21
463.720947
 31
0.0
  0
LINE
  8
0
 10
-231.367814
 20
463.720947
 30
0.0
 11
-231.283389
 21
463.701678
 31
0.0
  0
LINE
  8
0
 10
-231.283389
 20
463.701678
 30
0.0
 11
-231.200752
 21
463.676847
 31
0.0
  0
LINE
  8
0
 10
-231.200752
 20
463.676847
 30
0.0
 11
-231.120301
 21
463.642283
 31
0.0
  0
LINE
  8
0
 10
-231.120301
 20
463.642283
 30
0.0
 11
-231.043425
 21
463.603944
 31
0.0
  0
LINE
  8
0
 10
-231.043425
 20
463.603944
 30
0.0
 11
-230.968535
 21
463.555872
 31
0.0
  0
LINE
  8
0
 10
-230.968535
 20
463.555872
 30
0.0
 11
-230.899605
 21
463.504025
 31
0.0
  0
LINE
  8
0
 10
-230.899605
 20
463.504025
 30
0.0
 11
-230.836237
 21
463.44463
 31
0.0
  0
LINE
  8
0
 10
-230.836237
 20
463.44463
 30
0.0
 11
-229.972523
 21
462.580916
 31
0.0
  0
LINE
  8
0
 10
-229.932396
 20
462.536817
 30
0.0
 11
-229.897832
 21
462.486957
 31
0.0
  0
LINE
  8
0
 10
-229.897832
 20
462.486957
 30
0.0
 11
-229.932396
 21
462.536817
 31
0.0
  0
LINE
  8
0
 10
-229.897832
 20
462.486957
 30
0.0
 11
-229.870816
 21
462.433123
 31
0.0
  0
LINE
  8
0
 10
-229.870816
 20
462.433123
 30
0.0
 11
-229.897832
 21
462.486957
 31
0.0
  0
LINE
  8
0
 10
-229.870816
 20
462.433123
 30
0.0
 11
-229.84976
 21
462.377502
 31
0.0
  0
LINE
  8
0
 10
-229.84976
 20
462.377502
 30
0.0
 11
-229.870816
 21
462.433123
 31
0.0
  0
LINE
  8
0
 10
-229.84976
 20
462.377502
 30
0.0
 11
-229.834464
 21
462.318107
 31
0.0
  0
LINE
  8
0
 10
-229.834464
 20
462.318107
 30
0.0
 11
-229.84976
 21
462.377502
 31
0.0
  0
LINE
  8
0
 10
-229.834464
 20
462.318107
 30
0.0
 11
-229.826717
 21
462.258513
 31
0.0
  0
LINE
  8
0
 10
-229.826717
 20
462.258513
 30
0.0
 11
-229.834464
 21
462.318107
 31
0.0
  0
LINE
  8
0
 10
-229.826717
 20
462.258513
 30
0.0
 11
-229.826717
 21
462.199118
 31
0.0
  0
LINE
  8
0
 10
-229.826717
 20
462.199118
 30
0.0
 11
-229.826717
 21
462.258513
 31
0.0
  0
LINE
  8
0
 10
-229.826717
 20
462.199118
 30
0.0
 11
-229.834464
 21
462.139524
 31
0.0
  0
LINE
  8
0
 10
-229.834464
 20
462.139524
 30
0.0
 11
-229.826717
 21
462.199118
 31
0.0
  0
LINE
  8
0
 10
-229.834464
 20
462.139524
 30
0.0
 11
-229.84976
 21
462.080129
 31
0.0
  0
LINE
  8
0
 10
-229.84976
 20
462.080129
 30
0.0
 11
-229.834464
 21
462.139524
 31
0.0
  0
LINE
  8
0
 10
-229.84976
 20
462.080129
 30
0.0
 11
-229.870816
 21
462.024508
 31
0.0
  0
LINE
  8
0
 10
-229.870816
 20
462.024508
 30
0.0
 11
-229.84976
 21
462.080129
 31
0.0
  0
LINE
  8
0
 10
-229.870816
 20
462.024508
 30
0.0
 11
-229.897832
 21
461.970675
 31
0.0
  0
LINE
  8
0
 10
-229.897832
 20
461.970675
 30
0.0
 11
-229.870816
 21
462.024508
 31
0.0
  0
LINE
  8
0
 10
-229.897832
 20
461.970675
 30
0.0
 11
-229.932396
 21
461.920815
 31
0.0
  0
LINE
  8
0
 10
-229.932396
 20
461.920815
 30
0.0
 11
-229.897832
 21
461.970675
 31
0.0
  0
LINE
  8
0
 10
-229.932396
 20
461.920815
 30
0.0
 11
-229.972523
 21
461.876715
 31
0.0
  0
LINE
  8
0
 10
-229.972523
 20
461.876715
 30
0.0
 11
-229.932396
 21
461.920815
 31
0.0
  0
LINE
  8
0
 10
-229.972523
 20
461.876715
 30
0.0
 11
-230.018609
 21
461.83639
 31
0.0
  0
LINE
  8
0
 10
-230.018609
 20
461.83639
 30
0.0
 11
-229.972523
 21
461.876715
 31
0.0
  0
LINE
  8
0
 10
-230.018609
 20
461.83639
 30
0.0
 11
-230.066681
 21
461.801826
 31
0.0
  0
LINE
  8
0
 10
-230.066681
 20
461.801826
 30
0.0
 11
-230.018609
 21
461.83639
 31
0.0
  0
LINE
  8
0
 10
-230.066681
 20
461.801826
 30
0.0
 11
-230.120316
 21
461.773022
 31
0.0
  0
LINE
  8
0
 10
-230.120316
 20
461.773022
 30
0.0
 11
-230.066681
 21
461.801826
 31
0.0
  0
LINE
  8
0
 10
-230.120316
 20
461.773022
 30
0.0
 11
-230.177923
 21
461.751966
 31
0.0
  0
LINE
  8
0
 10
-230.177923
 20
461.751966
 30
0.0
 11
-230.120316
 21
461.773022
 31
0.0
  0
LINE
  8
0
 10
-230.177923
 20
461.751966
 30
0.0
 11
-230.235531
 21
461.738458
 31
0.0
  0
LINE
  8
0
 10
-230.235531
 20
461.738458
 30
0.0
 11
-230.177923
 21
461.751966
 31
0.0
  0
LINE
  8
0
 10
-230.235531
 20
461.738458
 30
0.0
 11
-230.294926
 21
461.73071
 31
0.0
  0
LINE
  8
0
 10
-230.294926
 20
461.73071
 30
0.0
 11
-230.235531
 21
461.738458
 31
0.0
  0
LINE
  8
0
 10
-230.294926
 20
461.73071
 30
0.0
 11
-230.356506
 21
461.73071
 31
0.0
  0
LINE
  8
0
 10
-230.356506
 20
461.73071
 30
0.0
 11
-230.294926
 21
461.73071
 31
0.0
  0
LINE
  8
0
 10
-230.356506
 20
461.73071
 30
0.0
 11
-230.415901
 21
461.738458
 31
0.0
  0
LINE
  8
0
 10
-230.415901
 20
461.738458
 30
0.0
 11
-230.356506
 21
461.73071
 31
0.0
  0
LINE
  8
0
 10
-230.415901
 20
461.738458
 30
0.0
 11
-230.473509
 21
461.751966
 31
0.0
  0
LINE
  8
0
 10
-230.473509
 20
461.751966
 30
0.0
 11
-230.415901
 21
461.738458
 31
0.0
  0
LINE
  8
0
 10
-230.473509
 20
461.751966
 30
0.0
 11
-230.531116
 21
461.773022
 31
0.0
  0
LINE
  8
0
 10
-230.531116
 20
461.773022
 30
0.0
 11
-230.473509
 21
461.751966
 31
0.0
  0
LINE
  8
0
 10
-230.531116
 20
461.773022
 30
0.0
 11
-230.582963
 21
461.801826
 31
0.0
  0
LINE
  8
0
 10
-230.582963
 20
461.801826
 30
0.0
 11
-230.531116
 21
461.773022
 31
0.0
  0
LINE
  8
0
 10
-230.582963
 20
461.801826
 30
0.0
 11
-230.632823
 21
461.83639
 31
0.0
  0
LINE
  8
0
 10
-230.632823
 20
461.83639
 30
0.0
 11
-230.582963
 21
461.801826
 31
0.0
  0
LINE
  8
0
 10
-230.632823
 20
461.83639
 30
0.0
 11
-230.678909
 21
461.876715
 31
0.0
  0
LINE
  8
0
 10
-230.678909
 20
461.876715
 30
0.0
 11
-230.632823
 21
461.83639
 31
0.0
  0
LINE
  8
0
 10
-230.678909
 20
461.876715
 30
0.0
 11
-231.540437
 21
462.738244
 31
0.0
  0
LINE
  8
0
 10
-231.540437
 20
462.738244
 30
0.0
 11
-230.678909
 21
461.876715
 31
0.0
  0
LINE
  8
0
 10
-230.166402
 20
461.542791
 30
0.0
 11
-232.039437
 21
461.542791
 31
0.0
  0
LINE
  8
0
 10
-232.039437
 20
461.542791
 30
0.0
 11
-232.039437
 21
462.239443
 31
0.0
  0
LINE
  8
0
 10
-232.039437
 20
462.239443
 30
0.0
 11
-231.540437
 21
462.738244
 31
0.0
  0
LINE
  8
0
 10
-231.540437
 20
462.738244
 30
0.0
 11
-232.039437
 21
462.239443
 31
0.0
  0
LINE
  8
0
 10
-232.039437
 20
462.239443
 30
0.0
 11
-232.039437
 21
461.542791
 31
0.0
  0
LINE
  8
0
 10
-232.039437
 20
461.542791
 30
0.0
 11
-230.166402
 21
461.542791
 31
0.0
  0
LINE
  8
0
 10
-230.166402
 20
461.542791
 30
0.0
 11
-225.608663
 21
466.098742
 31
0.0
  0
LINE
  8
0
 10
-225.608663
 20
466.098742
 30
0.0
 11
-230.166402
 21
461.542791
 31
0.0
  0
LINE
  8
0
 10
-229.460214
 20
460.544793
 30
0.0
 11
-232.039437
 21
460.544793
 31
0.0
  0
LINE
  8
0
 10
-232.039437
 20
460.544793
 30
0.0
 11
-229.460214
 21
460.544793
 31
0.0
  0
LINE
  8
0
 10
-228.754027
 20
460.836604
 30
0.0
 11
-224.988688
 21
464.601744
 31
0.0
  0
LINE
  8
0
 10
-224.988688
 20
464.601744
 30
0.0
 11
-228.754027
 21
460.836604
 31
0.0
  0
LINE
  8
0
 10
-233.037435
 20
461.542791
 30
0.0
 11
-233.037435
 21
462.653819
 31
0.0
  0
LINE
  8
0
 10
-233.037435
 20
462.653819
 30
0.0
 11
-233.037435
 21
461.542791
 31
0.0
  0
LINE
  8
0
 10
-233.037435
 20
473.102708
 30
0.0
 11
-232.246823
 21
472.312097
 31
0.0
  0
LINE
  8
0
 10
-232.246823
 20
472.312097
 30
0.0
 11
-233.037435
 21
473.102708
 31
0.0
  0
LINE
  8
0
 10
-233.037435
 20
473.102708
 30
0.0
 11
-233.037435
 21
474.213935
 31
0.0
  0
LINE
  8
0
 10
-233.037435
 20
474.213935
 30
0.0
 11
-233.037435
 21
473.102708
 31
0.0
  0
LINE
  8
0
 10
-232.039437
 20
473.517283
 30
0.0
 11
-232.039437
 21
474.213935
 31
0.0
  0
LINE
  8
0
 10
-232.039437
 20
474.213935
 30
0.0
 11
-230.166402
 21
474.213935
 31
0.0
  0
LINE
  8
0
 10
-230.166402
 20
474.213935
 30
0.0
 11
-225.608663
 21
469.657985
 31
0.0
  0
LINE
  8
0
 10
-230.166402
 20
474.213935
 30
0.0
 11
-232.039437
 21
474.213935
 31
0.0
  0
LINE
  8
0
 10
-232.039437
 20
474.213935
 30
0.0
 11
-232.039437
 21
473.517283
 31
0.0
  0
LINE
  8
0
 10
-232.039437
 20
473.517283
 30
0.0
 11
-231.540437
 21
473.018284
 31
0.0
  0
LINE
  8
0
 10
-231.540437
 20
473.018284
 30
0.0
 11
-232.039437
 21
473.517283
 31
0.0
  0
LINE
  8
0
 10
-231.540437
 20
473.018284
 30
0.0
 11
-230.678909
 21
473.880011
 31
0.0
  0
LINE
  8
0
 10
-230.678909
 20
473.880011
 30
0.0
 11
-231.540437
 21
473.018284
 31
0.0
  0
LINE
  8
0
 10
-230.836237
 20
472.312097
 30
0.0
 11
-229.972523
 21
473.175612
 31
0.0
  0
LINE
  8
0
 10
-229.972523
 20
473.175612
 30
0.0
 11
-230.836237
 21
472.312097
 31
0.0
  0
LINE
  8
0
 10
-232.039437
 20
475.211735
 30
0.0
 11
-229.460214
 21
475.211735
 31
0.0
  0
LINE
  8
0
 10
-229.460214
 20
475.211735
 30
0.0
 11
-232.039437
 21
475.211735
 31
0.0
  0
LINE
  8
0
 10
-228.754027
 20
474.920123
 30
0.0
 11
-224.988688
 21
471.154784
 31
0.0
  0
LINE
  8
0
 10
-224.988688
 20
471.154784
 30
0.0
 11
-228.754027
 21
474.920123
 31
0.0
  0
LINE
  8
0
 10
-223.225107
 20
470.305334
 30
0.0
 11
-190.347372
 21
470.32057
 31
0.0
  0
LINE
  8
0
 10
-190.347372
 20
470.32057
 30
0.0
 11
-223.225107
 21
470.305334
 31
0.0
  0
LINE
  8
0
 10
-223.844883
 20
468.835187
 30
0.0
 11
-219.070223
 21
468.823771
 31
0.0
  0
LINE
  8
0
 10
-219.070223
 20
468.823771
 30
0.0
 11
-223.844883
 21
468.835187
 31
0.0
  0
LINE
  8
0
 10
-223.844883
 20
466.82976
 30
0.0
 11
-219.070223
 21
466.82976
 31
0.0
  0
LINE
  8
0
 10
-219.070223
 20
466.82976
 30
0.0
 11
-223.844883
 21
466.82976
 31
0.0
  0
LINE
  8
0
 10
-223.225107
 20
465.332961
 30
0.0
 11
-190.347372
 21
465.332961
 31
0.0
  0
LINE
  8
0
 10
-190.347372
 20
465.332961
 30
0.0
 11
-223.225107
 21
465.332961
 31
0.0
  0
LINE
  8
0
 10
-189.848373
 20
465.467246
 30
0.0
 11
-187.219482
 21
466.985189
 31
0.0
  0
LINE
  8
0
 10
-187.21929
 20
466.9853
 30
0.0
 11
-187.219482
 21
466.985189
 31
0.0
  0
LINE
  8
0
 10
-189.848373
 20
470.186285
 30
0.0
 11
-187.219482
 21
468.668342
 31
0.0
  0
LINE
  8
0
 10
-187.21929
 20
468.668231
 30
0.0
 11
-187.219482
 21
468.668342
 31
0.0
  0
LINE
  8
0
 10
-187.219482
 20
468.668342
 30
0.0
 11
-187.21929
 21
468.668231
 31
0.0
  0
LINE
  8
0
 10
-187.219482
 20
468.668342
 30
0.0
 11
-189.848373
 21
470.186285
 31
0.0
  0
LINE
  8
0
 10
-187.219482
 20
466.985189
 30
0.0
 11
-187.21929
 21
466.9853
 31
0.0
  0
LINE
  8
0
 10
-187.219482
 20
466.985189
 30
0.0
 11
-189.848373
 21
465.467246
 31
0.0
  0
ARC
  8
0
 10
-183.20326
 20
467.826765
 30
0.0
 40
3.241707
 50
158.450964
 51
158.45419
  0
ARC
  8
0
 10
-186.869456
 20
469.274544
 30
0.0
 40
0.7
 50
239.997503
 51
338.450964
  0
ARC
  8
0
 10
-183.20326
 20
467.826765
 30
0.0
 40
3.241707
 50
201.549036
 51
158.450964
  0
ARC
  8
0
 10
-186.869456
 20
466.378986
 30
0.0
 40
0.7
 50
21.549036
 51
120.002497
  0
ARC
  8
0
 10
-183.20326
 20
467.826765
 30
0.0
 40
3.241707
 50
201.54581
 51
201.549036
  0
CIRCLE
  8
0
 10
-183.20326
 20
467.826765
 30
0.0
 40
2.245099
  0
LINE
  8
0
 10
-164.638894
 20
435.908048
 30
0.0
 11
-164.638894
 21
498.325868
 31
0.0
  0
LINE
  8
0
 10
-164.638894
 20
498.325868
 30
0.0
 11
-164.638939
 21
512.034265
 31
0.0
  0
ARC
  8
0
 10
-165.638939
 20
512.034261
 30
0.0
 40
1.0
 50
0.000188
 51
88.999959
  0
LINE
  8
0
 10
-167.338845
 20
513.064087
 30
0.0
 11
-165.621486
 21
513.034109
 31
0.0
  0
LINE
  8
0
 10
-164.638894
 20
435.908048
 30
0.0
 11
-164.638939
 21
422.199652
 31
0.0
  0
ARC
  8
0
 10
-165.638939
 20
422.199655
 30
0.0
 40
1.0
 50
271.0
 51
359.999812
  0
LINE
  8
0
 10
-167.338845
 20
421.169828
 30
0.0
 11
-165.621487
 21
421.199808
 31
0.0
  0
LINE
  8
0
 10
-179.86666
 20
524.078269
 30
0.0
 11
-182.637435
 21
524.078269
 31
0.0
  0
LINE
  8
0
 10
-179.637435
 20
525.378269
 30
0.0
 11
-182.537435
 21
525.378269
 31
0.0
  0
LINE
  8
0
 10
-176.524405
 20
524.245219
 30
0.0
 11
-179.637435
 21
525.378269
 31
0.0
  0
LINE
  8
0
 10
-177.995415
 20
523.397191
 30
0.0
 11
-179.86666
 21
524.078269
 31
0.0
  0
LINE
  8
0
 10
-182.537435
 20
522.178269
 30
0.0
 11
-180.787435
 21
522.178269
 31
0.0
  0
LINE
  8
0
 10
-182.837435
 20
523.878269
 30
0.0
 11
-182.837435
 21
523.678269
 31
0.0
  0
LINE
  8
0
 10
-180.787435
 20
523.478269
 30
0.0
 11
-182.637435
 21
523.478269
 31
0.0
  0
LINE
  8
0
 10
-175.537435
 20
412.920858
 30
0.0
 11
-175.537435
 21
467.978269
 31
0.0
  0
LINE
  8
0
 10
-177.337435
 20
413.299039
 30
0.0
 11
-177.337435
 21
467.978269
 31
0.0
  0
LINE
  8
0
 10
-175.537435
 20
467.978269
 30
0.0
 11
-175.537435
 21
522.83568
 31
0.0
  0
LINE
  8
0
 10
-177.337435
 20
467.978269
 30
0.0
 11
-177.337435
 21
522.457499
 31
0.0
  0
LINE
  8
0
 10
-182.637435
 20
411.678269
 30
0.0
 11
-179.86666
 21
411.678269
 31
0.0
  0
LINE
  8
0
 10
-182.537435
 20
410.378269
 30
0.0
 11
-179.637435
 21
410.378269
 31
0.0
  0
LINE
  8
0
 10
-179.637435
 20
410.378269
 30
0.0
 11
-176.524405
 21
411.511319
 31
0.0
  0
LINE
  8
0
 10
-179.86666
 20
411.678269
 30
0.0
 11
-177.995415
 21
412.359347
 31
0.0
  0
LINE
  8
0
 10
-180.787435
 20
413.578269
 30
0.0
 11
-182.537435
 21
413.578269
 31
0.0
  0
LINE
  8
0
 10
-182.837435
 20
412.078269
 30
0.0
 11
-182.837435
 21
411.878269
 31
0.0
  0
LINE
  8
0
 10
-182.637435
 20
412.278269
 30
0.0
 11
-180.787435
 21
412.278269
 31
0.0
  0
ARC
  8
0
 10
-178.337435
 20
522.457499
 30
0.0
 40
1.0
 50
0.0
 51
70.0
  0
ARC
  8
0
 10
-177.037435
 20
522.83568
 30
0.0
 40
1.5
 50
0.0
 51
70.0
  0
ARC
  8
0
 10
-180.787435
 20
522.828269
 30
0.0
 40
0.65
 50
270.0
 51
0.0
  0
ARC
  8
0
 10
-180.787435
 20
522.828269
 30
0.0
 40
0.65
 50
0.0
 51
90.0
  0
ARC
  8
0
 10
-182.637435
 20
523.878269
 30
0.0
 40
0.2
 50
90.0
 51
180.0
  0
ARC
  8
0
 10
-182.637435
 20
523.678269
 30
0.0
 40
0.2
 50
180.0
 51
270.0
  0
ARC
  8
0
 10
-178.337435
 20
413.299039
 30
0.0
 40
1.0
 50
290.0
 51
0.0
  0
ARC
  8
0
 10
-177.037435
 20
412.920858
 30
0.0
 40
1.5
 50
290.0
 51
0.0
  0
ARC
  8
0
 10
-180.787435
 20
412.928269
 30
0.0
 40
0.65
 50
0.0
 51
90.0
  0
ARC
  8
0
 10
-180.787435
 20
412.928269
 30
0.0
 40
0.65
 50
270.0
 51
0.0
  0
ARC
  8
0
 10
-182.637435
 20
411.878269
 30
0.0
 40
0.2
 50
180.0
 51
270.0
  0
ARC
  8
0
 10
-182.637435
 20
412.078269
 30
0.0
 40
0.2
 50
90.0
 51
180.0
  0
ARC
  8
0
 10
-182.537435
 20
411.978269
 30
0.0
 40
1.6
 50
180.0
 51
270.0
  0
ARC
  8
0
 10
-182.537435
 20
411.978269
 30
0.0
 40
1.6
 50
90.0
 51
180.0
  0
ARC
  8
0
 10
-182.537435
 20
523.778269
 30
0.0
 40
1.6
 50
180.0
 51
270.0
  0
ARC
  8
0
 10
-182.537435
 20
523.778269
 30
0.0
 40
1.6
 50
90.0
 51
180.0
  0
LINE
  8
0
 10
-174.21239
 20
532.492176
 30
0.0
 11
-174.126869
 21
532.406655
 31
0.0
  0
LINE
  8
0
 10
-173.537435
 20
404.845648
 30
0.0
 11
-173.537435
 21
409.768221
 31
0.0
  0
LINE
  8
0
 10
-173.537435
 20
526.066221
 30
0.0
 11
-173.537435
 21
530.988794
 31
0.0
  0
LINE
  8
0
 10
-174.126869
 20
532.406655
 30
0.0
 11
-174.123221
 21
532.403007
 31
0.0
  0
LINE
  8
0
 10
-174.126869
 20
403.427787
 30
0.0
 11
-174.21239
 21
403.342266
 31
0.0
  0
LINE
  8
0
 10
-175.537435
 20
411.767221
 30
0.0
 11
-175.536435
 21
411.767221
 31
0.0
  0
LINE
  8
0
 10
-175.537435
 20
524.067221
 30
0.0
 11
-175.537435
 21
411.767221
 31
0.0
  0
LINE
  8
0
 10
-175.536435
 20
524.067221
 30
0.0
 11
-175.537435
 21
524.067221
 31
0.0
  0
LINE
  8
0
 10
-174.123221
 20
403.431434
 30
0.0
 11
-174.126869
 21
403.427787
 31
0.0
  0
ARC
  8
0
 10
-174.000257
 20
532.704308
 30
0.0
 40
0.3
 50
89.0
 51
225.0
  0
ARC
  8
0
 10
-175.537435
 20
530.988794
 30
0.0
 40
2.0
 50
0.0
 51
45.0
  0
ARC
  8
0
 10
-175.536435
 20
526.066221
 30
0.0
 40
1.999
 50
270.0
 51
0.0
  0
ARC
  8
0
 10
-175.537435
 20
404.845648
 30
0.0
 40
2.0
 50
315.0
 51
0.0
  0
ARC
  8
0
 10
-175.536435
 20
409.768221
 30
0.0
 40
1.999
 50
0.0
 51
90.0
  0
ARC
  8
0
 10
-174.000257
 20
403.130134
 30
0.0
 40
0.3
 50
135.0
 51
271.0
  0
LINE
  8
0
 10
-167.337435
 20
531.905356
 30
0.0
 11
-167.337435
 21
531.865362
 31
0.0
  0
LINE
  8
0
 10
-167.337435
 20
531.865362
 30
0.0
 11
-167.337435
 21
528.783202
 31
0.0
  0
LINE
  8
0
 10
-167.337435
 20
528.783202
 30
0.0
 11
-167.337435
 21
522.905548
 31
0.0
  0
LINE
  8
0
 10
-167.337435
 20
522.905548
 30
0.0
 11
-167.337435
 21
517.387894
 31
0.0
  0
LINE
  8
0
 10
-167.337435
 20
517.387894
 30
0.0
 11
-167.337435
 21
512.203574
 31
0.0
  0
LINE
  8
0
 10
-167.337435
 20
512.203574
 30
0.0
 11
-167.337435
 21
507.32592
 31
0.0
  0
LINE
  8
0
 10
-167.337435
 20
507.32592
 30
0.0
 11
-167.337435
 21
502.728266
 31
0.0
  0
LINE
  8
0
 10
-167.337435
 20
502.728266
 30
0.0
 11
-167.337435
 21
498.383945
 31
0.0
  0
LINE
  8
0
 10
-167.337435
 20
498.383945
 30
0.0
 11
-167.337435
 21
494.266291
 31
0.0
  0
LINE
  8
0
 10
-167.337435
 20
494.266291
 30
0.0
 11
-167.337435
 21
490.348638
 31
0.0
  0
LINE
  8
0
 10
-167.337435
 20
490.348638
 30
0.0
 11
-167.337435
 21
486.604317
 31
0.0
  0
LINE
  8
0
 10
-167.337435
 20
486.604317
 30
0.0
 11
-167.337435
 21
483.006663
 31
0.0
  0
LINE
  8
0
 10
-167.337435
 20
483.006663
 30
0.0
 11
-167.337435
 21
479.529009
 31
0.0
  0
LINE
  8
0
 10
-167.337435
 20
479.529009
 30
0.0
 11
-167.337435
 21
476.144689
 31
0.0
  0
LINE
  8
0
 10
-167.337435
 20
476.144689
 30
0.0
 11
-167.337435
 21
472.827035
 31
0.0
  0
LINE
  8
0
 10
-167.337435
 20
472.827035
 30
0.0
 11
-167.337435
 21
469.549381
 31
0.0
  0
LINE
  8
0
 10
-167.337435
 20
469.549381
 30
0.0
 11
-167.337435
 21
466.28506
 31
0.0
  0
LINE
  8
0
 10
-167.337435
 20
466.28506
 30
0.0
 11
-167.337435
 21
463.007407
 31
0.0
  0
LINE
  8
0
 10
-167.337435
 20
463.007407
 30
0.0
 11
-167.337435
 21
459.689753
 31
0.0
  0
LINE
  8
0
 10
-167.337435
 20
459.689753
 30
0.0
 11
-167.337435
 21
456.305432
 31
0.0
  0
LINE
  8
0
 10
-167.337435
 20
456.305432
 30
0.0
 11
-167.337435
 21
452.827778
 31
0.0
  0
LINE
  8
0
 10
-167.337435
 20
452.827778
 30
0.0
 11
-167.337435
 21
449.230124
 31
0.0
  0
LINE
  8
0
 10
-167.337435
 20
449.230124
 30
0.0
 11
-167.337435
 21
445.485804
 31
0.0
  0
LINE
  8
0
 10
-167.337435
 20
445.485804
 30
0.0
 11
-167.337435
 21
441.56815
 31
0.0
  0
LINE
  8
0
 10
-167.337435
 20
441.56815
 30
0.0
 11
-167.337435
 21
437.450496
 31
0.0
  0
LINE
  8
0
 10
-167.337435
 20
437.450496
 30
0.0
 11
-167.337435
 21
433.106176
 31
0.0
  0
LINE
  8
0
 10
-167.337435
 20
433.106176
 30
0.0
 11
-167.337435
 21
428.508522
 31
0.0
  0
LINE
  8
0
 10
-167.337435
 20
428.508522
 30
0.0
 11
-167.337435
 21
423.630868
 31
0.0
  0
LINE
  8
0
 10
-167.337435
 20
423.630868
 30
0.0
 11
-167.337435
 21
418.446547
 31
0.0
  0
LINE
  8
0
 10
-167.337435
 20
418.446547
 30
0.0
 11
-167.337435
 21
412.928894
 31
0.0
  0
LINE
  8
0
 10
-167.337435
 20
412.928894
 30
0.0
 11
-167.337435
 21
407.05124
 31
0.0
  0
LINE
  8
0
 10
-167.337435
 20
407.05124
 30
0.0
 11
-167.337435
 21
403.969079
 31
0.0
  0
LINE
  8
0
 10
-167.337435
 20
403.969079
 30
0.0
 11
-167.337435
 21
403.929085
 31
0.0
  0
LINE
  8
0
 10
-176.037435
 20
382.878269
 30
0.0
 11
-176.037435
 21
402.878269
 31
0.0
  0
LINE
  8
0
 10
-176.037435
 20
552.878269
 30
0.0
 11
-176.037435
 21
532.878269
 31
0.0
  0
LINE
  8
0
 10
-168.319982
 20
402.929238
 30
0.0
 11
-171.0479
 21
402.881622
 31
0.0
  0
LINE
  8
0
 10
-171.0479
 20
402.881622
 30
0.0
 11
-173.995022
 21
402.83018
 31
0.0
  0
LINE
  8
0
 10
-168.211599
 20
402.937872
 30
0.0
 11
-168.199176
 21
402.939725
 31
0.0
  0
ARC
  8
0
 10
-168.338407
 20
403.830798
 30
0.0
 40
0.901885
 50
278.880682
 51
280.473708
  0
LINE
  8
0
 10
-168.174458
 20
402.94394
 30
0.0
 11
-168.161618
 21
402.94641
 31
0.0
  0
ARC
  8
0
 10
-168.341064
 20
403.844662
 30
0.0
 40
0.916001
 50
281.297351
 51
282.930482
  0
LINE
  8
0
 10
-168.136091
 20
402.951889
 30
0.0
 11
-168.122902
 21
402.955019
 31
0.0
  0
ARC
  8
0
 10
-168.344782
 20
403.860202
 30
0.0
 40
0.93198
 50
283.772875
 51
285.437174
  0
LINE
  8
0
 10
-168.096706
 20
402.961845
 30
0.0
 11
-168.083237
 21
402.965672
 31
0.0
  0
ARC
  8
0
 10
-168.349563
 20
403.877163
 30
0.0
 40
0.949603
 50
286.287658
 51
287.975332
  0
LINE
  8
0
 10
-168.056508
 20
402.973911
 30
0.0
 11
-168.042881
 21
402.978445
 31
0.0
  0
ARC
  8
0
 10
-168.355412
 20
403.894786
 30
0.0
 40
0.968172
 50
288.832637
 51
290.530624
  0
LINE
  8
0
 10
-168.015866
 20
402.988108
 30
0.0
 11
-168.003874
 21
402.992688
 31
0.0
  0
ARC
  8
0
 10
-168.361666
 20
403.911193
 30
0.0
 40
0.985732
 50
291.282768
 51
292.773812
  0
LINE
  8
0
 10
-167.980095
 20
403.002309
 30
0.0
 11
-167.968039
 21
403.007464
 31
0.0
  0
ARC
  8
0
 10
-168.36837
 20
403.926902
 30
0.0
 40
1.002811
 50
293.528678
 51
295.02591
  0
LINE
  8
0
 10
-167.944152
 20
403.018238
 30
0.0
 11
-167.932067
 21
403.023977
 31
0.0
  0
ARC
  8
0
 10
-168.375554
 20
403.942027
 30
0.0
 40
1.019557
 50
295.783979
 51
297.286711
  0
LINE
  8
0
 10
-167.908144
 20
403.035923
 30
0.0
 11
-167.896064
 21
403.042255
 31
0.0
  0
ARC
  8
0
 10
-168.38311
 20
403.956457
 30
0.0
 40
1.035847
 50
298.046664
 51
299.554667
  0
LINE
  8
0
 10
-167.872174
 20
403.055389
 30
0.0
 11
-167.860133
 21
403.062322
 31
0.0
  0
ARC
  8
0
 10
-168.390752
 20
403.96973
 30
0.0
 40
1.051165
 50
300.317509
 51
301.83147
  0
LINE
  8
0
 10
-168.319901
 20
402.929261
 30
0.0
 11
-168.311503
 21
402.929444
 31
0.0
  0
ARC
  8
0
 10
-168.334667
 20
403.795332
 30
0.0
 40
0.866198
 50
271.532371
 51
272.642067
  0
ARC
  8
0
 10
-168.334806
 20
403.799551
 30
0.0
 40
0.870419
 50
272.638401
 51
273.740993
  0
ARC
  8
0
 10
-168.335154
 20
403.803925
 30
0.0
 40
0.874807
 50
273.745082
 51
274.840569
  0
ARC
  8
0
 10
-168.335474
 20
403.808634
 30
0.0
 40
0.879525
 50
274.835441
 51
275.923594
  0
ARC
  8
0
 10
-168.336042
 20
403.813834
 30
0.0
 40
0.884756
 50
275.925409
 51
277.006
  0
ARC
  8
0
 10
-168.33669
 20
403.81918
 30
0.0
 40
0.890142
 50
277.005437
 51
278.078464
  0
LINE
  8
0
 10
-168.319972
 20
402.929238
 30
0.0
 11
-168.319982
 21
402.929238
 31
0.0
  0
ARC
  8
0
 10
-168.335943
 20
403.816419
 30
0.0
 40
0.887325
 50
271.0313
 51
273.837736
  0
ARC
  8
0
 10
-168.320029
 20
402.929446
 30
0.0
 40
0.000225
 50
302.77026
 51
304.609873
  0
ARC
  8
0
 10
-168.320001
 20
402.929436
 30
0.0
 40
0.000203
 50
295.616025
 51
297.514076
  0
ARC
  8
0
 10
-168.319975
 20
402.929429
 30
0.0
 40
0.000185
 50
287.457507
 51
289.412391
  0
ARC
  8
0
 10
-168.320008
 20
402.92945
 30
0.0
 40
0.000217
 50
292.193878
 51
294.203304
  0
ARC
  8
0
 10
-168.319985
 20
402.929414
 30
0.0
 40
0.000176
 50
287.40434
 51
289.465557
  0
ARC
  8
0
 10
-168.31999
 20
402.929409
 30
0.0
 40
0.000172
 50
287.380163
 51
289.489734
  0
ARC
  8
0
 10
-168.319995
 20
402.929403
 30
0.0
 40
0.000168
 50
287.358049
 51
289.511849
  0
ARC
  8
0
 10
-168.319974
 20
402.929425
 30
0.0
 40
0.000185
 50
277.033609
 51
279.226595
  0
ARC
  8
0
 10
-168.320006
 20
402.929395
 30
0.0
 40
0.000163
 50
287.321613
 51
289.548286
  0
ARC
  8
0
 10
-168.319986
 20
402.929392
 30
0.0
 40
0.000155
 50
278.335121
 51
280.589523
  0
ARC
  8
0
 10
-168.319967
 20
402.929415
 30
0.0
 40
0.000176
 50
268.862258
 51
271.137742
  0
ARC
  8
0
 10
-168.319998
 20
402.929388
 30
0.0
 40
0.000152
 50
278.317476
 51
280.607168
  0
ARC
  8
0
 10
-168.319979
 20
402.929387
 30
0.0
 40
0.00015
 50
268.851716
 51
271.148284
  0
LINE
  8
0
 10
-167.338117
 20
403.894687
 30
0.0
 11
-167.337917
 21
403.900344
 31
0.0
  0
ARC
  8
0
 10
-168.207132
 20
403.928275
 30
0.0
 40
0.869663
 50
358.159506
 51
359.053545
  0
ARC
  8
0
 10
-168.204382
 20
403.928168
 30
0.0
 40
0.866912
 50
359.057619
 51
359.955783
  0
LINE
  8
0
 10
-167.577828
 20
403.30073
 30
0.0
 11
-167.577836
 21
403.300718
 31
0.0
  0
ARC
  8
0
 10
-167.579463
 20
403.301852
 30
0.0
 40
0.001983
 50
324.263883
 51
325.11369
  0
ARC
  8
0
 10
-167.579474
 20
403.301874
 30
0.0
 40
0.002005
 50
323.122134
 51
323.939398
  0
ARC
  8
0
 10
-167.579628
 20
403.30197
 30
0.0
 40
0.002186
 50
322.73694
 51
323.523264
  0
ARC
  8
0
 10
-167.579789
 20
403.302072
 30
0.0
 40
0.002376
 50
322.386557
 51
323.143775
  0
ARC
  8
0
 10
-167.579801
 20
403.302102
 30
0.0
 40
0.002403
 50
321.267656
 51
321.997373
  0
ARC
  8
0
 10
-167.579971
 20
403.302213
 30
0.0
 40
0.002606
 50
320.988282
 51
321.692102
  0
ARC
  8
0
 10
-167.580066
 20
403.302332
 30
0.0
 40
0.002755
 50
319.630207
 51
320.309274
  0
LINE
  8
0
 10
-167.767497
 20
403.277069
 30
0.0
 11
-167.76857
 21
403.277573
 31
0.0
  0
LINE
  8
0
 10
-167.592761
 20
403.283371
 30
0.0
 11
-167.596206
 21
403.27947
 31
0.0
  0
ARC
  8
0
 10
-168.419092
 20
404.009352
 30
0.0
 40
1.09994
 50
317.451562
 51
318.427647
  0
ARC
  8
0
 10
-168.419899
 20
404.010164
 30
0.0
 40
1.101084
 50
316.473641
 51
317.448809
  0
ARC
  8
0
 10
-168.420369
 20
404.010508
 30
0.0
 40
1.101662
 50
315.50279
 51
316.4775
  0
LINE
  8
0
 10
-167.577828
 20
403.30073
 30
0.0
 11
-167.583893
 21
403.293591
 31
0.0
  0
ARC
  8
0
 10
-168.187379
 20
403.808284
 30
0.0
 40
0.79316
 50
318.562755
 51
319.540215
  0
LINE
  8
0
 10
-167.836344
 20
403.076658
 30
0.0
 11
-167.836341
 21
403.07666
 31
0.0
  0
ARC
  8
0
 10
-167.83648
 20
403.07689
 30
0.0
 40
0.000269
 50
300.999868
 51
303.010898
  0
ARC
  8
0
 10
-167.836473
 20
403.076868
 30
0.0
 40
0.000246
 50
304.537548
 51
306.537807
  0
ARC
  8
0
 10
-167.836496
 20
403.076875
 30
0.0
 40
0.000266
 50
309.608957
 51
311.593633
  0
ARC
  8
0
 10
-167.836462
 20
403.076853
 30
0.0
 40
0.000228
 50
308.823431
 51
310.787711
  0
ARC
  8
0
 10
-167.836487
 20
403.07689
 30
0.0
 40
0.000272
 50
309.631413
 51
311.571173
  0
ARC
  8
0
 10
-167.836483
 20
403.07687
 30
0.0
 40
0.000254
 50
314.044444
 51
315.955558
  0
ARC
  8
0
 10
-167.83648
 20
403.076879
 30
0.0
 40
0.000259
 50
314.0606
 51
315.939401
  0
ARC
  8
0
 10
-167.836509
 20
403.076889
 30
0.0
 40
0.000287
 50
318.477066
 51
320.320346
  0
ARC
  8
0
 10
-167.836507
 20
403.0769
 30
0.0
 40
0.000293
 50
318.496201
 51
320.30121
  0
LINE
  8
0
 10
-167.344929
 20
403.81418
 30
0.0
 11
-167.343519
 21
403.825561
 31
0.0
  0
LINE
  8
0
 10
-167.343519
 20
403.825561
 30
0.0
 11
-167.342255
 21
403.836951
 31
0.0
  0
ARC
  8
0
 10
-168.221945
 20
403.92902
 30
0.0
 40
0.884495
 50
354.02514
 51
355.496475
  0
LINE
  8
0
 10
-167.340162
 20
403.859806
 30
0.0
 11
-167.340181
 21
403.859569
 31
0.0
  0
LINE
  8
0
 10
-167.592895
 20
403.28321
 30
0.0
 11
-167.586954
 21
403.290019
 31
0.0
  0
LINE
  8
0
 10
-167.586954
 20
403.290019
 30
0.0
 11
-167.581064
 21
403.296883
 31
0.0
  0
ARC
  8
0
 10
-168.429612
 20
404.019114
 30
0.0
 40
1.114294
 50
319.59761
 51
320.571174
  0
LINE
  8
0
 10
-167.568915
 20
403.311405
 30
0.0
 11
-167.560079
 21
403.322289
 31
0.0
  0
LINE
  8
0
 10
-167.560079
 20
403.322289
 30
0.0
 11
-167.551382
 21
403.333284
 31
0.0
  0
ARC
  8
0
 10
-168.418191
 20
404.010023
 30
0.0
 40
1.099697
 50
322.019955
 51
322.960517
  0
LINE
  8
0
 10
-167.54039
 20
403.347604
 30
0.0
 11
-167.531413
 21
403.359671
 31
0.0
  0
LINE
  8
0
 10
-167.531413
 20
403.359671
 30
0.0
 11
-167.522609
 21
403.371853
 31
0.0
  0
ARC
  8
0
 10
-168.397881
 20
403.995302
 30
0.0
 40
1.074611
 50
324.538033
 51
326.663187
  0
LINE
  8
0
 10
-167.500092
 20
403.404739
 30
0.0
 11
-167.489308
 21
403.421472
 31
0.0
  0
ARC
  8
0
 10
-168.377882
 20
403.982437
 30
0.0
 40
1.050831
 50
327.735361
 51
329.75212
  0
LINE
  8
0
 10
-167.470117
 20
403.45309
 30
0.0
 11
-167.460952
 21
403.469136
 31
0.0
  0
ARC
  8
0
 10
-168.359011
 20
403.971655
 30
0.0
 40
1.029094
 50
330.77031
 51
332.635361
  0
LINE
  8
0
 10
-167.445073
 20
403.49863
 30
0.0
 11
-167.435422
 21
403.51777
 31
0.0
  0
ARC
  8
0
 10
-168.337163
 20
403.960702
 30
0.0
 40
1.004652
 50
333.839872
 51
336.282642
  0
LINE
  8
0
 10
-167.417363
 20
403.556606
 30
0.0
 11
-167.408764
 21
403.576785
 31
0.0
  0
ARC
  8
0
 10
-168.31263
 20
403.950255
 30
0.0
 40
0.977984
 50
337.549986
 51
340.117188
  0
LINE
  8
0
 10
-167.392943
 20
403.617645
 30
0.0
 11
-167.385933
 21
403.63772
 31
0.0
  0
ARC
  8
0
 10
-168.288658
 20
403.941912
 30
0.0
 40
0.952599
 50
341.377634
 51
343.931545
  0
LINE
  8
0
 10
-167.373275
 20
403.678247
 30
0.0
 11
-167.367744
 21
403.698285
 31
0.0
  0
ARC
  8
0
 10
-168.266977
 20
403.935924
 30
0.0
 40
0.930103
 50
345.196898
 51
347.752871
  0
LINE
  8
0
 10
-167.358041
 20
403.738623
 30
0.0
 11
-167.354901
 21
403.753698
 31
0.0
  0
LINE
  8
0
 10
-167.354901
 20
403.753698
 30
0.0
 11
-167.352018
 21
403.768806
 31
0.0
  0
ARC
  8
0
 10
-168.246939
 20
403.93189
 30
0.0
 40
0.909659
 50
349.672152
 51
351.601829
  0
LINE
  8
0
 10
-167.347034
 20
403.799033
 30
0.0
 11
-167.344929
 21
403.81418
 31
0.0
  0
ARC
  8
0
 10
-168.419972
 20
404.010216
 30
0.0
 40
1.101174
 50
313.196876
 51
315.499172
  0
ARC
  8
0
 10
-168.418037
 20
404.0081
 30
0.0
 40
1.098307
 50
310.89108
 51
313.198876
  0
ARC
  8
0
 10
-168.414345
 20
404.003856
 30
0.0
 40
1.092682
 50
308.57179
 51
310.890357
  0
ARC
  8
0
 10
-168.409137
 20
403.997293
 30
0.0
 40
1.084303
 50
306.238059
 51
308.572896
  0
ARC
  8
0
 10
-168.40281
 20
403.98864
 30
0.0
 40
1.073584
 50
303.882527
 51
306.238676
  0
ARC
  8
0
 10
-168.317276
 20
403.856616
 30
0.0
 40
0.916299
 50
301.663552
 51
304.044679
  0
ARC
  8
0
 10
-168.216851
 20
403.928738
 30
0.0
 40
0.879394
 50
355.504208
 51
356.384955
  0
ARC
  8
0
 10
-168.213398
 20
403.928519
 30
0.0
 40
0.875935
 50
356.385019
 51
357.270349
  0
ARC
  8
0
 10
-167.846205
 20
403.912652
 30
0.0
 40
0.508405
 50
357.085706
 51
357.974932
  0
ARC
  8
0
 10
-167.373358
 20
403.929069
 30
0.0
 40
0.035923
 50
359.394886
 51
0.024909
  0
ARC
  8
0
 10
-167.373651
 20
403.92904
 30
0.0
 40
0.036215
 50
358.818656
 51
359.445241
  0
ARC
  8
0
 10
-167.373951
 20
403.929107
 30
0.0
 40
0.036517
 50
358.101292
 51
358.724439
  0
ARC
  8
0
 10
-167.374273
 20
403.929178
 30
0.0
 40
0.036841
 50
357.388151
 51
358.007632
  0
ARC
  8
0
 10
-167.594998
 20
403.285082
 30
0.0
 40
0.002816
 50
322.022948
 51
322.58857
  0
ARC
  8
0
 10
-167.595094
 20
403.285225
 30
0.0
 40
0.002981
 50
320.437408
 51
320.983779
  0
ARC
  8
0
 10
-167.595299
 20
403.285375
 30
0.0
 40
0.003234
 50
320.176084
 51
320.704579
  0
ARC
  8
0
 10
-167.595401
 20
403.28542
 30
0.0
 40
0.003342
 50
320.184564
 51
320.6961
  0
ARC
  8
0
 10
-167.595504
 20
403.285582
 30
0.0
 40
0.003524
 50
318.743166
 51
319.238659
  0
ARC
  8
0
 10
-167.595726
 20
403.28563
 30
0.0
 40
0.003725
 50
319.954131
 51
320.434727
  0
ARC
  8
0
 10
-167.595833
 20
403.285802
 30
0.0
 40
0.003918
 50
318.580881
 51
319.047268
  0
LINE
  8
0
 10
-173.995022
 20
533.004262
 30
0.0
 11
-171.0479
 21
532.95282
 31
0.0
  0
LINE
  8
0
 10
-171.0479
 20
532.95282
 30
0.0
 11
-168.319982
 21
532.905204
 31
0.0
  0
LINE
  8
0
 10
-167.836344
 20
532.757784
 30
0.0
 11
-167.84819
 21
532.765029
 31
0.0
  0
ARC
  8
0
 10
-168.38833
 20
531.868796
 30
0.0
 40
1.046415
 50
58.923538
 51
60.444833
  0
LINE
  8
0
 10
-167.872174
 20
532.779053
 30
0.0
 11
-167.884074
 21
532.785697
 31
0.0
  0
ARC
  8
0
 10
-168.380669
 20
531.882473
 30
0.0
 40
1.030738
 50
61.197925
 51
62.713949
  0
LINE
  8
0
 10
-167.908144
 20
532.798519
 30
0.0
 11
-167.920064
 21
532.804569
 31
0.0
  0
ARC
  8
0
 10
-168.373277
 20
531.897033
 30
0.0
 40
1.014408
 50
63.46301
 51
64.973992
  0
LINE
  8
0
 10
-167.944152
 20
532.816204
 30
0.0
 11
-167.956058
 21
532.821668
 31
0.0
  0
ARC
  8
0
 10
-168.366233
 20
531.912289
 30
0.0
 40
0.997603
 50
65.722261
 51
67.227973
  0
LINE
  8
0
 10
-167.980095
 20
532.832132
 30
0.0
 11
-167.99195
 21
532.837019
 31
0.0
  0
ARC
  8
0
 10
-168.359808
 20
531.927914
 30
0.0
 40
0.980709
 50
67.969911
 51
69.469435
  0
LINE
  8
0
 10
-168.015866
 20
532.846334
 30
0.0
 11
-168.029333
 21
532.851264
 31
0.0
  0
ARC
  8
0
 10
-168.353585
 20
531.944891
 30
0.0
 40
0.962627
 50
70.315516
 51
72.024503
  0
LINE
  8
0
 10
-168.056508
 20
532.860531
 30
0.0
 11
-168.069837
 21
532.864747
 31
0.0
  0
ARC
  8
0
 10
-168.348066
 20
531.962332
 30
0.0
 40
0.944332
 50
72.864619
 51
74.563064
  0
LINE
  8
0
 10
-168.096706
 20
532.872597
 30
0.0
 11
-168.109773
 21
532.876103
 31
0.0
  0
ARC
  8
0
 10
-168.343626
 20
531.978691
 30
0.0
 40
0.927381
 50
75.394384
 51
77.068537
  0
LINE
  8
0
 10
-168.136091
 20
532.882552
 30
0.0
 11
-168.148828
 21
532.885381
 31
0.0
  0
ARC
  8
0
 10
-168.34028
 20
531.993709
 30
0.0
 40
0.911994
 50
77.881931
 51
79.524
  0
LINE
  8
0
 10
-168.174458
 20
532.890501
 30
0.0
 11
-168.186796
 21
532.892694
 31
0.0
  0
ARC
  8
0
 10
-168.337921
 20
532.006697
 30
0.0
 40
0.898793
 50
80.320218
 51
81.920578
  0
LINE
  8
0
 10
-168.319901
 20
532.905181
 30
0.0
 11
-168.319982
 21
532.905204
 31
0.0
  0
ARC
  8
0
 10
-168.461224
 20
529.981637
 30
0.0
 40
2.92755
 50
86.383363
 51
86.575877
  0
ARC
  8
0
 10
-168.334707
 20
532.036442
 30
0.0
 40
0.868864
 50
86.81093
 51
87.916272
  0
ARC
  8
0
 10
-168.334643
 20
532.040075
 30
0.0
 40
0.865231
 50
87.911796
 51
89.023784
  0
ARC
  8
0
 10
-168.33674
 20
532.014883
 30
0.0
 40
0.890522
 50
81.921765
 51
82.994334
  0
ARC
  8
0
 10
-168.336084
 20
532.020233
 30
0.0
 40
0.885132
 50
82.994229
 51
84.074361
  0
ARC
  8
0
 10
-168.335579
 20
532.025253
 30
0.0
 40
0.880086
 50
84.073334
 51
85.1608
  0
ARC
  8
0
 10
-168.329349
 20
532.106211
 30
0.0
 40
0.798892
 50
85.116204
 51
86.210774
  0
LINE
  8
0
 10
-167.836282
 20
532.757729
 30
0.0
 11
-167.836285
 21
532.757732
 31
0.0
  0
ARC
  8
0
 10
-167.836507
 20
532.757548
 30
0.0
 40
0.000288
 50
39.684696
 51
41.517893
  0
ARC
  8
0
 10
-167.836478
 20
532.757558
 30
0.0
 40
0.00026
 50
44.065298
 51
45.934703
  0
ARC
  8
0
 10
-167.836481
 20
532.757567
 30
0.0
 40
0.000256
 50
44.048684
 51
45.951319
  0
ARC
  8
0
 10
-167.836484
 20
532.757576
 30
0.0
 40
0.000252
 50
44.033901
 51
45.966098
  0
ARC
  8
0
 10
-167.836488
 20
532.757555
 30
0.0
 40
0.00027
 50
48.419773
 51
50.377636
  0
ARC
  8
0
 10
-167.836493
 20
532.757563
 30
0.0
 40
0.000267
 50
48.409118
 51
50.388294
  0
ARC
  8
0
 10
-167.83647
 20
532.75757
 30
0.0
 40
0.000247
 50
53.464255
 51
55.46039
  0
ARC
  8
0
 10
-167.836476
 20
532.757576
 30
0.0
 40
0.000245
 50
53.458297
 51
55.466348
  0
ARC
  8
0
 10
-167.836483
 20
532.757582
 30
0.0
 40
0.000245
 50
53.454744
 51
55.469899
  0
LINE
  8
0
 10
-167.63457
 20
532.596059
 30
0.0
 11
-167.634592
 21
532.596081
 31
0.0
  0
LINE
  8
0
 10
-167.836282
 20
532.757729
 30
0.0
 11
-167.823418
 21
532.749616
 31
0.0
  0
ARC
  8
0
 10
-168.398253
 20
531.852528
 30
0.0
 40
1.065458
 50
55.712529
 51
57.349098
  0
ARC
  8
0
 10
-168.403136
 20
531.845313
 30
0.0
 40
1.074171
 50
54.089725
 51
55.714148
  0
ARC
  8
0
 10
-168.407577
 20
531.839225
 30
0.0
 40
1.081706
 50
52.47422
 51
54.08833
  0
ARC
  8
0
 10
-168.411502
 20
531.834123
 30
0.0
 40
1.088143
 50
50.868553
 51
52.473954
  0
ARC
  8
0
 10
-168.41483
 20
531.830012
 30
0.0
 40
1.093432
 50
49.270933
 51
50.86923
  0
ARC
  8
0
 10
-168.417485
 20
531.826971
 30
0.0
 40
1.097468
 50
47.676455
 51
49.269482
  0
ARC
  8
0
 10
-168.419204
 20
531.825014
 30
0.0
 40
1.100073
 50
46.089282
 51
47.678871
  0
ARC
  8
0
 10
-168.419424
 20
531.824835
 30
0.0
 40
1.100354
 50
44.499767
 51
46.087522
  0
LINE
  8
0
 10
-167.577967
 20
532.533893
 30
0.0
 11
-167.577956
 21
532.533881
 31
0.0
  0
ARC
  8
0
 10
-167.579999
 20
532.532226
 30
0.0
 40
0.002629
 50
38.310878
 51
39.008738
  0
ARC
  8
0
 10
-167.579906
 20
532.532259
 30
0.0
 40
0.002535
 50
38.298044
 51
39.021572
  0
ARC
  8
0
 10
-167.579738
 20
532.532369
 30
0.0
 40
0.002336
 50
37.992085
 51
38.742886
  0
ARC
  8
0
 10
-167.579652
 20
532.532472
 30
0.0
 40
0.002205
 50
36.480173
 51
37.259622
  0
ARC
  8
0
 10
-167.579569
 20
532.532497
 30
0.0
 40
0.002123
 50
36.465047
 51
37.274748
  0
ARC
  8
0
 10
-167.579486
 20
532.53259
 30
0.0
 40
0.002001
 50
34.890206
 51
35.732221
  0
ARC
  8
0
 10
-167.579341
 20
532.532677
 30
0.0
 40
0.001833
 50
34.386522
 51
35.262456
  0
ARC
  8
0
 10
-168.263967
 20
531.900064
 30
0.0
 40
0.926863
 50
7.451156
 51
9.255019
  0
LINE
  8
0
 10
-167.349169
 20
532.049131
 30
0.0
 11
-167.3517
 21
532.063866
 31
0.0
  0
ARC
  8
0
 10
-168.25525
 20
531.900982
 30
0.0
 40
0.918114
 50
10.218979
 51
12.089759
  0
LINE
  8
0
 10
-167.357499
 20
532.093276
 30
0.0
 11
-167.361952
 21
532.113011
 31
0.0
  0
ARC
  8
0
 10
-168.273043
 20
531.896883
 30
0.0
 40
0.936375
 50
13.344987
 51
15.826256
  0
LINE
  8
0
 10
-167.372163
 20
532.152252
 30
0.0
 11
-167.377994
 21
532.171999
 31
0.0
  0
ARC
  8
0
 10
-168.294849
 20
531.890366
 30
0.0
 40
0.959135
 50
17.075516
 51
19.539598
  0
LINE
  8
0
 10
-167.39095
 20
532.211157
 30
0.0
 11
-167.39807
 21
532.230565
 31
0.0
  0
ARC
  8
0
 10
-168.318243
 20
531.881718
 30
0.0
 40
0.984079
 50
20.762208
 51
23.172667
  0
LINE
  8
0
 10
-167.413556
 20
532.268957
 30
0.0
 11
-167.421922
 21
532.287956
 31
0.0
  0
ARC
  8
0
 10
-168.342275
 20
531.871097
 30
0.0
 40
1.010357
 50
24.367379
 51
26.724215
  0
LINE
  8
0
 10
-167.439843
 20
532.325451
 30
0.0
 11
-167.449412
 21
532.343987
 31
0.0
  0
ARC
  8
0
 10
-168.366618
 20
531.858508
 30
0.0
 40
1.037765
 50
27.89235
 51
30.197396
  0
LINE
  8
0
 10
-167.46968
 20
532.380484
 30
0.0
 11
-167.480331
 21
532.398378
 31
0.0
  0
ARC
  8
0
 10
-168.390149
 20
531.844495
 30
0.0
 40
1.065154
 50
31.332396
 51
33.573277
  0
LINE
  8
0
 10
-167.502684
 20
532.433529
 30
0.0
 11
-167.514477
 21
532.450928
 31
0.0
  0
ARC
  8
0
 10
-168.410486
 20
531.830744
 30
0.0
 40
1.089706
 50
34.689528
 51
36.898556
  0
LINE
  8
0
 10
-167.539048
 20
532.485004
 30
0.0
 11
-167.551725
 21
532.501561
 31
0.0
  0
ARC
  8
0
 10
-168.422565
 20
531.821567
 30
0.0
 40
1.104877
 50
37.984461
 51
40.143989
  0
LINE
  8
0
 10
-167.340181
 20
531.974872
 30
0.0
 11
-167.341138
 21
531.986098
 31
0.0
  0
LINE
  8
0
 10
-167.341138
 20
531.986098
 30
0.0
 11
-167.342237
 21
531.997317
 31
0.0
  0
ARC
  8
0
 10
-168.236478
 20
531.903999
 30
0.0
 40
0.899096
 50
5.957464
 51
7.387319
  0
LINE
  8
0
 10
-167.344844
 20
532.019602
 30
0.0
 11
-167.34493
 21
532.020261
 31
0.0
  0
LINE
  8
0
 10
-167.577828
 20
532.533712
 30
0.0
 11
-167.583893
 21
532.54085
 31
0.0
  0
ARC
  8
0
 10
-168.187379
 20
532.026157
 30
0.0
 40
0.79316
 50
40.459785
 51
41.437245
  0
LINE
  8
0
 10
-167.340181
 20
531.974872
 30
0.0
 11
-167.340162
 21
531.974636
 31
0.0
  0
ARC
  8
0
 10
-167.374219
 20
531.905266
 30
0.0
 40
0.036787
 50
1.99191
 51
2.612307
  0
ARC
  8
0
 10
-167.373911
 20
531.905336
 30
0.0
 40
0.036476
 50
1.275217
 51
1.899052
  0
ARC
  8
0
 10
-167.373611
 20
531.905402
 30
0.0
 40
0.036175
 50
0.554415
 51
1.181688
  0
ARC
  8
0
 10
-167.37341
 20
531.905372
 30
0.0
 40
0.035975
 50
359.974015
 51
0.604725
  0
ARC
  8
0
 10
-167.595806
 20
532.548664
 30
0.0
 40
0.003882
 50
40.950555
 51
41.421296
  0
ARC
  8
0
 10
-167.595699
 20
532.548834
 30
0.0
 40
0.003689
 50
39.562981
 51
40.048161
  0
ARC
  8
0
 10
-167.595477
 20
532.548883
 30
0.0
 40
0.003489
 50
40.758819
 51
41.259354
  0
ARC
  8
0
 10
-167.595375
 20
532.549043
 30
0.0
 40
0.003307
 50
39.301264
 51
39.818071
  0
ARC
  8
0
 10
-167.595274
 20
532.549088
 30
0.0
 40
0.003201
 50
39.29267
 51
39.826666
  0
ARC
  8
0
 10
-167.595173
 20
532.549236
 30
0.0
 40
0.00303
 50
37.770877
 51
38.323208
  0
ARC
  8
0
 10
-167.594975
 20
532.549377
 30
0.0
 40
0.002787
 50
37.40845
 51
37.980031
  0
ARC
  8
0
 10
-168.420322
 20
531.823911
 30
0.0
 40
1.101643
 50
43.700984
 51
44.499684
  0
ARC
  8
0
 10
-168.420099
 20
531.824145
 30
0.0
 40
1.101321
 50
42.90127
 51
43.700199
  0
ARC
  8
0
 10
-168.419579
 20
531.824582
 30
0.0
 40
1.100642
 50
42.103648
 51
42.903035
  0
ARC
  8
0
 10
-168.418827
 20
531.825287
 30
0.0
 40
1.099612
 50
41.302605
 51
42.10268
  0
ARC
  8
0
 10
-168.048957
 20
531.908454
 30
0.0
 40
0.711528
 50
359.750501
 51
2.512024
  0
ARC
  8
0
 10
-168.203687
 20
531.906266
 30
0.0
 40
0.866217
 50
0.044734
 51
0.946794
  0
ARC
  8
0
 10
-168.206582
 20
531.906197
 30
0.0
 40
0.869113
 50
0.948226
 51
1.845931
  0
ARC
  8
0
 10
-168.209587
 20
531.906097
 30
0.0
 40
0.87212
 50
1.846124
 51
2.739475
  0
ARC
  8
0
 10
-168.212829
 20
531.905966
 30
0.0
 40
0.875364
 50
2.737906
 51
3.626903
  0
ARC
  8
0
 10
-168.200976
 20
531.906833
 30
0.0
 40
0.86348
 50
3.619215
 51
4.503628
  0
LINE
  8
0
 10
-255.478141
 20
550.623589
 30
0.0
 11
-253.223461
 21
552.878269
 31
0.0
  0
LINE
  8
0
 10
-255.480839
 20
543.549824
 30
0.0
 11
-246.152393
 21
552.878269
 31
0.0
  0
LINE
  8
0
 10
-255.483536
 20
536.476059
 30
0.0
 11
-239.081326
 21
552.878269
 31
0.0
  0
LINE
  8
0
 10
-255.486233
 20
529.402294
 30
0.0
 11
-232.010258
 21
552.878269
 31
0.0
  0
LINE
  8
0
 10
-255.48893
 20
522.328529
 30
0.0
 11
-224.93919
 21
552.878269
 31
0.0
  0
LINE
  8
0
 10
-255.491627
 20
515.254764
 30
0.0
 11
-217.868122
 21
552.878269
 31
0.0
  0
LINE
  8
0
 10
-230.797054
 20
532.878269
 30
0.0
 11
-210.797054
 21
552.878269
 31
0.0
  0
LINE
  8
0
 10
-255.494325
 20
508.180999
 30
0.0
 11
-235.54299
 21
528.132334
 31
0.0
  0
LINE
  8
0
 10
-223.725987
 20
532.878269
 30
0.0
 11
-203.725987
 21
552.878269
 31
0.0
  0
LINE
  8
0
 10
-255.497022
 20
501.107234
 30
0.0
 11
-235.54299
 21
521.061266
 31
0.0
  0
LINE
  8
0
 10
-216.654919
 20
532.878269
 30
0.0
 11
-196.654919
 21
552.878269
 31
0.0
  0
LINE
  8
0
 10
-255.499719
 20
494.033469
 30
0.0
 11
-235.54299
 21
513.990198
 31
0.0
  0
LINE
  8
0
 10
-209.583851
 20
532.878269
 30
0.0
 11
-189.583851
 21
552.878269
 31
0.0
  0
LINE
  8
0
 10
-255.502416
 20
486.959704
 30
0.0
 11
-235.54299
 21
506.91913
 31
0.0
  0
LINE
  8
0
 10
-202.512783
 20
532.878269
 30
0.0
 11
-182.512783
 21
552.878269
 31
0.0
  0
LINE
  8
0
 10
-255.505114
 20
479.885939
 30
0.0
 11
-235.54299
 21
499.848062
 31
0.0
  0
LINE
  8
0
 10
-195.441715
 20
532.878269
 30
0.0
 11
-176.037435
 21
552.282549
 31
0.0
  0
LINE
  8
0
 10
-255.507811
 20
472.812174
 30
0.0
 11
-235.54299
 21
492.776994
 31
0.0
  0
LINE
  8
0
 10
-188.370647
 20
532.878269
 30
0.0
 11
-176.037435
 21
545.211481
 31
0.0
  0
LINE
  8
0
 10
-255.510508
 20
465.738409
 30
0.0
 11
-235.54299
 21
485.705927
 31
0.0
  0
LINE
  8
0
 10
-181.29958
 20
532.878269
 30
0.0
 11
-176.037435
 21
538.140414
 31
0.0
  0
LINE
  8
0
 10
-255.513205
 20
458.664644
 30
0.0
 11
-235.54299
 21
478.634859
 31
0.0
  0
LINE
  8
0
 10
-255.515903
 20
451.590879
 30
0.0
 11
-235.54299
 21
471.563791
 31
0.0
  0
LINE
  8
0
 10
-255.5186
 20
444.517114
 30
0.0
 11
-235.54299
 21
464.492723
 31
0.0
  0
LINE
  8
0
 10
-255.521297
 20
437.443349
 30
0.0
 11
-235.54299
 21
457.421655
 31
0.0
  0
LINE
  8
0
 10
-255.523994
 20
430.369584
 30
0.0
 11
-235.54299
 21
450.350588
 31
0.0
  0
LINE
  8
0
 10
-255.526691
 20
423.295818
 30
0.0
 11
-235.54299
 21
443.27952
 31
0.0
  0
LINE
  8
0
 10
-255.529389
 20
416.222053
 30
0.0
 11
-235.54299
 21
436.208452
 31
0.0
  0
LINE
  8
0
 10
-255.532086
 20
409.148288
 30
0.0
 11
-235.54299
 21
429.137384
 31
0.0
  0
LINE
  8
0
 10
-255.534783
 20
402.074523
 30
0.0
 11
-235.54299
 21
422.066316
 31
0.0
  0
LINE
  8
0
 10
-255.53748
 20
395.000758
 30
0.0
 11
-235.54299
 21
414.995249
 31
0.0
  0
LINE
  8
0
 10
-255.540178
 20
387.926993
 30
0.0
 11
-235.54299
 21
407.924181
 31
0.0
  0
LINE
  8
0
 10
-253.517834
 20
382.878269
 30
0.0
 11
-233.517834
 21
402.878269
 31
0.0
  0
LINE
  8
0
 10
-246.446766
 20
382.878269
 30
0.0
 11
-226.446766
 21
402.878269
 31
0.0
  0
LINE
  8
0
 10
-239.375698
 20
382.878269
 30
0.0
 11
-219.375698
 21
402.878269
 31
0.0
  0
LINE
  8
0
 10
-232.30463
 20
382.878269
 30
0.0
 11
-212.30463
 21
402.878269
 31
0.0
  0
LINE
  8
0
 10
-225.233562
 20
382.878269
 30
0.0
 11
-205.233562
 21
402.878269
 31
0.0
  0
LINE
  8
0
 10
-218.162495
 20
382.878269
 30
0.0
 11
-198.162495
 21
402.878269
 31
0.0
  0
LINE
  8
0
 10
-211.091427
 20
382.878269
 30
0.0
 11
-191.091427
 21
402.878269
 31
0.0
  0
LINE
  8
0
 10
-204.020359
 20
382.878269
 30
0.0
 11
-184.020359
 21
402.878269
 31
0.0
  0
LINE
  8
0
 10
-196.949291
 20
382.878269
 30
0.0
 11
-176.949291
 21
402.878269
 31
0.0
  0
LINE
  8
0
 10
-189.878223
 20
382.878269
 30
0.0
 11
-176.037435
 21
396.719057
 31
0.0
  0
LINE
  8
0
 10
-182.807156
 20
382.878269
 30
0.0
 11
-176.037435
 21
389.64799
 31
0.0
  0
ENDSEC
  0
EOF
