  0
SECTION
  2
HEADER
  9
$ACADVER
  1
AC1009
  9
$INSBASE
 10
0.0
 20
0.0
 30
0.0
  9
$EXTMIN
 10
-509.537435
 20
382.878269
 30
0.0
  9
$EXTMAX
 10
-418.429022
 20
552.878269
 30
0.0
  9
$LIMMIN
 10
-509.537435
 20
382.878269
  9
$LIMMAX
 10
-421.337429
 20
552.878269
  9
$ORTHOMODE
 70
     0
  9
$REGENMODE
 70
     1
  9
$FILLMODE
 70
     1
  9
$QTEXTMODE
 70
     0
  9
$MIRRTEXT
 70
     1
  9
$DRAGMODE
 70
     2
  9
$LTSCALE
 40
1.0
  9
$OSMODE
 70
     0
  9
$ATTMODE
 70
     1
  9
$TEXTSIZE
 40
3.5
  9
$TRACEWID
 40
0.5
  9
$TEXTSTYLE
  7
STANDARD
  9
$CLAYER
  8
0
  9
$CELTYPE
  6
BYLAYER
  9
$CECOLOR
 62
   256
  9
$DIMSCALE
 40
1.0
  9
$DIMASZ
 40
0.18
  9
$DIMEXO
 40
0.0625
  9
$DIMDLI
 40
0.38
  9
$DIMRND
 40
0.0
  9
$DIMDLE
 40
0.0
  9
$DIMEXE
 40
0.18
  9
$DIMTP
 40
0.0
  9
$DIMTM
 40
0.0
  9
$DIMTXT
 40
0.18
  9
$DIMCEN
 40
0.09
  9
$DIMTSZ
 40
0.0
  9
$DIMTOL
 70
     0
  9
$DIMLIM
 70
     0
  9
$DIMTIH
 70
     1
  9
$DIMTOH
 70
     1
  9
$DIMSE1
 70
     0
  9
$DIMSE2
 70
     0
  9
$DIMTAD
 70
     0
  9
$DIMZIN
 70
     0
  9
$DIMBLK
  1

  9
$DIMASO
 70
     1
  9
$DIMSHO
 70
     1
  9
$DIMPOST
  1

  9
$DIMAPOST
  1

  9
$DIMALT
 70
     0
  9
$DIMALTD
 70
     2
  9
$DIMALTF
 40
25.4
  9
$DIMLFAC
 40
1.0
  9
$DIMTOFL
 70
     0
  9
$DIMTVP
 40
0.0
  9
$DIMTIX
 70
     0
  9
$DIMSOXD
 70
     0
  9
$DIMSAH
 70
     0
  9
$DIMBLK1
  1

  9
$DIMBLK2
  1

  9
$DIMSTYLE
  2
*UNNAMED
  9
$DIMCLRD
 70
     0
  9
$DIMCLRE
 70
     0
  9
$DIMCLRT
 70
     0
  9
$DIMTFAC
 40
1.0
  9
$DIMGAP
 40
0.09
  9
$LUNITS
 70
     2
  9
$LUPREC
 70
     4
  9
$SKETCHINC
 40
0.1
  9
$FILLETRAD
 40
2.0
  9
$AUNITS
 70
     0
  9
$AUPREC
 70
     0
  9
$MENU
  1
ACAD
  9
$ELEVATION
 40
0.0
  9
$PELEVATION
 40
0.0
  9
$THICKNESS
 40
0.0
  9
$LIMCHECK
 70
     0
  9
$BLIPMODE
 70
     1
  9
$CHAMFERA
 40
0.0
  9
$CHAMFERB
 40
0.0
  9
$SKPOLY
 70
     0
  9
$TDCREATE
 40
2450948.640016666
  9
$TDUPDATE
 40
2450948.640527778
  9
$TDINDWG
 40
0.0002670139
  9
$TDUSRTIMER
 40
0.0002670139
  9
$USRTIMER
 70
     1
  9
$ANGBASE
 50
0.0
  9
$ANGDIR
 70
     0
  9
$PDMODE
 70
     0
  9
$PDSIZE
 40
0.0
  9
$PLINEWID
 40
0.0
  9
$COORDS
 70
     2
  9
$SPLFRAME
 70
     0
  9
$SPLINETYPE
 70
     6
  9
$SPLINESEGS
 70
     8
  9
$ATTDIA
 70
     0
  9
$ATTREQ
 70
     1
  9
$HANDLING
 70
     0
  9
$HANDSEED
  5
0
  9
$SURFTAB1
 70
     6
  9
$SURFTAB2
 70
     6
  9
$SURFTYPE
 70
     6
  9
$SURFU
 70
     6
  9
$SURFV
 70
     6
  9
$UCSNAME
  2

  9
$UCSORG
 10
0.0
 20
0.0
 30
0.0
  9
$UCSXDIR
 10
1.0
 20
0.0
 30
0.0
  9
$UCSYDIR
 10
0.0
 20
1.0
 30
0.0
  9
$PUCSNAME
  2

  9
$PUCSORG
 10
0.0
 20
0.0
 30
0.0
  9
$PUCSXDIR
 10
1.0
 20
0.0
 30
0.0
  9
$PUCSYDIR
 10
0.0
 20
1.0
 30
0.0
  9
$USERI1
 70
     0
  9
$USERI2
 70
     0
  9
$USERI3
 70
     0
  9
$USERI4
 70
     0
  9
$USERI5
 70
     0
  9
$USERR1
 40
0.0
  9
$USERR2
 40
0.0
  9
$USERR3
 40
0.0
  9
$USERR4
 40
0.0
  9
$USERR5
 40
0.0
  9
$WORLDVIEW
 70
     1
  9
$SHADEDGE
 70
     3
  9
$SHADEDIF
 70
    70
  9
$TILEMODE
 70
     1
  9
$MAXACTVP
 70
    16
  9
$PINSBASE
 10
0.0
 20
0.0
 30
0.0
  9
$PLIMCHECK
 70
     0
  9
$PEXTMIN
 10
1.000000E+20
 20
1.000000E+20
 30
1.000000E+20
  9
$PEXTMAX
 10
-1.000000E+20
 20
-1.000000E+20
 30
-1.000000E+20
  9
$PLIMMIN
 10
0.0
 20
0.0
  9
$PLIMMAX
 10
420.0
 20
297.0
  9
$UNITMODE
 70
     0
  9
$VISRETAIN
 70
     0
  9
$PLINEGEN
 70
     0
  9
$PSLTSCALE
 70
     1
  9
$TREEDEPTH
 70
  3020
  9
$DWGCODEPAGE
  3
iso8859-1
  0
ENDSEC
  0
SECTION
  2
TABLES
  0
TABLE
  2
VPORT
 70
     2
  0
VPORT
  2
*ACTIVE
 70
     0
 10
0.0
 20
0.0
 11
1.0
 21
1.0
 12
-324.163841
 22
446.848381
 13
0.0
 23
0.0
 14
1.0
 24
1.0
 15
0.0
 25
0.0
 16
0.0
 26
0.0
 36
1.0
 17
0.0
 27
0.0
 37
0.0
 40
272.260535
 41
1.748359
 42
50.0
 43
0.0
 44
0.0
 50
0.0
 51
0.0
 71
     0
 72
   100
 73
     1
 74
     0
 75
     0
 76
     0
 77
     0
 78
     0
  0
ENDTAB
  0
TABLE
  2
LTYPE
 70
     1
  0
LTYPE
  2
CONTINUOUS
 70
    64
  3
Solid line
 72
    65
 73
     0
 40
0.0
  0
ENDTAB
  0
TABLE
  2
LAYER
 70
     1
  0
LAYER
  2
0
 70
    64
 62
     7
  6
CONTINUOUS
  0
ENDTAB
  0
TABLE
  2
STYLE
 70
     1
  0
STYLE
  2
STANDARD
 70
     0
 40
0.0
 41
1.0
 50
0.0
 71
     0
 42
3.5
  3
txt
  4

  0
ENDTAB
  0
TABLE
  2
VIEW
 70
     0
  0
ENDTAB
  0
TABLE
  2
UCS
 70
     0
  0
ENDTAB
  0
TABLE
  2
APPID
 70
     1
  0
APPID
  2
ACAD
 70
    64
  0
ENDTAB
  0
TABLE
  2
DIMSTYLE
 70
     0
  0
ENDTAB
  0
ENDSEC
  0
SECTION
  2
BLOCKS
  0
ENDSEC
  0
SECTION
  2
ENTITIES
  0
LINE
  8
0
 10
-430.537435
 20
405.378269
 30
0.0
 11
-485.037435
 21
405.378269
 31
0.0
  0
LINE
  8
0
 10
-485.037435
 20
530.378269
 30
0.0
 11
-430.537435
 21
530.378269
 31
0.0
  0
LINE
  8
0
 10
-429.537435
 20
532.878269
 30
0.0
 11
-487.537435
 21
532.878269
 31
0.0
  0
LINE
  8
0
 10
-485.037435
 20
530.378269
 30
0.0
 11
-430.537435
 21
530.378269
 31
0.0
  0
LINE
  8
0
 10
-433.355312
 20
526.978269
 30
0.0
 11
-431.379455
 21
526.259116
 31
0.0
  0
LINE
  8
0
 10
-438.137435
 20
524.378269
 30
0.0
 11
-438.137435
 21
523.178269
 31
0.0
  0
LINE
  8
0
 10
-433.637435
 20
525.378269
 30
0.0
 11
-430.221476
 21
524.134961
 31
0.0
  0
LINE
  8
0
 10
-437.137435
 20
525.378269
 30
0.0
 11
-433.637435
 21
525.378269
 31
0.0
  0
LINE
  8
0
 10
-437.537435
 20
526.978269
 30
0.0
 11
-433.355312
 21
526.978269
 31
0.0
  0
LINE
  8
0
 10
-430.037435
 20
529.878269
 30
0.0
 11
-430.037435
 21
527.198808
 31
0.0
  0
LINE
  8
0
 10
-435.237435
 20
516.278269
 30
0.0
 11
-437.837435
 21
516.278269
 31
0.0
  0
LINE
  8
0
 10
-427.537435
 20
530.878269
 30
0.0
 11
-427.537435
 21
526.014346
 31
0.0
  0
LINE
  8
0
 10
-434.537435
 20
514.878269
 30
0.0
 11
-438.537435
 21
514.878269
 31
0.0
  0
LINE
  8
0
 10
-435.237435
 20
520.778269
 30
0.0
 11
-437.837435
 21
520.778269
 31
0.0
  0
LINE
  8
0
 10
-434.537435
 20
522.178269
 30
0.0
 11
-437.137435
 21
522.178269
 31
0.0
  0
LINE
  8
0
 10
-433.537435
 20
520.528269
 30
0.0
 11
-433.537435
 21
521.178269
 31
0.0
  0
LINE
  8
0
 10
-434.937435
 20
520.478269
 30
0.0
 11
-434.937435
 21
516.578269
 31
0.0
  0
LINE
  8
0
 10
-438.137435
 20
520.478269
 30
0.0
 11
-438.137435
 21
516.578269
 31
0.0
  0
LINE
  8
0
 10
-433.537435
 20
515.878269
 30
0.0
 11
-433.537435
 21
516.528269
 31
0.0
  0
LINE
  8
0
 10
-433.537435
 20
516.528269
 30
0.0
 11
-433.537435
 21
520.528269
 31
0.0
  0
LINE
  8
0
 10
-439.537435
 20
524.978269
 30
0.0
 11
-439.537435
 21
515.878269
 31
0.0
  0
LINE
  8
0
 10
-487.037435
 20
464.378269
 30
0.0
 11
-487.037435
 21
441.378269
 31
0.0
  0
LINE
  8
0
 10
-486.037435
 20
495.378269
 30
0.0
 11
-482.027385
 21
495.378269
 31
0.0
  0
LINE
  8
0
 10
-486.037435
 20
495.378269
 30
0.0
 11
-482.027385
 21
495.378269
 31
0.0
  0
LINE
  8
0
 10
-486.137435
 20
496.978269
 30
0.0
 11
-482.351649
 21
496.978269
 31
0.0
  0
LINE
  8
0
 10
-482.351649
 20
498.778269
 30
0.0
 11
-486.137435
 21
498.778269
 31
0.0
  0
LINE
  8
0
 10
-482.027385
 20
500.378269
 30
0.0
 11
-486.037435
 21
500.378269
 31
0.0
  0
LINE
  8
0
 10
-483.183882
 20
500.524716
 30
0.0
 11
-482.678857
 21
501.029741
 31
0.0
  0
LINE
  8
0
 10
-481.290989
 20
501.33893
 30
0.0
 11
-483.183882
 21
503.231823
 31
0.0
  0
LINE
  8
0
 10
-481.290989
 20
494.417609
 30
0.0
 11
-483.183882
 21
492.524716
 31
0.0
  0
LINE
  8
0
 10
-483.183882
 20
495.231823
 30
0.0
 11
-482.678857
 21
494.726798
 31
0.0
  0
LINE
  8
0
 10
-482.027385
 20
500.378269
 30
0.0
 11
-482.678857
 21
501.029741
 31
0.0
  0
LINE
  8
0
 10
-484.037435
 20
500.878269
 30
0.0
 11
-484.037435
 21
502.878269
 31
0.0
  0
LINE
  8
0
 10
-482.678857
 20
494.726798
 30
0.0
 11
-482.027385
 21
495.378269
 31
0.0
  0
LINE
  8
0
 10
-484.037435
 20
492.878269
 30
0.0
 11
-484.037435
 21
494.878269
 31
0.0
  0
LINE
  8
0
 10
-482.027385
 20
470.378269
 30
0.0
 11
-486.037435
 21
470.378269
 31
0.0
  0
LINE
  8
0
 10
-486.037435
 20
465.378269
 30
0.0
 11
-482.027385
 21
465.378269
 31
0.0
  0
LINE
  8
0
 10
-486.137435
 20
466.978269
 30
0.0
 11
-482.351649
 21
466.978269
 31
0.0
  0
LINE
  8
0
 10
-482.351649
 20
468.778269
 30
0.0
 11
-486.137435
 21
468.778269
 31
0.0
  0
LINE
  8
0
 10
-482.027385
 20
470.378269
 30
0.0
 11
-486.037435
 21
470.378269
 31
0.0
  0
LINE
  8
0
 10
-483.183882
 20
470.524716
 30
0.0
 11
-482.678857
 21
471.029741
 31
0.0
  0
LINE
  8
0
 10
-481.290989
 20
471.33893
 30
0.0
 11
-483.183882
 21
473.231823
 31
0.0
  0
LINE
  8
0
 10
-481.290989
 20
464.417609
 30
0.0
 11
-483.183882
 21
462.524716
 31
0.0
  0
LINE
  8
0
 10
-483.183882
 20
465.231823
 30
0.0
 11
-482.678857
 21
464.726798
 31
0.0
  0
LINE
  8
0
 10
-482.027385
 20
470.378269
 30
0.0
 11
-482.678857
 21
471.029741
 31
0.0
  0
LINE
  8
0
 10
-484.037435
 20
470.878269
 30
0.0
 11
-484.037435
 21
472.878269
 31
0.0
  0
LINE
  8
0
 10
-482.678857
 20
464.726798
 30
0.0
 11
-482.027385
 21
465.378269
 31
0.0
  0
LINE
  8
0
 10
-484.037435
 20
462.878269
 30
0.0
 11
-484.037435
 21
464.878269
 31
0.0
  0
LINE
  8
0
 10
-483.183882
 20
440.524716
 30
0.0
 11
-482.678857
 21
441.029741
 31
0.0
  0
LINE
  8
0
 10
-481.290989
 20
441.33893
 30
0.0
 11
-483.183882
 21
443.231823
 31
0.0
  0
LINE
  8
0
 10
-481.290989
 20
434.417609
 30
0.0
 11
-483.183882
 21
432.524716
 31
0.0
  0
LINE
  8
0
 10
-483.183882
 20
435.231823
 30
0.0
 11
-482.678857
 21
434.726798
 31
0.0
  0
LINE
  8
0
 10
-431.379455
 20
409.497423
 30
0.0
 11
-433.355312
 21
408.778269
 31
0.0
  0
LINE
  8
0
 10
-487.037435
 20
528.378269
 30
0.0
 11
-487.037435
 21
501.378269
 31
0.0
  0
LINE
  8
0
 10
-489.537435
 20
404.878269
 30
0.0
 11
-489.537435
 21
530.878269
 31
0.0
  0
LINE
  8
0
 10
-487.537435
 20
402.878269
 30
0.0
 11
-429.537435
 21
402.878269
 31
0.0
  0
LINE
  8
0
 10
-438.137435
 20
412.578269
 30
0.0
 11
-438.137435
 21
411.378269
 31
0.0
  0
LINE
  8
0
 10
-430.221476
 20
411.621577
 30
0.0
 11
-433.637435
 21
410.378269
 31
0.0
  0
LINE
  8
0
 10
-433.637435
 20
410.378269
 30
0.0
 11
-437.137435
 21
410.378269
 31
0.0
  0
LINE
  8
0
 10
-433.355312
 20
408.778269
 30
0.0
 11
-437.537435
 21
408.778269
 31
0.0
  0
LINE
  8
0
 10
-430.037435
 20
408.55773
 30
0.0
 11
-430.037435
 21
405.878269
 31
0.0
  0
LINE
  8
0
 10
-437.837435
 20
419.478269
 30
0.0
 11
-435.237435
 21
419.478269
 31
0.0
  0
LINE
  8
0
 10
-427.537435
 20
409.742192
 30
0.0
 11
-427.537435
 21
404.878269
 31
0.0
  0
LINE
  8
0
 10
-438.537435
 20
420.878269
 30
0.0
 11
-434.537435
 21
420.878269
 31
0.0
  0
LINE
  8
0
 10
-437.837435
 20
414.978269
 30
0.0
 11
-435.237435
 21
414.978269
 31
0.0
  0
LINE
  8
0
 10
-437.137435
 20
413.578269
 30
0.0
 11
-434.537435
 21
413.578269
 31
0.0
  0
LINE
  8
0
 10
-487.037435
 20
494.378269
 30
0.0
 11
-487.037435
 21
471.378269
 31
0.0
  0
LINE
  8
0
 10
-482.027385
 20
440.378269
 30
0.0
 11
-482.678857
 21
441.029741
 31
0.0
  0
LINE
  8
0
 10
-484.037435
 20
440.878269
 30
0.0
 11
-484.037435
 21
442.878269
 31
0.0
  0
LINE
  8
0
 10
-482.351649
 20
438.778269
 30
0.0
 11
-486.137435
 21
438.778269
 31
0.0
  0
LINE
  8
0
 10
-482.027385
 20
440.378269
 30
0.0
 11
-486.037435
 21
440.378269
 31
0.0
  0
LINE
  8
0
 10
-482.678857
 20
434.726798
 30
0.0
 11
-482.027385
 21
435.378269
 31
0.0
  0
LINE
  8
0
 10
-484.037435
 20
432.878269
 30
0.0
 11
-484.037435
 21
434.878269
 31
0.0
  0
LINE
  8
0
 10
-486.137435
 20
436.978269
 30
0.0
 11
-482.351649
 21
436.978269
 31
0.0
  0
LINE
  8
0
 10
-486.037435
 20
435.378269
 30
0.0
 11
-482.027385
 21
435.378269
 31
0.0
  0
LINE
  8
0
 10
-487.037435
 20
434.378269
 30
0.0
 11
-487.037435
 21
407.378269
 31
0.0
  0
LINE
  8
0
 10
-433.537435
 20
414.578269
 30
0.0
 11
-433.537435
 21
415.228269
 31
0.0
  0
LINE
  8
0
 10
-434.937435
 20
419.178269
 30
0.0
 11
-434.937435
 21
415.278269
 31
0.0
  0
LINE
  8
0
 10
-438.137435
 20
419.178269
 30
0.0
 11
-438.137435
 21
415.278269
 31
0.0
  0
LINE
  8
0
 10
-433.537435
 20
419.228269
 30
0.0
 11
-433.537435
 21
419.878269
 31
0.0
  0
LINE
  8
0
 10
-433.537435
 20
415.228269
 30
0.0
 11
-433.537435
 21
419.228269
 31
0.0
  0
LINE
  8
0
 10
-439.537435
 20
419.878269
 30
0.0
 11
-439.537435
 21
410.778269
 31
0.0
  0
ARC
  8
0
 10
-485.037435
 20
528.378269
 30
0.0
 40
2.0
 50
90.0
 51
180.0
  0
ARC
  8
0
 10
-487.537435
 20
530.878269
 30
0.0
 40
2.0
 50
90.0
 51
180.0
  0
ARC
  8
0
 10
-429.537435
 20
526.014346
 30
0.0
 40
2.0
 50
249.999978
 51
0.000001
  0
ARC
  8
0
 10
-431.037435
 20
527.198808
 30
0.0
 40
1.0
 50
250.0
 51
0.0
  0
ARC
  8
0
 10
-437.537435
 20
524.978269
 30
0.0
 40
2.0
 50
90.0
 51
180.0
  0
ARC
  8
0
 10
-437.137435
 20
524.378269
 30
0.0
 40
1.0
 50
90.0
 51
180.0
  0
ARC
  8
0
 10
-437.837435
 20
516.578269
 30
0.0
 40
0.3
 50
180.0
 51
189.594068
  0
ARC
  8
0
 10
-435.237435
 20
516.578269
 30
0.0
 40
0.3
 50
270.0
 51
350.405932
  0
ARC
  8
0
 10
-434.537435
 20
515.878269
 30
0.0
 40
1.0
 50
270.0
 51
0.0
  0
ARC
  8
0
 10
-438.537435
 20
515.878269
 30
0.0
 40
1.0
 50
180.0
 51
270.0
  0
ARC
  8
0
 10
-429.537435
 20
530.878269
 30
0.0
 40
2.0
 50
0.0
 51
90.0
  0
ARC
  8
0
 10
-430.537435
 20
529.878269
 30
0.0
 40
0.5
 50
0.0
 51
90.0
  0
ARC
  8
0
 10
-434.537435
 20
521.178269
 30
0.0
 40
1.0
 50
0.0
 51
90.0
  0
ARC
  8
0
 10
-437.137435
 20
523.178269
 30
0.0
 40
1.0
 50
180.0
 51
270.0
  0
ARC
  8
0
 10
-435.237435
 20
520.478269
 30
0.0
 40
0.3
 50
0.0
 51
9.594068
  0
ARC
  8
0
 10
-437.837435
 20
520.478269
 30
0.0
 40
0.3
 50
90.0
 51
170.405932
  0
ARC
  8
0
 10
-435.237435
 20
516.578269
 30
0.0
 40
0.3
 50
350.405932
 51
0.0
  0
ARC
  8
0
 10
-435.237435
 20
520.478269
 30
0.0
 40
0.3
 50
9.594068
 51
90.0
  0
ARC
  8
0
 10
-437.837435
 20
516.578269
 30
0.0
 40
0.3
 50
189.594068
 51
270.0
  0
ARC
  8
0
 10
-437.837435
 20
520.478269
 30
0.0
 40
0.3
 50
170.405932
 51
180.0
  0
ARC
  8
0
 10
-486.037435
 20
501.378269
 30
0.0
 40
1.0
 50
180.0
 51
270.0
  0
ARC
  8
0
 10
-486.137435
 20
497.878269
 30
0.0
 40
0.9
 50
90.0
 51
270.0
  0
ARC
  8
0
 10
-486.037435
 20
494.378269
 30
0.0
 40
1.0
 50
90.0
 51
180.0
  0
ARC
  8
0
 10
-483.537435
 20
492.878269
 30
0.0
 40
0.5
 50
180.0
 51
270.0
  0
ARC
  8
0
 10
-483.537435
 20
502.878269
 30
0.0
 40
0.5
 50
45.0
 51
90.0
  0
ARC
  8
0
 10
-483.537435
 20
500.878269
 30
0.0
 40
0.5
 50
180.0
 51
315.0
  0
ARC
  8
0
 10
-483.537435
 20
502.878269
 30
0.0
 40
0.5
 50
90.0
 51
180.0
  0
ARC
  8
0
 10
-482.351649
 20
500.278269
 30
0.0
 40
1.5
 50
270.0
 51
45.0
  0
ARC
  8
0
 10
-483.537435
 20
494.878269
 30
0.0
 40
0.5
 50
45.0
 51
180.0
  0
ARC
  8
0
 10
-483.537435
 20
492.878269
 30
0.0
 40
0.5
 50
270.0
 51
315.0
  0
ARC
  8
0
 10
-482.351649
 20
495.478269
 30
0.0
 40
1.5
 50
315.0
 51
90.0
  0
ARC
  8
0
 10
-486.037435
 20
471.378269
 30
0.0
 40
1.0
 50
180.0
 51
270.0
  0
ARC
  8
0
 10
-486.037435
 20
464.378269
 30
0.0
 40
1.0
 50
90.0
 51
180.0
  0
ARC
  8
0
 10
-486.137435
 20
467.878269
 30
0.0
 40
0.9
 50
90.0
 51
270.0
  0
ARC
  8
0
 10
-486.037435
 20
471.378269
 30
0.0
 40
1.0
 50
180.0
 51
270.0
  0
ARC
  8
0
 10
-483.537435
 20
462.878269
 30
0.0
 40
0.5
 50
180.0
 51
270.0
  0
ARC
  8
0
 10
-483.537435
 20
472.878269
 30
0.0
 40
0.5
 50
45.0
 51
90.0
  0
ARC
  8
0
 10
-483.537435
 20
470.878269
 30
0.0
 40
0.5
 50
180.0
 51
315.0
  0
ARC
  8
0
 10
-483.537435
 20
472.878269
 30
0.0
 40
0.5
 50
90.0
 51
180.0
  0
ARC
  8
0
 10
-482.351649
 20
470.278269
 30
0.0
 40
1.5
 50
270.0
 51
45.0
  0
ARC
  8
0
 10
-483.537435
 20
464.878269
 30
0.0
 40
0.5
 50
45.0
 51
180.0
  0
ARC
  8
0
 10
-483.537435
 20
462.878269
 30
0.0
 40
0.5
 50
270.0
 51
315.0
  0
ARC
  8
0
 10
-482.351649
 20
465.478269
 30
0.0
 40
1.5
 50
315.0
 51
90.0
  0
ARC
  8
0
 10
-429.537435
 20
409.742192
 30
0.0
 40
2.0
 50
359.999999
 51
110.000022
  0
ARC
  8
0
 10
-485.037435
 20
407.378269
 30
0.0
 40
2.0
 50
180.0
 51
270.0
  0
ARC
  8
0
 10
-487.537435
 20
404.878269
 30
0.0
 40
2.0
 50
180.0
 51
270.0
  0
ARC
  8
0
 10
-431.037435
 20
408.55773
 30
0.0
 40
1.0
 50
0.0
 51
110.0
  0
ARC
  8
0
 10
-437.537435
 20
410.778269
 30
0.0
 40
2.0
 50
180.0
 51
270.0
  0
ARC
  8
0
 10
-437.137435
 20
411.378269
 30
0.0
 40
1.0
 50
180.0
 51
270.0
  0
ARC
  8
0
 10
-437.837435
 20
419.178269
 30
0.0
 40
0.3
 50
170.405932
 51
180.0
  0
ARC
  8
0
 10
-435.237435
 20
419.178269
 30
0.0
 40
0.3
 50
9.594068
 51
90.0
  0
ARC
  8
0
 10
-434.537435
 20
419.878269
 30
0.0
 40
1.0
 50
0.0
 51
90.0
  0
ARC
  8
0
 10
-438.537435
 20
419.878269
 30
0.0
 40
1.0
 50
90.0
 51
180.0
  0
ARC
  8
0
 10
-429.537435
 20
404.878269
 30
0.0
 40
2.0
 50
270.0
 51
0.0
  0
ARC
  8
0
 10
-430.537435
 20
405.878269
 30
0.0
 40
0.5
 50
270.0
 51
0.0
  0
ARC
  8
0
 10
-434.537435
 20
414.578269
 30
0.0
 40
1.0
 50
270.0
 51
0.0
  0
ARC
  8
0
 10
-437.137435
 20
412.578269
 30
0.0
 40
1.0
 50
90.0
 51
180.0
  0
ARC
  8
0
 10
-435.237435
 20
415.278269
 30
0.0
 40
0.3
 50
350.405932
 51
0.0
  0
ARC
  8
0
 10
-437.837435
 20
415.278269
 30
0.0
 40
0.3
 50
189.594068
 51
270.0
  0
ARC
  8
0
 10
-486.037435
 20
434.378269
 30
0.0
 40
1.0
 50
90.0
 51
180.0
  0
ARC
  8
0
 10
-486.037435
 20
441.378269
 30
0.0
 40
1.0
 50
180.0
 51
270.0
  0
ARC
  8
0
 10
-486.137435
 20
437.878269
 30
0.0
 40
0.9
 50
90.0
 51
270.0
  0
ARC
  8
0
 10
-435.237435
 20
419.178269
 30
0.0
 40
0.3
 50
0.0
 51
9.594068
  0
ARC
  8
0
 10
-435.237435
 20
415.278269
 30
0.0
 40
0.3
 50
270.0
 51
350.405932
  0
ARC
  8
0
 10
-437.837435
 20
419.178269
 30
0.0
 40
0.3
 50
90.0
 51
170.405932
  0
ARC
  8
0
 10
-437.837435
 20
415.278269
 30
0.0
 40
0.3
 50
180.0
 51
189.594068
  0
ARC
  8
0
 10
-483.537435
 20
432.878269
 30
0.0
 40
0.5
 50
180.0
 51
270.0
  0
ARC
  8
0
 10
-483.537435
 20
442.878269
 30
0.0
 40
0.5
 50
45.0
 51
90.0
  0
ARC
  8
0
 10
-483.537435
 20
440.878269
 30
0.0
 40
0.5
 50
180.0
 51
315.0
  0
ARC
  8
0
 10
-483.537435
 20
442.878269
 30
0.0
 40
0.5
 50
90.0
 51
180.0
  0
ARC
  8
0
 10
-482.351649
 20
440.278269
 30
0.0
 40
1.5
 50
270.0
 51
45.0
  0
ARC
  8
0
 10
-483.537435
 20
434.878269
 30
0.0
 40
0.5
 50
45.0
 51
180.0
  0
ARC
  8
0
 10
-483.537435
 20
432.878269
 30
0.0
 40
0.5
 50
270.0
 51
315.0
  0
ARC
  8
0
 10
-482.351649
 20
435.478269
 30
0.0
 40
1.5
 50
315.0
 51
90.0
  0
LINE
  8
0
 10
-418.6335
 20
436.757829
 30
0.0
 11
-418.6335
 21
499.175648
 31
0.0
  0
LINE
  8
0
 10
-418.6335
 20
499.175648
 30
0.0
 11
-418.633545
 21
512.884045
 31
0.0
  0
ARC
  8
0
 10
-419.633545
 20
512.884042
 30
0.0
 40
1.0
 50
0.000188
 51
88.999959
  0
LINE
  8
0
 10
-421.333451
 20
513.913867
 30
0.0
 11
-419.616092
 21
513.883889
 31
0.0
  0
LINE
  8
0
 10
-418.6335
 20
436.757829
 30
0.0
 11
-418.633545
 21
423.049432
 31
0.0
  0
ARC
  8
0
 10
-419.633545
 20
423.049436
 30
0.0
 40
1.0
 50
271.0
 51
359.999812
  0
LINE
  8
0
 10
-421.333451
 20
422.019609
 30
0.0
 11
-419.616093
 21
422.049588
 31
0.0
  0
LINE
  8
0
 10
-428.21239
 20
532.492176
 30
0.0
 11
-428.126869
 21
532.406655
 31
0.0
  0
LINE
  8
0
 10
-427.537435
 20
404.845648
 30
0.0
 11
-427.537435
 21
409.768221
 31
0.0
  0
LINE
  8
0
 10
-427.537435
 20
526.066221
 30
0.0
 11
-427.537435
 21
530.988794
 31
0.0
  0
LINE
  8
0
 10
-428.126869
 20
532.406655
 30
0.0
 11
-428.123221
 21
532.403007
 31
0.0
  0
LINE
  8
0
 10
-428.126869
 20
403.427787
 30
0.0
 11
-428.21239
 21
403.342266
 31
0.0
  0
LINE
  8
0
 10
-429.537435
 20
411.767221
 30
0.0
 11
-429.536435
 21
411.767221
 31
0.0
  0
LINE
  8
0
 10
-429.537435
 20
524.067221
 30
0.0
 11
-429.537435
 21
411.767221
 31
0.0
  0
LINE
  8
0
 10
-429.536435
 20
524.067221
 30
0.0
 11
-429.537435
 21
524.067221
 31
0.0
  0
LINE
  8
0
 10
-428.123221
 20
403.431434
 30
0.0
 11
-428.126869
 21
403.427787
 31
0.0
  0
ARC
  8
0
 10
-428.000257
 20
532.704308
 30
0.0
 40
0.3
 50
89.0
 51
225.0
  0
ARC
  8
0
 10
-429.537435
 20
530.988794
 30
0.0
 40
2.0
 50
0.0
 51
45.0
  0
ARC
  8
0
 10
-429.536435
 20
526.066221
 30
0.0
 40
1.999
 50
270.0
 51
0.0
  0
ARC
  8
0
 10
-429.537435
 20
404.845648
 30
0.0
 40
2.0
 50
315.0
 51
0.0
  0
ARC
  8
0
 10
-429.536435
 20
409.768221
 30
0.0
 40
1.999
 50
0.0
 51
90.0
  0
ARC
  8
0
 10
-428.000257
 20
403.130134
 30
0.0
 40
0.3
 50
135.0
 51
271.0
  0
LINE
  8
0
 10
-479.608663
 20
499.657985
 30
0.0
 11
-484.166402
 21
504.213935
 31
0.0
  0
LINE
  8
0
 10
-484.166402
 20
504.213935
 30
0.0
 11
-479.608663
 21
499.657985
 31
0.0
  0
LINE
  8
0
 10
-470.076426
 20
496.330959
 30
0.0
 11
-470.078413
 21
496.330959
 31
0.0
  0
LINE
  8
0
 10
-470.078413
 20
496.330959
 30
0.0
 11
-470.164824
 21
496.334734
 31
0.0
  0
LINE
  8
0
 10
-470.164824
 20
496.334734
 30
0.0
 11
-470.251235
 21
496.346255
 31
0.0
  0
LINE
  8
0
 10
-470.251235
 20
496.346255
 30
0.0
 11
-470.335659
 21
496.363537
 31
0.0
  0
LINE
  8
0
 10
-470.335659
 20
496.363537
 30
0.0
 11
-470.251235
 21
496.346255
 31
0.0
  0
LINE
  8
0
 10
-470.251235
 20
496.346255
 30
0.0
 11
-470.164824
 21
496.334734
 31
0.0
  0
LINE
  8
0
 10
-470.164824
 20
496.334734
 30
0.0
 11
-470.076426
 21
496.330959
 31
0.0
  0
LINE
  8
0
 10
-470.335659
 20
496.363537
 30
0.0
 11
-470.418098
 21
496.390355
 31
0.0
  0
LINE
  8
0
 10
-470.418098
 20
496.390355
 30
0.0
 11
-470.335659
 21
496.363537
 31
0.0
  0
LINE
  8
0
 10
-470.418098
 20
496.390355
 30
0.0
 11
-470.498748
 21
496.422932
 31
0.0
  0
LINE
  8
0
 10
-470.498748
 20
496.422932
 30
0.0
 11
-470.418098
 21
496.390355
 31
0.0
  0
LINE
  8
0
 10
-470.498748
 20
496.422932
 30
0.0
 11
-470.575425
 21
496.463258
 31
0.0
  0
LINE
  8
0
 10
-470.575425
 20
496.463258
 30
0.0
 11
-470.498748
 21
496.422932
 31
0.0
  0
LINE
  8
0
 10
-470.575425
 20
496.463258
 30
0.0
 11
-470.650315
 21
496.51133
 31
0.0
  0
LINE
  8
0
 10
-470.650315
 20
496.51133
 30
0.0
 11
-470.575425
 21
496.463258
 31
0.0
  0
LINE
  8
0
 10
-470.650315
 20
496.51133
 30
0.0
 11
-470.719444
 21
496.562978
 31
0.0
  0
LINE
  8
0
 10
-470.719444
 20
496.562978
 30
0.0
 11
-470.650315
 21
496.51133
 31
0.0
  0
LINE
  8
0
 10
-470.719444
 20
496.562978
 30
0.0
 11
-470.782812
 21
496.622572
 31
0.0
  0
LINE
  8
0
 10
-470.782812
 20
496.622572
 30
0.0
 11
-470.719444
 21
496.562978
 31
0.0
  0
LINE
  8
0
 10
-470.782812
 20
496.622572
 30
0.0
 11
-470.842207
 21
496.68594
 31
0.0
  0
LINE
  8
0
 10
-470.842207
 20
496.68594
 30
0.0
 11
-470.782812
 21
496.622572
 31
0.0
  0
LINE
  8
0
 10
-470.842207
 20
496.68594
 30
0.0
 11
-470.894054
 21
496.755069
 31
0.0
  0
LINE
  8
0
 10
-470.894054
 20
496.755069
 30
0.0
 11
-470.842207
 21
496.68594
 31
0.0
  0
LINE
  8
0
 10
-470.894054
 20
496.755069
 30
0.0
 11
-470.941928
 21
496.82976
 31
0.0
  0
LINE
  8
0
 10
-470.941928
 20
496.82976
 30
0.0
 11
-470.894054
 21
496.755069
 31
0.0
  0
LINE
  8
0
 10
-470.941928
 20
496.82976
 30
0.0
 11
-470.982253
 21
496.906636
 31
0.0
  0
LINE
  8
0
 10
-470.982253
 20
496.906636
 30
0.0
 11
-470.941928
 21
496.82976
 31
0.0
  0
LINE
  8
0
 10
-470.982253
 20
496.906636
 30
0.0
 11
-471.01503
 21
496.987286
 31
0.0
  0
LINE
  8
0
 10
-471.01503
 20
496.987286
 30
0.0
 11
-470.982253
 21
496.906636
 31
0.0
  0
LINE
  8
0
 10
-471.01503
 20
496.987286
 30
0.0
 11
-471.041847
 21
497.069725
 31
0.0
  0
LINE
  8
0
 10
-471.041847
 20
497.069725
 30
0.0
 11
-471.01503
 21
496.987286
 31
0.0
  0
LINE
  8
0
 10
-471.041847
 20
497.069725
 30
0.0
 11
-471.059129
 21
497.154149
 31
0.0
  0
LINE
  8
0
 10
-471.059129
 20
497.154149
 30
0.0
 11
-471.041847
 21
497.069725
 31
0.0
  0
LINE
  8
0
 10
-471.059129
 20
497.154149
 30
0.0
 11
-471.07065
 21
497.24056
 31
0.0
  0
LINE
  8
0
 10
-471.07065
 20
497.24056
 30
0.0
 11
-471.059129
 21
497.154149
 31
0.0
  0
LINE
  8
0
 10
-471.07065
 20
497.24056
 30
0.0
 11
-471.074425
 21
497.326773
 31
0.0
  0
LINE
  8
0
 10
-471.074425
 20
497.326773
 30
0.0
 11
-471.074425
 21
497.328759
 31
0.0
  0
LINE
  8
0
 10
-471.074425
 20
497.328759
 30
0.0
 11
-471.07065
 21
497.24056
 31
0.0
  0
LINE
  8
0
 10
-471.074425
 20
498.324771
 30
0.0
 11
-471.07065
 21
498.413169
 31
0.0
  0
LINE
  8
0
 10
-471.07065
 20
498.413169
 30
0.0
 11
-471.074425
 21
498.326758
 31
0.0
  0
LINE
  8
0
 10
-471.07065
 20
498.413169
 30
0.0
 11
-471.059129
 21
498.499381
 31
0.0
  0
LINE
  8
0
 10
-471.059129
 20
498.499381
 30
0.0
 11
-471.07065
 21
498.413169
 31
0.0
  0
LINE
  8
0
 10
-471.059129
 20
498.499381
 30
0.0
 11
-471.041847
 21
498.583806
 31
0.0
  0
LINE
  8
0
 10
-471.041847
 20
498.583806
 30
0.0
 11
-471.059129
 21
498.499381
 31
0.0
  0
LINE
  8
0
 10
-471.041847
 20
498.583806
 30
0.0
 11
-471.01503
 21
498.666443
 31
0.0
  0
LINE
  8
0
 10
-471.01503
 20
498.666443
 30
0.0
 11
-471.041847
 21
498.583806
 31
0.0
  0
LINE
  8
0
 10
-471.01503
 20
498.666443
 30
0.0
 11
-470.982253
 21
498.747093
 31
0.0
  0
LINE
  8
0
 10
-470.982253
 20
498.747093
 30
0.0
 11
-471.01503
 21
498.666443
 31
0.0
  0
LINE
  8
0
 10
-470.982253
 20
498.747093
 30
0.0
 11
-470.941928
 21
498.823771
 31
0.0
  0
LINE
  8
0
 10
-470.941928
 20
498.823771
 30
0.0
 11
-470.982253
 21
498.747093
 31
0.0
  0
LINE
  8
0
 10
-470.941928
 20
498.823771
 30
0.0
 11
-470.894054
 21
498.89866
 31
0.0
  0
LINE
  8
0
 10
-470.894054
 20
498.89866
 30
0.0
 11
-470.941928
 21
498.823771
 31
0.0
  0
LINE
  8
0
 10
-470.894054
 20
498.89866
 30
0.0
 11
-470.842207
 21
498.96759
 31
0.0
  0
LINE
  8
0
 10
-470.842207
 20
498.96759
 30
0.0
 11
-470.894054
 21
498.89866
 31
0.0
  0
LINE
  8
0
 10
-470.842207
 20
498.96759
 30
0.0
 11
-470.782812
 21
499.030959
 31
0.0
  0
LINE
  8
0
 10
-470.782812
 20
499.030959
 30
0.0
 11
-470.842207
 21
498.96759
 31
0.0
  0
LINE
  8
0
 10
-470.782812
 20
499.030959
 30
0.0
 11
-470.719444
 21
499.090552
 31
0.0
  0
LINE
  8
0
 10
-470.719444
 20
499.090552
 30
0.0
 11
-470.782812
 21
499.030959
 31
0.0
  0
LINE
  8
0
 10
-470.719444
 20
499.090552
 30
0.0
 11
-470.650315
 21
499.142399
 31
0.0
  0
LINE
  8
0
 10
-470.650315
 20
499.142399
 30
0.0
 11
-470.719444
 21
499.090552
 31
0.0
  0
LINE
  8
0
 10
-470.650315
 20
499.142399
 30
0.0
 11
-470.575425
 21
499.190273
 31
0.0
  0
LINE
  8
0
 10
-470.575425
 20
499.190273
 30
0.0
 11
-470.650315
 21
499.142399
 31
0.0
  0
LINE
  8
0
 10
-470.575425
 20
499.190273
 30
0.0
 11
-470.498748
 21
499.230598
 31
0.0
  0
LINE
  8
0
 10
-470.498748
 20
499.230598
 30
0.0
 11
-470.575425
 21
499.190273
 31
0.0
  0
LINE
  8
0
 10
-470.498748
 20
499.230598
 30
0.0
 11
-470.418098
 21
499.263176
 31
0.0
  0
LINE
  8
0
 10
-470.418098
 20
499.263176
 30
0.0
 11
-470.498748
 21
499.230598
 31
0.0
  0
LINE
  8
0
 10
-470.418098
 20
499.263176
 30
0.0
 11
-470.335659
 21
499.290192
 31
0.0
  0
LINE
  8
0
 10
-470.335659
 20
499.290192
 30
0.0
 11
-470.418098
 21
499.263176
 31
0.0
  0
LINE
  8
0
 10
-470.335659
 20
499.290192
 30
0.0
 11
-470.251235
 21
499.307275
 31
0.0
  0
LINE
  8
0
 10
-470.251235
 20
499.307275
 30
0.0
 11
-470.335659
 21
499.290192
 31
0.0
  0
LINE
  8
0
 10
-470.251235
 20
499.307275
 30
0.0
 11
-470.164824
 21
499.318797
 31
0.0
  0
LINE
  8
0
 10
-470.164824
 20
499.318797
 30
0.0
 11
-470.251235
 21
499.307275
 31
0.0
  0
LINE
  8
0
 10
-470.164824
 20
499.318797
 30
0.0
 11
-470.076426
 21
499.32277
 31
0.0
  0
LINE
  8
0
 10
-470.076426
 20
499.32277
 30
0.0
 11
-470.164824
 21
499.318797
 31
0.0
  0
LINE
  8
0
 10
-470.076426
 20
499.32277
 30
0.0
 11
-444.347372
 21
499.32277
 31
0.0
  0
LINE
  8
0
 10
-444.347372
 20
499.32277
 30
0.0
 11
-470.076426
 21
499.32277
 31
0.0
  0
LINE
  8
0
 10
-471.074425
 20
498.324771
 30
0.0
 11
-471.074425
 21
497.328759
 31
0.0
  0
LINE
  8
0
 10
-471.074425
 20
497.328759
 30
0.0
 11
-471.074425
 21
498.324771
 31
0.0
  0
LINE
  8
0
 10
-472.206708
 20
498.324771
 30
0.0
 11
-472.252794
 21
498.399661
 31
0.0
  0
LINE
  8
0
 10
-472.252794
 20
498.399661
 30
0.0
 11
-472.306429
 21
498.46879
 31
0.0
  0
LINE
  8
0
 10
-472.306429
 20
498.46879
 30
0.0
 11
-472.364036
 21
498.532158
 31
0.0
  0
LINE
  8
0
 10
-472.364036
 20
498.532158
 30
0.0
 11
-472.429391
 21
498.591553
 31
0.0
  0
LINE
  8
0
 10
-472.429391
 20
498.591553
 30
0.0
 11
-472.498321
 21
498.6434
 31
0.0
  0
LINE
  8
0
 10
-472.498321
 20
498.6434
 30
0.0
 11
-472.571224
 21
498.691274
 31
0.0
  0
LINE
  8
0
 10
-472.571224
 20
498.691274
 30
0.0
 11
-472.6481
 21
498.731599
 31
0.0
  0
LINE
  8
0
 10
-472.6481
 20
498.731599
 30
0.0
 11
-472.72875
 21
498.764177
 31
0.0
  0
LINE
  8
0
 10
-472.72875
 20
498.764177
 30
0.0
 11
-472.811189
 21
498.791193
 31
0.0
  0
LINE
  8
0
 10
-472.811189
 20
498.791193
 30
0.0
 11
-472.8976
 21
498.808475
 31
0.0
  0
LINE
  8
0
 10
-472.8976
 20
498.808475
 30
0.0
 11
-472.984011
 21
498.819996
 31
0.0
  0
LINE
  8
0
 10
-472.984011
 20
498.819996
 30
0.0
 11
-473.070223
 21
498.823771
 31
0.0
  0
LINE
  8
0
 10
-472.206708
 20
498.324771
 30
0.0
 11
-472.166383
 21
498.248094
 31
0.0
  0
LINE
  8
0
 10
-472.166383
 20
498.248094
 30
0.0
 11
-472.133805
 21
498.167443
 31
0.0
  0
LINE
  8
0
 10
-472.133805
 20
498.167443
 30
0.0
 11
-472.106988
 21
498.085005
 31
0.0
  0
LINE
  8
0
 10
-472.106988
 20
498.085005
 30
0.0
 11
-472.087719
 21
498.000382
 31
0.0
  0
LINE
  8
0
 10
-472.087719
 20
498.000382
 30
0.0
 11
-472.076198
 21
497.91417
 31
0.0
  0
LINE
  8
0
 10
-472.076198
 20
497.91417
 30
0.0
 11
-472.072423
 21
497.827758
 31
0.0
  0
LINE
  8
0
 10
-472.072423
 20
497.827758
 30
0.0
 11
-472.076198
 21
497.73956
 31
0.0
  0
LINE
  8
0
 10
-472.076198
 20
497.73956
 30
0.0
 11
-472.087719
 21
497.653148
 31
0.0
  0
LINE
  8
0
 10
-472.087719
 20
497.653148
 30
0.0
 11
-472.076198
 21
497.73956
 31
0.0
  0
LINE
  8
0
 10
-472.076198
 20
497.73956
 30
0.0
 11
-472.072423
 21
497.827758
 31
0.0
  0
LINE
  8
0
 10
-472.072423
 20
497.827758
 30
0.0
 11
-472.076198
 21
497.91417
 31
0.0
  0
LINE
  8
0
 10
-472.076198
 20
497.91417
 30
0.0
 11
-472.087719
 21
498.000382
 31
0.0
  0
LINE
  8
0
 10
-472.087719
 20
498.000382
 30
0.0
 11
-472.106988
 21
498.085005
 31
0.0
  0
LINE
  8
0
 10
-472.106988
 20
498.085005
 30
0.0
 11
-472.133805
 21
498.167443
 31
0.0
  0
LINE
  8
0
 10
-472.133805
 20
498.167443
 30
0.0
 11
-472.166383
 21
498.248094
 31
0.0
  0
LINE
  8
0
 10
-472.166383
 20
498.248094
 30
0.0
 11
-472.206708
 21
498.324771
 31
0.0
  0
LINE
  8
0
 10
-472.206708
 20
498.324771
 30
0.0
 11
-472.252794
 21
498.399661
 31
0.0
  0
LINE
  8
0
 10
-472.252794
 20
498.399661
 30
0.0
 11
-472.306429
 21
498.46879
 31
0.0
  0
LINE
  8
0
 10
-472.306429
 20
498.46879
 30
0.0
 11
-472.364036
 21
498.532158
 31
0.0
  0
LINE
  8
0
 10
-472.364036
 20
498.532158
 30
0.0
 11
-472.429391
 21
498.591553
 31
0.0
  0
LINE
  8
0
 10
-472.429391
 20
498.591553
 30
0.0
 11
-472.498321
 21
498.6434
 31
0.0
  0
LINE
  8
0
 10
-472.498321
 20
498.6434
 30
0.0
 11
-472.571224
 21
498.691274
 31
0.0
  0
LINE
  8
0
 10
-472.571224
 20
498.691274
 30
0.0
 11
-472.6481
 21
498.731599
 31
0.0
  0
LINE
  8
0
 10
-472.6481
 20
498.731599
 30
0.0
 11
-472.72875
 21
498.764177
 31
0.0
  0
LINE
  8
0
 10
-472.72875
 20
498.764177
 30
0.0
 11
-472.811189
 21
498.791193
 31
0.0
  0
LINE
  8
0
 10
-472.811189
 20
498.791193
 30
0.0
 11
-472.8976
 21
498.808475
 31
0.0
  0
LINE
  8
0
 10
-472.8976
 20
498.808475
 30
0.0
 11
-472.984011
 21
498.819996
 31
0.0
  0
LINE
  8
0
 10
-472.984011
 20
498.819996
 30
0.0
 11
-473.070223
 21
498.823771
 31
0.0
  0
LINE
  8
0
 10
-472.087719
 20
497.653148
 30
0.0
 11
-472.106988
 21
497.568724
 31
0.0
  0
LINE
  8
0
 10
-472.106988
 20
497.568724
 30
0.0
 11
-472.087719
 21
497.653148
 31
0.0
  0
LINE
  8
0
 10
-472.106988
 20
497.568724
 30
0.0
 11
-472.133805
 21
497.486087
 31
0.0
  0
LINE
  8
0
 10
-472.133805
 20
497.486087
 30
0.0
 11
-472.106988
 21
497.568724
 31
0.0
  0
LINE
  8
0
 10
-472.133805
 20
497.486087
 30
0.0
 11
-472.166383
 21
497.405635
 31
0.0
  0
LINE
  8
0
 10
-472.166383
 20
497.405635
 30
0.0
 11
-472.133805
 21
497.486087
 31
0.0
  0
LINE
  8
0
 10
-472.166383
 20
497.405635
 30
0.0
 11
-472.206708
 21
497.328759
 31
0.0
  0
LINE
  8
0
 10
-472.206708
 20
497.328759
 30
0.0
 11
-472.166383
 21
497.405635
 31
0.0
  0
LINE
  8
0
 10
-472.206708
 20
497.328759
 30
0.0
 11
-472.252794
 21
497.25387
 31
0.0
  0
LINE
  8
0
 10
-472.252794
 20
497.25387
 30
0.0
 11
-472.206708
 21
497.328759
 31
0.0
  0
LINE
  8
0
 10
-472.252794
 20
497.25387
 30
0.0
 11
-472.306429
 21
497.184939
 31
0.0
  0
LINE
  8
0
 10
-472.306429
 20
497.184939
 30
0.0
 11
-472.252794
 21
497.25387
 31
0.0
  0
LINE
  8
0
 10
-472.306429
 20
497.184939
 30
0.0
 11
-472.364036
 21
497.121571
 31
0.0
  0
LINE
  8
0
 10
-472.364036
 20
497.121571
 30
0.0
 11
-472.306429
 21
497.184939
 31
0.0
  0
LINE
  8
0
 10
-472.364036
 20
497.121571
 30
0.0
 11
-472.429391
 21
497.061977
 31
0.0
  0
LINE
  8
0
 10
-472.429391
 20
497.061977
 30
0.0
 11
-472.364036
 21
497.121571
 31
0.0
  0
LINE
  8
0
 10
-472.429391
 20
497.061977
 30
0.0
 11
-472.498321
 21
497.010131
 31
0.0
  0
LINE
  8
0
 10
-472.498321
 20
497.010131
 30
0.0
 11
-472.429391
 21
497.061977
 31
0.0
  0
LINE
  8
0
 10
-472.498321
 20
497.010131
 30
0.0
 11
-472.571224
 21
496.962257
 31
0.0
  0
LINE
  8
0
 10
-472.571224
 20
496.962257
 30
0.0
 11
-472.498321
 21
497.010131
 31
0.0
  0
LINE
  8
0
 10
-472.571224
 20
496.962257
 30
0.0
 11
-472.6481
 21
496.921932
 31
0.0
  0
LINE
  8
0
 10
-472.6481
 20
496.921932
 30
0.0
 11
-472.571224
 21
496.962257
 31
0.0
  0
LINE
  8
0
 10
-472.6481
 20
496.921932
 30
0.0
 11
-472.72875
 21
496.889354
 31
0.0
  0
LINE
  8
0
 10
-472.72875
 20
496.889354
 30
0.0
 11
-472.6481
 21
496.921932
 31
0.0
  0
LINE
  8
0
 10
-472.72875
 20
496.889354
 30
0.0
 11
-472.811189
 21
496.862537
 31
0.0
  0
LINE
  8
0
 10
-472.811189
 20
496.862537
 30
0.0
 11
-472.72875
 21
496.889354
 31
0.0
  0
LINE
  8
0
 10
-472.811189
 20
496.862537
 30
0.0
 11
-472.8976
 21
496.845254
 31
0.0
  0
LINE
  8
0
 10
-472.8976
 20
496.845254
 30
0.0
 11
-472.811189
 21
496.862537
 31
0.0
  0
LINE
  8
0
 10
-472.8976
 20
496.845254
 30
0.0
 11
-472.984011
 21
496.833733
 31
0.0
  0
LINE
  8
0
 10
-472.984011
 20
496.833733
 30
0.0
 11
-472.8976
 21
496.845254
 31
0.0
  0
LINE
  8
0
 10
-472.984011
 20
496.833733
 30
0.0
 11
-473.070223
 21
496.82976
 31
0.0
  0
LINE
  8
0
 10
-473.070223
 20
496.82976
 30
0.0
 11
-472.984011
 21
496.833733
 31
0.0
  0
LINE
  8
0
 10
-470.076426
 20
496.330959
 30
0.0
 11
-444.347372
 21
496.330959
 31
0.0
  0
LINE
  8
0
 10
-444.347372
 20
496.330959
 30
0.0
 11
-441.756628
 21
497.827758
 31
0.0
  0
LINE
  8
0
 10
-441.756628
 20
497.827758
 30
0.0
 11
-444.347372
 21
499.32277
 31
0.0
  0
LINE
  8
0
 10
-444.347372
 20
499.32277
 30
0.0
 11
-441.756628
 21
497.827758
 31
0.0
  0
LINE
  8
0
 10
-441.756628
 20
497.827758
 30
0.0
 11
-444.347372
 21
496.330959
 31
0.0
  0
LINE
  8
0
 10
-444.347372
 20
496.330959
 30
0.0
 11
-470.076426
 21
496.330959
 31
0.0
  0
LINE
  8
0
 10
-477.869913
 20
500.428036
 30
0.0
 11
-477.743177
 21
500.372779
 31
0.0
  0
LINE
  8
0
 10
-477.743177
 20
500.372779
 30
0.0
 11
-477.614652
 21
500.321098
 31
0.0
  0
LINE
  8
0
 10
-477.614652
 20
500.321098
 30
0.0
 11
-477.486128
 21
500.303816
 31
0.0
  0
LINE
  8
0
 10
-477.486128
 20
500.303816
 30
0.0
 11
-477.355618
 21
500.309307
 31
0.0
  0
LINE
  8
0
 10
-477.355618
 20
500.309307
 30
0.0
 11
-477.225107
 21
500.305334
 31
0.0
  0
LINE
  8
0
 10
-477.225107
 20
500.305334
 30
0.0
 11
-477.355618
 21
500.309307
 31
0.0
  0
LINE
  8
0
 10
-477.355618
 20
500.309307
 30
0.0
 11
-477.486128
 21
500.303816
 31
0.0
  0
LINE
  8
0
 10
-477.486128
 20
500.303816
 30
0.0
 11
-477.614652
 21
500.321098
 31
0.0
  0
LINE
  8
0
 10
-477.614652
 20
500.321098
 30
0.0
 11
-477.743177
 21
500.372779
 31
0.0
  0
LINE
  8
0
 10
-477.743177
 20
500.372779
 30
0.0
 11
-477.869913
 21
500.428036
 31
0.0
  0
LINE
  8
0
 10
-477.869913
 20
500.428036
 30
0.0
 11
-477.996649
 21
500.493225
 31
0.0
  0
LINE
  8
0
 10
-477.996649
 20
500.493225
 30
0.0
 11
-477.869913
 21
500.428036
 31
0.0
  0
LINE
  8
0
 10
-477.996649
 20
500.493225
 30
0.0
 11
-478.119412
 21
500.56199
 31
0.0
  0
LINE
  8
0
 10
-478.119412
 20
500.56199
 30
0.0
 11
-477.996649
 21
500.493225
 31
0.0
  0
LINE
  8
0
 10
-478.119412
 20
500.56199
 30
0.0
 11
-478.240388
 21
500.61185
 31
0.0
  0
LINE
  8
0
 10
-478.240388
 20
500.61185
 30
0.0
 11
-478.119412
 21
500.56199
 31
0.0
  0
LINE
  8
0
 10
-478.240388
 20
500.61185
 30
0.0
 11
-478.357391
 21
500.669458
 31
0.0
  0
LINE
  8
0
 10
-478.357391
 20
500.669458
 30
0.0
 11
-478.240388
 21
500.61185
 31
0.0
  0
LINE
  8
0
 10
-478.357391
 20
500.669458
 30
0.0
 11
-478.472605
 21
500.757491
 31
0.0
  0
LINE
  8
0
 10
-478.472605
 20
500.757491
 30
0.0
 11
-478.357391
 21
500.669458
 31
0.0
  0
LINE
  8
0
 10
-478.472605
 20
500.757491
 30
0.0
 11
-478.583847
 21
500.82662
 31
0.0
  0
LINE
  8
0
 10
-478.583847
 20
500.82662
 30
0.0
 11
-478.472605
 21
500.757491
 31
0.0
  0
LINE
  8
0
 10
-478.583847
 20
500.82662
 30
0.0
 11
-478.691315
 21
500.899523
 31
0.0
  0
LINE
  8
0
 10
-478.691315
 20
500.899523
 30
0.0
 11
-478.583847
 21
500.82662
 31
0.0
  0
LINE
  8
0
 10
-478.691315
 20
500.899523
 30
0.0
 11
-478.795008
 21
500.980174
 31
0.0
  0
LINE
  8
0
 10
-478.795008
 20
500.980174
 30
0.0
 11
-478.691315
 21
500.899523
 31
0.0
  0
LINE
  8
0
 10
-478.795008
 20
500.980174
 30
0.0
 11
-478.894729
 21
501.064598
 31
0.0
  0
LINE
  8
0
 10
-478.894729
 20
501.064598
 30
0.0
 11
-478.795008
 21
500.980174
 31
0.0
  0
LINE
  8
0
 10
-478.894729
 20
501.064598
 30
0.0
 11
-478.988688
 21
501.154784
 31
0.0
  0
LINE
  8
0
 10
-478.988688
 20
501.154784
 30
0.0
 11
-478.894729
 21
501.064598
 31
0.0
  0
LINE
  8
0
 10
-487.02214
 20
491.368181
 30
0.0
 11
-487.033661
 21
491.454394
 31
0.0
  0
LINE
  8
0
 10
-487.033661
 20
491.454394
 30
0.0
 11
-487.037435
 21
491.542791
 31
0.0
  0
LINE
  8
0
 10
-487.02214
 20
491.368181
 30
0.0
 11
-487.004857
 21
491.283756
 31
0.0
  0
LINE
  8
0
 10
-487.004857
 20
491.283756
 30
0.0
 11
-486.977841
 21
491.20112
 31
0.0
  0
LINE
  8
0
 10
-486.977841
 20
491.20112
 30
0.0
 11
-486.945263
 21
491.120469
 31
0.0
  0
LINE
  8
0
 10
-486.945263
 20
491.120469
 30
0.0
 11
-486.904938
 21
491.043792
 31
0.0
  0
LINE
  8
0
 10
-486.904938
 20
491.043792
 30
0.0
 11
-486.857065
 21
490.968902
 31
0.0
  0
LINE
  8
0
 10
-486.857065
 20
490.968902
 30
0.0
 11
-486.805218
 21
490.899773
 31
0.0
  0
LINE
  8
0
 10
-486.805218
 20
490.899773
 30
0.0
 11
-486.745624
 21
490.836604
 31
0.0
  0
LINE
  8
0
 10
-486.745624
 20
490.836604
 30
0.0
 11
-486.682455
 21
490.77701
 31
0.0
  0
LINE
  8
0
 10
-486.682455
 20
490.77701
 30
0.0
 11
-486.613326
 21
490.725163
 31
0.0
  0
LINE
  8
0
 10
-486.613326
 20
490.725163
 30
0.0
 11
-486.538436
 21
490.67729
 31
0.0
  0
LINE
  8
0
 10
-486.538436
 20
490.67729
 30
0.0
 11
-486.461759
 21
490.636964
 31
0.0
  0
LINE
  8
0
 10
-486.461759
 20
490.636964
 30
0.0
 11
-486.381108
 21
490.604386
 31
0.0
  0
LINE
  8
0
 10
-486.381108
 20
490.604386
 30
0.0
 11
-486.298471
 21
490.577371
 31
0.0
  0
LINE
  8
0
 10
-486.298471
 20
490.577371
 30
0.0
 11
-486.214047
 21
490.560088
 31
0.0
  0
LINE
  8
0
 10
-486.214047
 20
490.560088
 30
0.0
 11
-486.127834
 21
490.548567
 31
0.0
  0
LINE
  8
0
 10
-486.127834
 20
490.548567
 30
0.0
 11
-486.039437
 21
490.544793
 31
0.0
  0
LINE
  8
0
 10
-487.033661
 20
491.454394
 30
0.0
 11
-487.037435
 21
491.542791
 31
0.0
  0
LINE
  8
0
 10
-487.033661
 20
491.454394
 30
0.0
 11
-487.02214
 21
491.368181
 31
0.0
  0
LINE
  8
0
 10
-487.02214
 20
491.368181
 30
0.0
 11
-487.004857
 21
491.283756
 31
0.0
  0
LINE
  8
0
 10
-487.004857
 20
491.283756
 30
0.0
 11
-486.977841
 21
491.20112
 31
0.0
  0
LINE
  8
0
 10
-486.977841
 20
491.20112
 30
0.0
 11
-486.945263
 21
491.120469
 31
0.0
  0
LINE
  8
0
 10
-486.945263
 20
491.120469
 30
0.0
 11
-486.904938
 21
491.043792
 31
0.0
  0
LINE
  8
0
 10
-486.904938
 20
491.043792
 30
0.0
 11
-486.857065
 21
490.968902
 31
0.0
  0
LINE
  8
0
 10
-486.857065
 20
490.968902
 30
0.0
 11
-486.805218
 21
490.899773
 31
0.0
  0
LINE
  8
0
 10
-486.805218
 20
490.899773
 30
0.0
 11
-486.745624
 21
490.836604
 31
0.0
  0
LINE
  8
0
 10
-486.745624
 20
490.836604
 30
0.0
 11
-486.682455
 21
490.77701
 31
0.0
  0
LINE
  8
0
 10
-486.682455
 20
490.77701
 30
0.0
 11
-486.613326
 21
490.725163
 31
0.0
  0
LINE
  8
0
 10
-486.613326
 20
490.725163
 30
0.0
 11
-486.538436
 21
490.67729
 31
0.0
  0
LINE
  8
0
 10
-486.538436
 20
490.67729
 30
0.0
 11
-486.461759
 21
490.636964
 31
0.0
  0
LINE
  8
0
 10
-486.461759
 20
490.636964
 30
0.0
 11
-486.381108
 21
490.604386
 31
0.0
  0
LINE
  8
0
 10
-486.381108
 20
490.604386
 30
0.0
 11
-486.298471
 21
490.577371
 31
0.0
  0
LINE
  8
0
 10
-486.298471
 20
490.577371
 30
0.0
 11
-486.214047
 21
490.560088
 31
0.0
  0
LINE
  8
0
 10
-486.214047
 20
490.560088
 30
0.0
 11
-486.127834
 21
490.548567
 31
0.0
  0
LINE
  8
0
 10
-486.127834
 20
490.548567
 30
0.0
 11
-486.039437
 21
490.544793
 31
0.0
  0
LINE
  8
0
 10
-483.460214
 20
490.544793
 30
0.0
 11
-483.373803
 21
490.548567
 31
0.0
  0
LINE
  8
0
 10
-483.373803
 20
490.548567
 30
0.0
 11
-483.287591
 21
490.560088
 31
0.0
  0
LINE
  8
0
 10
-483.287591
 20
490.560088
 30
0.0
 11
-483.202968
 21
490.577371
 31
0.0
  0
LINE
  8
0
 10
-483.202968
 20
490.577371
 30
0.0
 11
-483.118543
 21
490.604386
 31
0.0
  0
LINE
  8
0
 10
-483.118543
 20
490.604386
 30
0.0
 11
-483.038091
 21
490.636964
 31
0.0
  0
LINE
  8
0
 10
-483.038091
 20
490.636964
 30
0.0
 11
-482.961215
 21
490.67729
 31
0.0
  0
LINE
  8
0
 10
-482.961215
 20
490.67729
 30
0.0
 11
-482.888312
 21
490.725163
 31
0.0
  0
LINE
  8
0
 10
-482.888312
 20
490.725163
 30
0.0
 11
-482.819183
 21
490.77701
 31
0.0
  0
LINE
  8
0
 10
-482.819183
 20
490.77701
 30
0.0
 11
-482.754027
 21
490.836604
 31
0.0
  0
LINE
  8
0
 10
-483.373803
 20
490.548567
 30
0.0
 11
-483.460214
 21
490.544793
 31
0.0
  0
LINE
  8
0
 10
-483.373803
 20
490.548567
 30
0.0
 11
-483.287591
 21
490.560088
 31
0.0
  0
LINE
  8
0
 10
-483.287591
 20
490.560088
 30
0.0
 11
-483.202968
 21
490.577371
 31
0.0
  0
LINE
  8
0
 10
-483.202968
 20
490.577371
 30
0.0
 11
-483.118543
 21
490.604386
 31
0.0
  0
LINE
  8
0
 10
-483.118543
 20
490.604386
 30
0.0
 11
-483.038091
 21
490.636964
 31
0.0
  0
LINE
  8
0
 10
-483.038091
 20
490.636964
 30
0.0
 11
-482.961215
 21
490.67729
 31
0.0
  0
LINE
  8
0
 10
-482.961215
 20
490.67729
 30
0.0
 11
-482.888312
 21
490.725163
 31
0.0
  0
LINE
  8
0
 10
-482.888312
 20
490.725163
 30
0.0
 11
-482.819183
 21
490.77701
 31
0.0
  0
LINE
  8
0
 10
-482.819183
 20
490.77701
 30
0.0
 11
-482.754027
 21
490.836604
 31
0.0
  0
LINE
  8
0
 10
-478.988688
 20
494.601744
 30
0.0
 11
-478.894729
 21
494.691929
 31
0.0
  0
LINE
  8
0
 10
-478.894729
 20
494.691929
 30
0.0
 11
-478.988688
 21
494.601744
 31
0.0
  0
LINE
  8
0
 10
-478.894729
 20
494.691929
 30
0.0
 11
-478.795008
 21
494.776354
 31
0.0
  0
LINE
  8
0
 10
-478.795008
 20
494.776354
 30
0.0
 11
-478.894729
 21
494.691929
 31
0.0
  0
LINE
  8
0
 10
-478.795008
 20
494.776354
 30
0.0
 11
-478.691315
 21
494.857004
 31
0.0
  0
LINE
  8
0
 10
-478.691315
 20
494.857004
 30
0.0
 11
-478.795008
 21
494.776354
 31
0.0
  0
LINE
  8
0
 10
-478.691315
 20
494.857004
 30
0.0
 11
-478.583847
 21
494.929908
 31
0.0
  0
LINE
  8
0
 10
-478.583847
 20
494.929908
 30
0.0
 11
-478.691315
 21
494.857004
 31
0.0
  0
LINE
  8
0
 10
-478.583847
 20
494.929908
 30
0.0
 11
-478.472605
 21
494.999036
 31
0.0
  0
LINE
  8
0
 10
-478.472605
 20
494.999036
 30
0.0
 11
-478.583847
 21
494.929908
 31
0.0
  0
LINE
  8
0
 10
-478.472605
 20
494.999036
 30
0.0
 11
-478.357391
 21
495.060418
 31
0.0
  0
LINE
  8
0
 10
-478.357391
 20
495.060418
 30
0.0
 11
-478.472605
 21
494.999036
 31
0.0
  0
LINE
  8
0
 10
-478.357391
 20
495.060418
 30
0.0
 11
-478.240388
 21
495.118026
 31
0.0
  0
LINE
  8
0
 10
-478.240388
 20
495.118026
 30
0.0
 11
-478.357391
 21
495.060418
 31
0.0
  0
LINE
  8
0
 10
-478.240388
 20
495.118026
 30
0.0
 11
-478.119412
 21
495.167886
 31
0.0
  0
LINE
  8
0
 10
-478.119412
 20
495.167886
 30
0.0
 11
-478.240388
 21
495.118026
 31
0.0
  0
LINE
  8
0
 10
-478.119412
 20
495.167886
 30
0.0
 11
-477.996649
 21
495.210197
 31
0.0
  0
LINE
  8
0
 10
-477.996649
 20
495.210197
 30
0.0
 11
-478.119412
 21
495.167886
 31
0.0
  0
LINE
  8
0
 10
-477.996649
 20
495.210197
 30
0.0
 11
-477.869913
 21
495.248536
 31
0.0
  0
LINE
  8
0
 10
-477.869913
 20
495.248536
 30
0.0
 11
-477.996649
 21
495.210197
 31
0.0
  0
LINE
  8
0
 10
-477.869913
 20
495.248536
 30
0.0
 11
-477.743177
 21
495.279128
 31
0.0
  0
LINE
  8
0
 10
-477.743177
 20
495.279128
 30
0.0
 11
-477.869913
 21
495.248536
 31
0.0
  0
LINE
  8
0
 10
-477.743177
 20
495.279128
 30
0.0
 11
-477.614652
 21
495.302171
 31
0.0
  0
LINE
  8
0
 10
-477.614652
 20
495.302171
 30
0.0
 11
-477.743177
 21
495.279128
 31
0.0
  0
LINE
  8
0
 10
-477.614652
 20
495.302171
 30
0.0
 11
-477.486128
 21
495.319453
 31
0.0
  0
LINE
  8
0
 10
-477.486128
 20
495.319453
 30
0.0
 11
-477.614652
 21
495.302171
 31
0.0
  0
LINE
  8
0
 10
-477.486128
 20
495.319453
 30
0.0
 11
-477.355618
 21
495.329186
 31
0.0
  0
LINE
  8
0
 10
-477.355618
 20
495.329186
 30
0.0
 11
-477.486128
 21
495.319453
 31
0.0
  0
LINE
  8
0
 10
-477.355618
 20
495.329186
 30
0.0
 11
-477.225107
 21
495.332961
 31
0.0
  0
LINE
  8
0
 10
-477.225107
 20
495.332961
 30
0.0
 11
-477.355618
 21
495.329186
 31
0.0
  0
LINE
  8
0
 10
-444.347372
 20
495.332961
 30
0.0
 11
-444.260961
 21
495.336735
 31
0.0
  0
LINE
  8
0
 10
-444.260961
 20
495.336735
 30
0.0
 11
-444.17455
 21
495.348257
 31
0.0
  0
LINE
  8
0
 10
-444.17455
 20
495.348257
 30
0.0
 11
-444.090125
 21
495.367525
 31
0.0
  0
LINE
  8
0
 10
-444.090125
 20
495.367525
 30
0.0
 11
-444.007687
 21
495.392356
 31
0.0
  0
LINE
  8
0
 10
-444.007687
 20
495.392356
 30
0.0
 11
-443.927037
 21
495.42692
 31
0.0
  0
LINE
  8
0
 10
-443.927037
 20
495.42692
 30
0.0
 11
-443.848373
 21
495.467246
 31
0.0
  0
LINE
  8
0
 10
-443.848373
 20
495.467246
 30
0.0
 11
-443.927037
 21
495.42692
 31
0.0
  0
LINE
  8
0
 10
-443.927037
 20
495.42692
 30
0.0
 11
-444.007687
 21
495.392356
 31
0.0
  0
LINE
  8
0
 10
-444.007687
 20
495.392356
 30
0.0
 11
-444.090125
 21
495.367525
 31
0.0
  0
LINE
  8
0
 10
-444.090125
 20
495.367525
 30
0.0
 11
-444.17455
 21
495.348257
 31
0.0
  0
LINE
  8
0
 10
-444.17455
 20
495.348257
 30
0.0
 11
-444.260961
 21
495.336735
 31
0.0
  0
LINE
  8
0
 10
-444.260961
 20
495.336735
 30
0.0
 11
-444.347372
 21
495.332961
 31
0.0
  0
LINE
  8
0
 10
-443.848373
 20
500.186285
 30
0.0
 11
-443.927037
 21
500.22661
 31
0.0
  0
LINE
  8
0
 10
-443.927037
 20
500.22661
 30
0.0
 11
-444.007687
 21
500.261175
 31
0.0
  0
LINE
  8
0
 10
-444.007687
 20
500.261175
 30
0.0
 11
-444.090125
 21
500.286005
 31
0.0
  0
LINE
  8
0
 10
-444.090125
 20
500.286005
 30
0.0
 11
-444.17455
 21
500.305274
 31
0.0
  0
LINE
  8
0
 10
-444.17455
 20
500.305274
 30
0.0
 11
-444.260961
 21
500.316795
 31
0.0
  0
LINE
  8
0
 10
-444.260961
 20
500.316795
 30
0.0
 11
-444.347372
 21
500.32057
 31
0.0
  0
LINE
  8
0
 10
-444.347372
 20
500.32057
 30
0.0
 11
-444.260961
 21
500.316795
 31
0.0
  0
LINE
  8
0
 10
-444.260961
 20
500.316795
 30
0.0
 11
-444.17455
 21
500.305274
 31
0.0
  0
LINE
  8
0
 10
-444.17455
 20
500.305274
 30
0.0
 11
-444.090125
 21
500.286005
 31
0.0
  0
LINE
  8
0
 10
-444.090125
 20
500.286005
 30
0.0
 11
-444.007687
 21
500.261175
 31
0.0
  0
LINE
  8
0
 10
-444.007687
 20
500.261175
 30
0.0
 11
-443.927037
 21
500.22661
 31
0.0
  0
LINE
  8
0
 10
-443.927037
 20
500.22661
 30
0.0
 11
-443.848373
 21
500.186285
 31
0.0
  0
LINE
  8
0
 10
-484.836237
 20
502.312097
 30
0.0
 11
-484.899605
 21
502.252503
 31
0.0
  0
LINE
  8
0
 10
-484.899605
 20
502.252503
 30
0.0
 11
-484.836237
 21
502.312097
 31
0.0
  0
LINE
  8
0
 10
-484.899605
 20
502.252503
 30
0.0
 11
-484.968535
 21
502.200656
 31
0.0
  0
LINE
  8
0
 10
-484.968535
 20
502.200656
 30
0.0
 11
-484.899605
 21
502.252503
 31
0.0
  0
LINE
  8
0
 10
-484.968535
 20
502.200656
 30
0.0
 11
-485.043425
 21
502.152782
 31
0.0
  0
LINE
  8
0
 10
-485.043425
 20
502.152782
 30
0.0
 11
-484.968535
 21
502.200656
 31
0.0
  0
LINE
  8
0
 10
-485.043425
 20
502.152782
 30
0.0
 11
-485.120301
 21
502.114444
 31
0.0
  0
LINE
  8
0
 10
-485.120301
 20
502.114444
 30
0.0
 11
-485.043425
 21
502.152782
 31
0.0
  0
LINE
  8
0
 10
-485.120301
 20
502.114444
 30
0.0
 11
-485.200752
 21
502.079879
 31
0.0
  0
LINE
  8
0
 10
-485.200752
 20
502.079879
 30
0.0
 11
-485.120301
 21
502.114444
 31
0.0
  0
LINE
  8
0
 10
-485.200752
 20
502.079879
 30
0.0
 11
-485.283389
 21
502.05485
 31
0.0
  0
LINE
  8
0
 10
-485.283389
 20
502.05485
 30
0.0
 11
-485.200752
 21
502.079879
 31
0.0
  0
LINE
  8
0
 10
-485.283389
 20
502.05485
 30
0.0
 11
-485.367814
 21
502.03578
 31
0.0
  0
LINE
  8
0
 10
-485.367814
 20
502.03578
 30
0.0
 11
-485.283389
 21
502.05485
 31
0.0
  0
LINE
  8
0
 10
-485.367814
 20
502.03578
 30
0.0
 11
-485.454225
 21
502.024258
 31
0.0
  0
LINE
  8
0
 10
-485.454225
 20
502.024258
 30
0.0
 11
-485.367814
 21
502.03578
 31
0.0
  0
LINE
  8
0
 10
-485.454225
 20
502.024258
 30
0.0
 11
-485.540437
 21
502.020285
 31
0.0
  0
LINE
  8
0
 10
-485.540437
 20
502.020285
 30
0.0
 11
-485.454225
 21
502.024258
 31
0.0
  0
LINE
  8
0
 10
-485.540437
 20
502.020285
 30
0.0
 11
-485.628835
 21
502.024258
 31
0.0
  0
LINE
  8
0
 10
-485.628835
 20
502.024258
 30
0.0
 11
-485.540437
 21
502.020285
 31
0.0
  0
LINE
  8
0
 10
-485.628835
 20
502.024258
 30
0.0
 11
-485.715246
 21
502.03578
 31
0.0
  0
LINE
  8
0
 10
-485.715246
 20
502.03578
 30
0.0
 11
-485.628835
 21
502.024258
 31
0.0
  0
LINE
  8
0
 10
-485.715246
 20
502.03578
 30
0.0
 11
-485.799671
 21
502.05485
 31
0.0
  0
LINE
  8
0
 10
-485.799671
 20
502.05485
 30
0.0
 11
-485.715246
 21
502.03578
 31
0.0
  0
LINE
  8
0
 10
-485.799671
 20
502.05485
 30
0.0
 11
-485.882109
 21
502.079879
 31
0.0
  0
LINE
  8
0
 10
-485.882109
 20
502.079879
 30
0.0
 11
-485.799671
 21
502.05485
 31
0.0
  0
LINE
  8
0
 10
-485.882109
 20
502.079879
 30
0.0
 11
-485.962759
 21
502.114444
 31
0.0
  0
LINE
  8
0
 10
-485.962759
 20
502.114444
 30
0.0
 11
-485.882109
 21
502.079879
 31
0.0
  0
LINE
  8
0
 10
-485.962759
 20
502.114444
 30
0.0
 11
-486.039437
 21
502.152782
 31
0.0
  0
LINE
  8
0
 10
-486.039437
 20
502.152782
 30
0.0
 11
-485.962759
 21
502.114444
 31
0.0
  0
LINE
  8
0
 10
-486.039437
 20
502.152782
 30
0.0
 11
-486.114326
 21
502.200656
 31
0.0
  0
LINE
  8
0
 10
-486.114326
 20
502.200656
 30
0.0
 11
-486.039437
 21
502.152782
 31
0.0
  0
LINE
  8
0
 10
-486.114326
 20
502.200656
 30
0.0
 11
-486.183455
 21
502.252503
 31
0.0
  0
LINE
  8
0
 10
-486.183455
 20
502.252503
 30
0.0
 11
-486.114326
 21
502.200656
 31
0.0
  0
LINE
  8
0
 10
-486.183455
 20
502.252503
 30
0.0
 11
-486.246823
 21
502.312097
 31
0.0
  0
LINE
  8
0
 10
-486.246823
 20
502.312097
 30
0.0
 11
-486.183455
 21
502.252503
 31
0.0
  0
LINE
  8
0
 10
-487.037435
 20
504.213935
 30
0.0
 11
-487.033661
 21
504.302134
 31
0.0
  0
LINE
  8
0
 10
-487.033661
 20
504.302134
 30
0.0
 11
-487.037435
 21
504.213935
 31
0.0
  0
LINE
  8
0
 10
-487.033661
 20
504.302134
 30
0.0
 11
-487.02214
 21
504.388545
 31
0.0
  0
LINE
  8
0
 10
-487.02214
 20
504.388545
 30
0.0
 11
-487.033661
 21
504.302134
 31
0.0
  0
LINE
  8
0
 10
-487.02214
 20
504.388545
 30
0.0
 11
-487.004857
 21
504.47297
 31
0.0
  0
LINE
  8
0
 10
-487.004857
 20
504.47297
 30
0.0
 11
-487.02214
 21
504.388545
 31
0.0
  0
LINE
  8
0
 10
-487.004857
 20
504.47297
 30
0.0
 11
-486.977841
 21
504.555408
 31
0.0
  0
LINE
  8
0
 10
-486.977841
 20
504.555408
 30
0.0
 11
-487.004857
 21
504.47297
 31
0.0
  0
LINE
  8
0
 10
-486.977841
 20
504.555408
 30
0.0
 11
-486.945263
 21
504.636058
 31
0.0
  0
LINE
  8
0
 10
-486.945263
 20
504.636058
 30
0.0
 11
-486.977841
 21
504.555408
 31
0.0
  0
LINE
  8
0
 10
-486.945263
 20
504.636058
 30
0.0
 11
-486.904938
 21
504.712736
 31
0.0
  0
LINE
  8
0
 10
-486.904938
 20
504.712736
 30
0.0
 11
-486.945263
 21
504.636058
 31
0.0
  0
LINE
  8
0
 10
-486.904938
 20
504.712736
 30
0.0
 11
-486.857065
 21
504.787626
 31
0.0
  0
LINE
  8
0
 10
-486.857065
 20
504.787626
 30
0.0
 11
-486.904938
 21
504.712736
 31
0.0
  0
LINE
  8
0
 10
-486.857065
 20
504.787626
 30
0.0
 11
-486.805218
 21
504.856754
 31
0.0
  0
LINE
  8
0
 10
-486.805218
 20
504.856754
 30
0.0
 11
-486.857065
 21
504.787626
 31
0.0
  0
LINE
  8
0
 10
-486.805218
 20
504.856754
 30
0.0
 11
-486.745624
 21
504.920123
 31
0.0
  0
LINE
  8
0
 10
-486.745624
 20
504.920123
 30
0.0
 11
-486.805218
 21
504.856754
 31
0.0
  0
LINE
  8
0
 10
-486.745624
 20
504.920123
 30
0.0
 11
-486.682455
 21
504.979518
 31
0.0
  0
LINE
  8
0
 10
-486.682455
 20
504.979518
 30
0.0
 11
-486.745624
 21
504.920123
 31
0.0
  0
LINE
  8
0
 10
-486.682455
 20
504.979518
 30
0.0
 11
-486.613326
 21
505.031364
 31
0.0
  0
LINE
  8
0
 10
-486.613326
 20
505.031364
 30
0.0
 11
-486.682455
 21
504.979518
 31
0.0
  0
LINE
  8
0
 10
-486.613326
 20
505.031364
 30
0.0
 11
-486.538436
 21
505.079437
 31
0.0
  0
LINE
  8
0
 10
-486.538436
 20
505.079437
 30
0.0
 11
-486.613326
 21
505.031364
 31
0.0
  0
LINE
  8
0
 10
-486.538436
 20
505.079437
 30
0.0
 11
-486.461759
 21
505.119563
 31
0.0
  0
LINE
  8
0
 10
-486.461759
 20
505.119563
 30
0.0
 11
-486.538436
 21
505.079437
 31
0.0
  0
LINE
  8
0
 10
-486.461759
 20
505.119563
 30
0.0
 11
-486.381108
 21
505.15234
 31
0.0
  0
LINE
  8
0
 10
-486.381108
 20
505.15234
 30
0.0
 11
-486.461759
 21
505.119563
 31
0.0
  0
LINE
  8
0
 10
-486.381108
 20
505.15234
 30
0.0
 11
-486.298471
 21
505.179157
 31
0.0
  0
LINE
  8
0
 10
-486.298471
 20
505.179157
 30
0.0
 11
-486.381108
 21
505.15234
 31
0.0
  0
LINE
  8
0
 10
-486.298471
 20
505.179157
 30
0.0
 11
-486.214047
 21
505.196439
 31
0.0
  0
LINE
  8
0
 10
-486.214047
 20
505.196439
 30
0.0
 11
-486.298471
 21
505.179157
 31
0.0
  0
LINE
  8
0
 10
-486.214047
 20
505.196439
 30
0.0
 11
-486.127834
 21
505.207961
 31
0.0
  0
LINE
  8
0
 10
-486.127834
 20
505.207961
 30
0.0
 11
-486.214047
 21
505.196439
 31
0.0
  0
LINE
  8
0
 10
-486.127834
 20
505.207961
 30
0.0
 11
-486.039437
 21
505.211735
 31
0.0
  0
LINE
  8
0
 10
-486.039437
 20
505.211735
 30
0.0
 11
-486.127834
 21
505.207961
 31
0.0
  0
LINE
  8
0
 10
-483.460214
 20
505.211735
 30
0.0
 11
-483.373803
 21
505.207961
 31
0.0
  0
LINE
  8
0
 10
-483.373803
 20
505.207961
 30
0.0
 11
-483.460214
 21
505.211735
 31
0.0
  0
LINE
  8
0
 10
-483.373803
 20
505.207961
 30
0.0
 11
-483.287591
 21
505.196439
 31
0.0
  0
LINE
  8
0
 10
-483.287591
 20
505.196439
 30
0.0
 11
-483.373803
 21
505.207961
 31
0.0
  0
LINE
  8
0
 10
-483.287591
 20
505.196439
 30
0.0
 11
-483.202968
 21
505.179157
 31
0.0
  0
LINE
  8
0
 10
-483.202968
 20
505.179157
 30
0.0
 11
-483.287591
 21
505.196439
 31
0.0
  0
LINE
  8
0
 10
-483.202968
 20
505.179157
 30
0.0
 11
-483.118543
 21
505.15234
 31
0.0
  0
LINE
  8
0
 10
-483.118543
 20
505.15234
 30
0.0
 11
-483.202968
 21
505.179157
 31
0.0
  0
LINE
  8
0
 10
-483.118543
 20
505.15234
 30
0.0
 11
-483.038091
 21
505.119563
 31
0.0
  0
LINE
  8
0
 10
-483.038091
 20
505.119563
 30
0.0
 11
-483.118543
 21
505.15234
 31
0.0
  0
LINE
  8
0
 10
-483.038091
 20
505.119563
 30
0.0
 11
-482.961215
 21
505.079437
 31
0.0
  0
LINE
  8
0
 10
-482.961215
 20
505.079437
 30
0.0
 11
-483.038091
 21
505.119563
 31
0.0
  0
LINE
  8
0
 10
-482.961215
 20
505.079437
 30
0.0
 11
-482.888312
 21
505.031364
 31
0.0
  0
LINE
  8
0
 10
-482.888312
 20
505.031364
 30
0.0
 11
-482.961215
 21
505.079437
 31
0.0
  0
LINE
  8
0
 10
-482.888312
 20
505.031364
 30
0.0
 11
-482.819183
 21
504.979518
 31
0.0
  0
LINE
  8
0
 10
-482.819183
 20
504.979518
 30
0.0
 11
-482.888312
 21
505.031364
 31
0.0
  0
LINE
  8
0
 10
-482.819183
 20
504.979518
 30
0.0
 11
-482.754027
 21
504.920123
 31
0.0
  0
LINE
  8
0
 10
-482.754027
 20
504.920123
 30
0.0
 11
-482.819183
 21
504.979518
 31
0.0
  0
LINE
  8
0
 10
-483.972523
 20
503.880011
 30
0.0
 11
-484.018609
 21
503.920138
 31
0.0
  0
LINE
  8
0
 10
-484.018609
 20
503.920138
 30
0.0
 11
-484.066681
 21
503.954702
 31
0.0
  0
LINE
  8
0
 10
-484.066681
 20
503.954702
 30
0.0
 11
-484.120316
 21
503.983506
 31
0.0
  0
LINE
  8
0
 10
-484.120316
 20
503.983506
 30
0.0
 11
-484.177923
 21
504.004562
 31
0.0
  0
LINE
  8
0
 10
-484.177923
 20
504.004562
 30
0.0
 11
-484.235531
 21
504.01807
 31
0.0
  0
LINE
  8
0
 10
-484.235531
 20
504.01807
 30
0.0
 11
-484.294926
 21
504.025817
 31
0.0
  0
LINE
  8
0
 10
-484.294926
 20
504.025817
 30
0.0
 11
-484.356506
 21
504.025817
 31
0.0
  0
LINE
  8
0
 10
-484.356506
 20
504.025817
 30
0.0
 11
-484.415901
 21
504.01807
 31
0.0
  0
LINE
  8
0
 10
-484.415901
 20
504.01807
 30
0.0
 11
-484.473509
 21
504.004562
 31
0.0
  0
LINE
  8
0
 10
-484.473509
 20
504.004562
 30
0.0
 11
-484.531116
 21
503.983506
 31
0.0
  0
LINE
  8
0
 10
-484.531116
 20
503.983506
 30
0.0
 11
-484.582963
 21
503.954702
 31
0.0
  0
LINE
  8
0
 10
-484.582963
 20
503.954702
 30
0.0
 11
-484.632823
 21
503.920138
 31
0.0
  0
LINE
  8
0
 10
-484.632823
 20
503.920138
 30
0.0
 11
-484.678909
 21
503.880011
 31
0.0
  0
LINE
  8
0
 10
-484.678909
 20
503.880011
 30
0.0
 11
-484.632823
 21
503.920138
 31
0.0
  0
LINE
  8
0
 10
-484.632823
 20
503.920138
 30
0.0
 11
-484.582963
 21
503.954702
 31
0.0
  0
LINE
  8
0
 10
-484.582963
 20
503.954702
 30
0.0
 11
-484.531116
 21
503.983506
 31
0.0
  0
LINE
  8
0
 10
-484.531116
 20
503.983506
 30
0.0
 11
-484.473509
 21
504.004562
 31
0.0
  0
LINE
  8
0
 10
-484.473509
 20
504.004562
 30
0.0
 11
-484.415901
 21
504.01807
 31
0.0
  0
LINE
  8
0
 10
-484.415901
 20
504.01807
 30
0.0
 11
-484.356506
 21
504.025817
 31
0.0
  0
LINE
  8
0
 10
-484.356506
 20
504.025817
 30
0.0
 11
-484.294926
 21
504.025817
 31
0.0
  0
LINE
  8
0
 10
-484.294926
 20
504.025817
 30
0.0
 11
-484.235531
 21
504.01807
 31
0.0
  0
LINE
  8
0
 10
-484.235531
 20
504.01807
 30
0.0
 11
-484.177923
 21
504.004562
 31
0.0
  0
LINE
  8
0
 10
-484.177923
 20
504.004562
 30
0.0
 11
-484.120316
 21
503.983506
 31
0.0
  0
LINE
  8
0
 10
-484.120316
 20
503.983506
 30
0.0
 11
-484.066681
 21
503.954702
 31
0.0
  0
LINE
  8
0
 10
-484.066681
 20
503.954702
 30
0.0
 11
-484.018609
 21
503.920138
 31
0.0
  0
LINE
  8
0
 10
-484.018609
 20
503.920138
 30
0.0
 11
-483.972523
 21
503.880011
 31
0.0
  0
LINE
  8
0
 10
-483.972523
 20
503.880011
 30
0.0
 11
-483.932396
 21
503.835713
 31
0.0
  0
LINE
  8
0
 10
-483.932396
 20
503.835713
 30
0.0
 11
-483.972523
 21
503.880011
 31
0.0
  0
LINE
  8
0
 10
-483.932396
 20
503.835713
 30
0.0
 11
-483.897832
 21
503.785853
 31
0.0
  0
LINE
  8
0
 10
-483.897832
 20
503.785853
 30
0.0
 11
-483.932396
 21
503.835713
 31
0.0
  0
LINE
  8
0
 10
-483.897832
 20
503.785853
 30
0.0
 11
-483.870816
 21
503.732218
 31
0.0
  0
LINE
  8
0
 10
-483.870816
 20
503.732218
 30
0.0
 11
-483.897832
 21
503.785853
 31
0.0
  0
LINE
  8
0
 10
-483.870816
 20
503.732218
 30
0.0
 11
-483.84976
 21
503.676399
 31
0.0
  0
LINE
  8
0
 10
-483.84976
 20
503.676399
 30
0.0
 11
-483.870816
 21
503.732218
 31
0.0
  0
LINE
  8
0
 10
-483.84976
 20
503.676399
 30
0.0
 11
-483.834464
 21
503.617003
 31
0.0
  0
LINE
  8
0
 10
-483.834464
 20
503.617003
 30
0.0
 11
-483.84976
 21
503.676399
 31
0.0
  0
LINE
  8
0
 10
-483.834464
 20
503.617003
 30
0.0
 11
-483.826717
 21
503.557608
 31
0.0
  0
LINE
  8
0
 10
-483.826717
 20
503.557608
 30
0.0
 11
-483.834464
 21
503.617003
 31
0.0
  0
LINE
  8
0
 10
-483.826717
 20
503.557608
 30
0.0
 11
-483.826717
 21
503.498014
 31
0.0
  0
LINE
  8
0
 10
-483.826717
 20
503.498014
 30
0.0
 11
-483.826717
 21
503.557608
 31
0.0
  0
LINE
  8
0
 10
-483.826717
 20
503.498014
 30
0.0
 11
-483.834464
 21
503.438619
 31
0.0
  0
LINE
  8
0
 10
-483.834464
 20
503.438619
 30
0.0
 11
-483.826717
 21
503.498014
 31
0.0
  0
LINE
  8
0
 10
-483.834464
 20
503.438619
 30
0.0
 11
-483.84976
 21
503.379025
 31
0.0
  0
LINE
  8
0
 10
-483.84976
 20
503.379025
 30
0.0
 11
-483.834464
 21
503.438619
 31
0.0
  0
LINE
  8
0
 10
-483.84976
 20
503.379025
 30
0.0
 11
-483.870816
 21
503.323404
 31
0.0
  0
LINE
  8
0
 10
-483.870816
 20
503.323404
 30
0.0
 11
-483.84976
 21
503.379025
 31
0.0
  0
LINE
  8
0
 10
-483.870816
 20
503.323404
 30
0.0
 11
-483.897832
 21
503.269571
 31
0.0
  0
LINE
  8
0
 10
-483.897832
 20
503.269571
 30
0.0
 11
-483.870816
 21
503.323404
 31
0.0
  0
LINE
  8
0
 10
-483.897832
 20
503.269571
 30
0.0
 11
-483.932396
 21
503.219711
 31
0.0
  0
LINE
  8
0
 10
-483.932396
 20
503.219711
 30
0.0
 11
-483.897832
 21
503.269571
 31
0.0
  0
LINE
  8
0
 10
-483.932396
 20
503.219711
 30
0.0
 11
-483.972523
 21
503.175612
 31
0.0
  0
LINE
  8
0
 10
-483.972523
 20
503.175612
 30
0.0
 11
-483.932396
 21
503.219711
 31
0.0
  0
LINE
  8
0
 10
-479.608663
 20
499.657985
 30
0.0
 11
-479.514505
 21
499.580064
 31
0.0
  0
LINE
  8
0
 10
-479.514505
 20
499.580064
 30
0.0
 11
-479.414784
 21
499.499447
 31
0.0
  0
LINE
  8
0
 10
-479.414784
 20
499.499447
 30
0.0
 11
-479.311091
 21
499.42237
 31
0.0
  0
LINE
  8
0
 10
-479.311091
 20
499.42237
 30
0.0
 11
-479.203623
 21
499.34912
 31
0.0
  0
LINE
  8
0
 10
-479.203623
 20
499.34912
 30
0.0
 11
-479.092382
 21
499.279835
 31
0.0
  0
LINE
  8
0
 10
-479.092382
 20
499.279835
 30
0.0
 11
-478.977167
 21
499.214564
 31
0.0
  0
LINE
  8
0
 10
-478.977167
 20
499.214564
 30
0.0
 11
-478.860164
 21
499.154576
 31
0.0
  0
LINE
  8
0
 10
-478.860164
 20
499.154576
 30
0.0
 11
-478.739189
 21
499.098807
 31
0.0
  0
LINE
  8
0
 10
-478.739189
 20
499.098807
 30
0.0
 11
-478.616425
 21
499.048349
 31
0.0
  0
LINE
  8
0
 10
-478.616425
 20
499.048349
 30
0.0
 11
-478.489888
 21
499.00248
 31
0.0
  0
LINE
  8
0
 10
-478.489888
 20
499.00248
 30
0.0
 11
-478.363151
 21
498.962508
 31
0.0
  0
LINE
  8
0
 10
-478.363151
 20
498.962508
 30
0.0
 11
-478.234627
 21
498.927834
 31
0.0
  0
LINE
  8
0
 10
-478.234627
 20
498.927834
 30
0.0
 11
-478.105905
 21
498.898825
 31
0.0
  0
LINE
  8
0
 10
-478.105905
 20
498.898825
 30
0.0
 11
-477.975394
 21
498.867782
 31
0.0
  0
LINE
  8
0
 10
-477.975394
 20
498.867782
 30
0.0
 11
-477.844883
 21
498.835187
 31
0.0
  0
LINE
  8
0
 10
-477.844883
 20
498.835187
 30
0.0
 11
-477.975394
 21
498.867782
 31
0.0
  0
LINE
  8
0
 10
-477.975394
 20
498.867782
 30
0.0
 11
-478.105905
 21
498.898825
 31
0.0
  0
LINE
  8
0
 10
-478.105905
 20
498.898825
 30
0.0
 11
-478.234627
 21
498.927834
 31
0.0
  0
LINE
  8
0
 10
-478.234627
 20
498.927834
 30
0.0
 11
-478.363151
 21
498.962508
 31
0.0
  0
LINE
  8
0
 10
-478.363151
 20
498.962508
 30
0.0
 11
-478.489888
 21
499.00248
 31
0.0
  0
LINE
  8
0
 10
-478.489888
 20
499.00248
 30
0.0
 11
-478.616425
 21
499.048349
 31
0.0
  0
LINE
  8
0
 10
-478.616425
 20
499.048349
 30
0.0
 11
-478.739189
 21
499.098807
 31
0.0
  0
LINE
  8
0
 10
-478.739189
 20
499.098807
 30
0.0
 11
-478.860164
 21
499.154576
 31
0.0
  0
LINE
  8
0
 10
-478.860164
 20
499.154576
 30
0.0
 11
-478.977167
 21
499.214564
 31
0.0
  0
LINE
  8
0
 10
-478.977167
 20
499.214564
 30
0.0
 11
-479.092382
 21
499.279835
 31
0.0
  0
LINE
  8
0
 10
-479.092382
 20
499.279835
 30
0.0
 11
-479.203623
 21
499.34912
 31
0.0
  0
LINE
  8
0
 10
-479.203623
 20
499.34912
 30
0.0
 11
-479.311091
 21
499.42237
 31
0.0
  0
LINE
  8
0
 10
-479.311091
 20
499.42237
 30
0.0
 11
-479.414784
 21
499.499447
 31
0.0
  0
LINE
  8
0
 10
-479.414784
 20
499.499447
 30
0.0
 11
-479.514505
 21
499.580064
 31
0.0
  0
LINE
  8
0
 10
-479.514505
 20
499.580064
 30
0.0
 11
-479.608663
 21
499.657985
 31
0.0
  0
LINE
  8
0
 10
-479.608663
 20
496.098742
 30
0.0
 11
-479.514505
 21
496.188927
 31
0.0
  0
LINE
  8
0
 10
-479.514505
 20
496.188927
 30
0.0
 11
-479.608663
 21
496.098742
 31
0.0
  0
LINE
  8
0
 10
-479.514505
 20
496.188927
 30
0.0
 11
-479.414784
 21
496.273352
 31
0.0
  0
LINE
  8
0
 10
-479.414784
 20
496.273352
 30
0.0
 11
-479.514505
 21
496.188927
 31
0.0
  0
LINE
  8
0
 10
-479.414784
 20
496.273352
 30
0.0
 11
-479.311091
 21
496.352016
 31
0.0
  0
LINE
  8
0
 10
-479.311091
 20
496.352016
 30
0.0
 11
-479.414784
 21
496.273352
 31
0.0
  0
LINE
  8
0
 10
-479.311091
 20
496.352016
 30
0.0
 11
-479.203623
 21
496.426905
 31
0.0
  0
LINE
  8
0
 10
-479.203623
 20
496.426905
 30
0.0
 11
-479.311091
 21
496.352016
 31
0.0
  0
LINE
  8
0
 10
-479.203623
 20
496.426905
 30
0.0
 11
-479.092382
 21
496.495836
 31
0.0
  0
LINE
  8
0
 10
-479.092382
 20
496.495836
 30
0.0
 11
-479.203623
 21
496.426905
 31
0.0
  0
LINE
  8
0
 10
-479.092382
 20
496.495836
 30
0.0
 11
-478.977167
 21
496.557416
 31
0.0
  0
LINE
  8
0
 10
-478.977167
 20
496.557416
 30
0.0
 11
-479.092382
 21
496.495836
 31
0.0
  0
LINE
  8
0
 10
-478.977167
 20
496.557416
 30
0.0
 11
-478.860164
 21
496.613037
 31
0.0
  0
LINE
  8
0
 10
-478.860164
 20
496.613037
 30
0.0
 11
-478.977167
 21
496.557416
 31
0.0
  0
LINE
  8
0
 10
-478.860164
 20
496.613037
 30
0.0
 11
-478.739189
 21
496.662897
 31
0.0
  0
LINE
  8
0
 10
-478.739189
 20
496.662897
 30
0.0
 11
-478.860164
 21
496.613037
 31
0.0
  0
LINE
  8
0
 10
-478.739189
 20
496.662897
 30
0.0
 11
-478.616425
 21
496.706997
 31
0.0
  0
LINE
  8
0
 10
-478.616425
 20
496.706997
 30
0.0
 11
-478.739189
 21
496.662897
 31
0.0
  0
LINE
  8
0
 10
-478.616425
 20
496.706997
 30
0.0
 11
-478.489888
 21
496.743547
 31
0.0
  0
LINE
  8
0
 10
-478.489888
 20
496.743547
 30
0.0
 11
-478.616425
 21
496.706997
 31
0.0
  0
LINE
  8
0
 10
-478.489888
 20
496.743547
 30
0.0
 11
-478.363151
 21
496.774139
 31
0.0
  0
LINE
  8
0
 10
-478.363151
 20
496.774139
 30
0.0
 11
-478.489888
 21
496.743547
 31
0.0
  0
LINE
  8
0
 10
-478.363151
 20
496.774139
 30
0.0
 11
-478.234627
 21
496.799168
 31
0.0
  0
LINE
  8
0
 10
-478.234627
 20
496.799168
 30
0.0
 11
-478.363151
 21
496.774139
 31
0.0
  0
LINE
  8
0
 10
-478.234627
 20
496.799168
 30
0.0
 11
-478.105905
 21
496.816451
 31
0.0
  0
LINE
  8
0
 10
-478.105905
 20
496.816451
 30
0.0
 11
-478.234627
 21
496.799168
 31
0.0
  0
LINE
  8
0
 10
-478.105905
 20
496.816451
 30
0.0
 11
-477.975394
 21
496.825986
 31
0.0
  0
LINE
  8
0
 10
-477.975394
 20
496.825986
 30
0.0
 11
-478.105905
 21
496.816451
 31
0.0
  0
LINE
  8
0
 10
-477.975394
 20
496.825986
 30
0.0
 11
-477.844883
 21
496.82976
 31
0.0
  0
LINE
  8
0
 10
-477.844883
 20
496.82976
 30
0.0
 11
-477.975394
 21
496.825986
 31
0.0
  0
LINE
  8
0
 10
-483.972523
 20
492.580916
 30
0.0
 11
-483.932396
 21
492.536817
 31
0.0
  0
LINE
  8
0
 10
-483.932396
 20
492.536817
 30
0.0
 11
-483.972523
 21
492.580916
 31
0.0
  0
LINE
  8
0
 10
-483.972523
 20
492.580916
 30
0.0
 11
-484.836237
 21
493.44463
 31
0.0
  0
LINE
  8
0
 10
-484.836237
 20
493.44463
 30
0.0
 11
-484.899605
 21
493.504025
 31
0.0
  0
LINE
  8
0
 10
-484.899605
 20
493.504025
 30
0.0
 11
-484.968535
 21
493.555872
 31
0.0
  0
LINE
  8
0
 10
-484.968535
 20
493.555872
 30
0.0
 11
-485.043425
 21
493.603944
 31
0.0
  0
LINE
  8
0
 10
-485.043425
 20
493.603944
 30
0.0
 11
-485.120301
 21
493.642283
 31
0.0
  0
LINE
  8
0
 10
-485.120301
 20
493.642283
 30
0.0
 11
-485.200752
 21
493.676847
 31
0.0
  0
LINE
  8
0
 10
-485.200752
 20
493.676847
 30
0.0
 11
-485.283389
 21
493.701678
 31
0.0
  0
LINE
  8
0
 10
-485.283389
 20
493.701678
 30
0.0
 11
-485.367814
 21
493.720947
 31
0.0
  0
LINE
  8
0
 10
-485.367814
 20
493.720947
 30
0.0
 11
-485.454225
 21
493.732468
 31
0.0
  0
LINE
  8
0
 10
-485.454225
 20
493.732468
 30
0.0
 11
-485.540437
 21
493.736243
 31
0.0
  0
LINE
  8
0
 10
-485.540437
 20
493.736243
 30
0.0
 11
-485.628835
 21
493.732468
 31
0.0
  0
LINE
  8
0
 10
-485.628835
 20
493.732468
 30
0.0
 11
-485.715246
 21
493.720947
 31
0.0
  0
LINE
  8
0
 10
-485.715246
 20
493.720947
 30
0.0
 11
-485.799671
 21
493.701678
 31
0.0
  0
LINE
  8
0
 10
-485.799671
 20
493.701678
 30
0.0
 11
-485.882109
 21
493.676847
 31
0.0
  0
LINE
  8
0
 10
-485.882109
 20
493.676847
 30
0.0
 11
-485.962759
 21
493.642283
 31
0.0
  0
LINE
  8
0
 10
-485.962759
 20
493.642283
 30
0.0
 11
-486.039437
 21
493.603944
 31
0.0
  0
LINE
  8
0
 10
-486.039437
 20
493.603944
 30
0.0
 11
-486.114326
 21
493.555872
 31
0.0
  0
LINE
  8
0
 10
-486.114326
 20
493.555872
 30
0.0
 11
-486.183455
 21
493.504025
 31
0.0
  0
LINE
  8
0
 10
-486.183455
 20
493.504025
 30
0.0
 11
-486.246823
 21
493.44463
 31
0.0
  0
LINE
  8
0
 10
-486.246823
 20
493.44463
 30
0.0
 11
-487.037435
 21
492.653819
 31
0.0
  0
LINE
  8
0
 10
-487.037435
 20
492.653819
 30
0.0
 11
-486.246823
 21
493.44463
 31
0.0
  0
LINE
  8
0
 10
-486.246823
 20
493.44463
 30
0.0
 11
-486.183455
 21
493.504025
 31
0.0
  0
LINE
  8
0
 10
-486.183455
 20
493.504025
 30
0.0
 11
-486.114326
 21
493.555872
 31
0.0
  0
LINE
  8
0
 10
-486.114326
 20
493.555872
 30
0.0
 11
-486.039437
 21
493.603944
 31
0.0
  0
LINE
  8
0
 10
-486.039437
 20
493.603944
 30
0.0
 11
-485.962759
 21
493.642283
 31
0.0
  0
LINE
  8
0
 10
-485.962759
 20
493.642283
 30
0.0
 11
-485.882109
 21
493.676847
 31
0.0
  0
LINE
  8
0
 10
-485.882109
 20
493.676847
 30
0.0
 11
-485.799671
 21
493.701678
 31
0.0
  0
LINE
  8
0
 10
-485.799671
 20
493.701678
 30
0.0
 11
-485.715246
 21
493.720947
 31
0.0
  0
LINE
  8
0
 10
-485.715246
 20
493.720947
 30
0.0
 11
-485.628835
 21
493.732468
 31
0.0
  0
LINE
  8
0
 10
-485.628835
 20
493.732468
 30
0.0
 11
-485.540437
 21
493.736243
 31
0.0
  0
LINE
  8
0
 10
-485.540437
 20
493.736243
 30
0.0
 11
-485.454225
 21
493.732468
 31
0.0
  0
LINE
  8
0
 10
-485.454225
 20
493.732468
 30
0.0
 11
-485.367814
 21
493.720947
 31
0.0
  0
LINE
  8
0
 10
-485.367814
 20
493.720947
 30
0.0
 11
-485.283389
 21
493.701678
 31
0.0
  0
LINE
  8
0
 10
-485.283389
 20
493.701678
 30
0.0
 11
-485.200752
 21
493.676847
 31
0.0
  0
LINE
  8
0
 10
-485.200752
 20
493.676847
 30
0.0
 11
-485.120301
 21
493.642283
 31
0.0
  0
LINE
  8
0
 10
-485.120301
 20
493.642283
 30
0.0
 11
-485.043425
 21
493.603944
 31
0.0
  0
LINE
  8
0
 10
-485.043425
 20
493.603944
 30
0.0
 11
-484.968535
 21
493.555872
 31
0.0
  0
LINE
  8
0
 10
-484.968535
 20
493.555872
 30
0.0
 11
-484.899605
 21
493.504025
 31
0.0
  0
LINE
  8
0
 10
-484.899605
 20
493.504025
 30
0.0
 11
-484.836237
 21
493.44463
 31
0.0
  0
LINE
  8
0
 10
-484.836237
 20
493.44463
 30
0.0
 11
-483.972523
 21
492.580916
 31
0.0
  0
LINE
  8
0
 10
-483.932396
 20
492.536817
 30
0.0
 11
-483.897832
 21
492.486957
 31
0.0
  0
LINE
  8
0
 10
-483.897832
 20
492.486957
 30
0.0
 11
-483.932396
 21
492.536817
 31
0.0
  0
LINE
  8
0
 10
-483.897832
 20
492.486957
 30
0.0
 11
-483.870816
 21
492.433123
 31
0.0
  0
LINE
  8
0
 10
-483.870816
 20
492.433123
 30
0.0
 11
-483.897832
 21
492.486957
 31
0.0
  0
LINE
  8
0
 10
-483.870816
 20
492.433123
 30
0.0
 11
-483.84976
 21
492.377502
 31
0.0
  0
LINE
  8
0
 10
-483.84976
 20
492.377502
 30
0.0
 11
-483.870816
 21
492.433123
 31
0.0
  0
LINE
  8
0
 10
-483.84976
 20
492.377502
 30
0.0
 11
-483.834464
 21
492.318107
 31
0.0
  0
LINE
  8
0
 10
-483.834464
 20
492.318107
 30
0.0
 11
-483.84976
 21
492.377502
 31
0.0
  0
LINE
  8
0
 10
-483.834464
 20
492.318107
 30
0.0
 11
-483.826717
 21
492.258513
 31
0.0
  0
LINE
  8
0
 10
-483.826717
 20
492.258513
 30
0.0
 11
-483.834464
 21
492.318107
 31
0.0
  0
LINE
  8
0
 10
-483.826717
 20
492.258513
 30
0.0
 11
-483.826717
 21
492.199118
 31
0.0
  0
LINE
  8
0
 10
-483.826717
 20
492.199118
 30
0.0
 11
-483.826717
 21
492.258513
 31
0.0
  0
LINE
  8
0
 10
-483.826717
 20
492.199118
 30
0.0
 11
-483.834464
 21
492.139524
 31
0.0
  0
LINE
  8
0
 10
-483.834464
 20
492.139524
 30
0.0
 11
-483.826717
 21
492.199118
 31
0.0
  0
LINE
  8
0
 10
-483.834464
 20
492.139524
 30
0.0
 11
-483.84976
 21
492.080129
 31
0.0
  0
LINE
  8
0
 10
-483.84976
 20
492.080129
 30
0.0
 11
-483.834464
 21
492.139524
 31
0.0
  0
LINE
  8
0
 10
-483.84976
 20
492.080129
 30
0.0
 11
-483.870816
 21
492.024508
 31
0.0
  0
LINE
  8
0
 10
-483.870816
 20
492.024508
 30
0.0
 11
-483.84976
 21
492.080129
 31
0.0
  0
LINE
  8
0
 10
-483.870816
 20
492.024508
 30
0.0
 11
-483.897832
 21
491.970675
 31
0.0
  0
LINE
  8
0
 10
-483.897832
 20
491.970675
 30
0.0
 11
-483.870816
 21
492.024508
 31
0.0
  0
LINE
  8
0
 10
-483.897832
 20
491.970675
 30
0.0
 11
-483.932396
 21
491.920815
 31
0.0
  0
LINE
  8
0
 10
-483.932396
 20
491.920815
 30
0.0
 11
-483.897832
 21
491.970675
 31
0.0
  0
LINE
  8
0
 10
-483.932396
 20
491.920815
 30
0.0
 11
-483.972523
 21
491.876715
 31
0.0
  0
LINE
  8
0
 10
-483.972523
 20
491.876715
 30
0.0
 11
-483.932396
 21
491.920815
 31
0.0
  0
LINE
  8
0
 10
-483.972523
 20
491.876715
 30
0.0
 11
-484.018609
 21
491.83639
 31
0.0
  0
LINE
  8
0
 10
-484.018609
 20
491.83639
 30
0.0
 11
-483.972523
 21
491.876715
 31
0.0
  0
LINE
  8
0
 10
-484.018609
 20
491.83639
 30
0.0
 11
-484.066681
 21
491.801826
 31
0.0
  0
LINE
  8
0
 10
-484.066681
 20
491.801826
 30
0.0
 11
-484.018609
 21
491.83639
 31
0.0
  0
LINE
  8
0
 10
-484.066681
 20
491.801826
 30
0.0
 11
-484.120316
 21
491.773022
 31
0.0
  0
LINE
  8
0
 10
-484.120316
 20
491.773022
 30
0.0
 11
-484.066681
 21
491.801826
 31
0.0
  0
LINE
  8
0
 10
-484.120316
 20
491.773022
 30
0.0
 11
-484.177923
 21
491.751966
 31
0.0
  0
LINE
  8
0
 10
-484.177923
 20
491.751966
 30
0.0
 11
-484.120316
 21
491.773022
 31
0.0
  0
LINE
  8
0
 10
-484.177923
 20
491.751966
 30
0.0
 11
-484.235531
 21
491.738458
 31
0.0
  0
LINE
  8
0
 10
-484.235531
 20
491.738458
 30
0.0
 11
-484.177923
 21
491.751966
 31
0.0
  0
LINE
  8
0
 10
-484.235531
 20
491.738458
 30
0.0
 11
-484.294926
 21
491.73071
 31
0.0
  0
LINE
  8
0
 10
-484.294926
 20
491.73071
 30
0.0
 11
-484.235531
 21
491.738458
 31
0.0
  0
LINE
  8
0
 10
-484.294926
 20
491.73071
 30
0.0
 11
-484.356506
 21
491.73071
 31
0.0
  0
LINE
  8
0
 10
-484.356506
 20
491.73071
 30
0.0
 11
-484.294926
 21
491.73071
 31
0.0
  0
LINE
  8
0
 10
-484.356506
 20
491.73071
 30
0.0
 11
-484.415901
 21
491.738458
 31
0.0
  0
LINE
  8
0
 10
-484.415901
 20
491.738458
 30
0.0
 11
-484.356506
 21
491.73071
 31
0.0
  0
LINE
  8
0
 10
-484.415901
 20
491.738458
 30
0.0
 11
-484.473509
 21
491.751966
 31
0.0
  0
LINE
  8
0
 10
-484.473509
 20
491.751966
 30
0.0
 11
-484.415901
 21
491.738458
 31
0.0
  0
LINE
  8
0
 10
-484.473509
 20
491.751966
 30
0.0
 11
-484.531116
 21
491.773022
 31
0.0
  0
LINE
  8
0
 10
-484.531116
 20
491.773022
 30
0.0
 11
-484.473509
 21
491.751966
 31
0.0
  0
LINE
  8
0
 10
-484.531116
 20
491.773022
 30
0.0
 11
-484.582963
 21
491.801826
 31
0.0
  0
LINE
  8
0
 10
-484.582963
 20
491.801826
 30
0.0
 11
-484.531116
 21
491.773022
 31
0.0
  0
LINE
  8
0
 10
-484.582963
 20
491.801826
 30
0.0
 11
-484.632823
 21
491.83639
 31
0.0
  0
LINE
  8
0
 10
-484.632823
 20
491.83639
 30
0.0
 11
-484.582963
 21
491.801826
 31
0.0
  0
LINE
  8
0
 10
-484.632823
 20
491.83639
 30
0.0
 11
-484.678909
 21
491.876715
 31
0.0
  0
LINE
  8
0
 10
-484.678909
 20
491.876715
 30
0.0
 11
-484.632823
 21
491.83639
 31
0.0
  0
LINE
  8
0
 10
-484.678909
 20
491.876715
 30
0.0
 11
-485.540437
 21
492.738244
 31
0.0
  0
LINE
  8
0
 10
-485.540437
 20
492.738244
 30
0.0
 11
-484.678909
 21
491.876715
 31
0.0
  0
LINE
  8
0
 10
-484.166402
 20
491.542791
 30
0.0
 11
-486.039437
 21
491.542791
 31
0.0
  0
LINE
  8
0
 10
-486.039437
 20
491.542791
 30
0.0
 11
-486.039437
 21
492.239443
 31
0.0
  0
LINE
  8
0
 10
-486.039437
 20
492.239443
 30
0.0
 11
-485.540437
 21
492.738244
 31
0.0
  0
LINE
  8
0
 10
-485.540437
 20
492.738244
 30
0.0
 11
-486.039437
 21
492.239443
 31
0.0
  0
LINE
  8
0
 10
-486.039437
 20
492.239443
 30
0.0
 11
-486.039437
 21
491.542791
 31
0.0
  0
LINE
  8
0
 10
-486.039437
 20
491.542791
 30
0.0
 11
-484.166402
 21
491.542791
 31
0.0
  0
LINE
  8
0
 10
-484.166402
 20
491.542791
 30
0.0
 11
-479.608663
 21
496.098742
 31
0.0
  0
LINE
  8
0
 10
-479.608663
 20
496.098742
 30
0.0
 11
-484.166402
 21
491.542791
 31
0.0
  0
LINE
  8
0
 10
-483.460214
 20
490.544793
 30
0.0
 11
-486.039437
 21
490.544793
 31
0.0
  0
LINE
  8
0
 10
-486.039437
 20
490.544793
 30
0.0
 11
-483.460214
 21
490.544793
 31
0.0
  0
LINE
  8
0
 10
-482.754027
 20
490.836604
 30
0.0
 11
-478.988688
 21
494.601744
 31
0.0
  0
LINE
  8
0
 10
-478.988688
 20
494.601744
 30
0.0
 11
-482.754027
 21
490.836604
 31
0.0
  0
LINE
  8
0
 10
-487.037435
 20
491.542791
 30
0.0
 11
-487.037435
 21
492.653819
 31
0.0
  0
LINE
  8
0
 10
-487.037435
 20
492.653819
 30
0.0
 11
-487.037435
 21
491.542791
 31
0.0
  0
LINE
  8
0
 10
-487.037435
 20
503.102708
 30
0.0
 11
-486.246823
 21
502.312097
 31
0.0
  0
LINE
  8
0
 10
-486.246823
 20
502.312097
 30
0.0
 11
-487.037435
 21
503.102708
 31
0.0
  0
LINE
  8
0
 10
-487.037435
 20
503.102708
 30
0.0
 11
-487.037435
 21
504.213935
 31
0.0
  0
LINE
  8
0
 10
-487.037435
 20
504.213935
 30
0.0
 11
-487.037435
 21
503.102708
 31
0.0
  0
LINE
  8
0
 10
-486.039437
 20
503.517283
 30
0.0
 11
-486.039437
 21
504.213935
 31
0.0
  0
LINE
  8
0
 10
-486.039437
 20
504.213935
 30
0.0
 11
-484.166402
 21
504.213935
 31
0.0
  0
LINE
  8
0
 10
-484.166402
 20
504.213935
 30
0.0
 11
-479.608663
 21
499.657985
 31
0.0
  0
LINE
  8
0
 10
-484.166402
 20
504.213935
 30
0.0
 11
-486.039437
 21
504.213935
 31
0.0
  0
LINE
  8
0
 10
-486.039437
 20
504.213935
 30
0.0
 11
-486.039437
 21
503.517283
 31
0.0
  0
LINE
  8
0
 10
-486.039437
 20
503.517283
 30
0.0
 11
-485.540437
 21
503.018284
 31
0.0
  0
LINE
  8
0
 10
-485.540437
 20
503.018284
 30
0.0
 11
-486.039437
 21
503.517283
 31
0.0
  0
LINE
  8
0
 10
-485.540437
 20
503.018284
 30
0.0
 11
-484.678909
 21
503.880011
 31
0.0
  0
LINE
  8
0
 10
-484.678909
 20
503.880011
 30
0.0
 11
-485.540437
 21
503.018284
 31
0.0
  0
LINE
  8
0
 10
-484.836237
 20
502.312097
 30
0.0
 11
-483.972523
 21
503.175612
 31
0.0
  0
LINE
  8
0
 10
-483.972523
 20
503.175612
 30
0.0
 11
-484.836237
 21
502.312097
 31
0.0
  0
LINE
  8
0
 10
-486.039437
 20
505.211735
 30
0.0
 11
-483.460214
 21
505.211735
 31
0.0
  0
LINE
  8
0
 10
-483.460214
 20
505.211735
 30
0.0
 11
-486.039437
 21
505.211735
 31
0.0
  0
LINE
  8
0
 10
-482.754027
 20
504.920123
 30
0.0
 11
-478.988688
 21
501.154784
 31
0.0
  0
LINE
  8
0
 10
-478.988688
 20
501.154784
 30
0.0
 11
-482.754027
 21
504.920123
 31
0.0
  0
LINE
  8
0
 10
-477.225107
 20
500.305334
 30
0.0
 11
-444.347372
 21
500.32057
 31
0.0
  0
LINE
  8
0
 10
-444.347372
 20
500.32057
 30
0.0
 11
-477.225107
 21
500.305334
 31
0.0
  0
LINE
  8
0
 10
-477.844883
 20
498.835187
 30
0.0
 11
-473.070223
 21
498.823771
 31
0.0
  0
LINE
  8
0
 10
-473.070223
 20
498.823771
 30
0.0
 11
-477.844883
 21
498.835187
 31
0.0
  0
LINE
  8
0
 10
-477.844883
 20
496.82976
 30
0.0
 11
-473.070223
 21
496.82976
 31
0.0
  0
LINE
  8
0
 10
-473.070223
 20
496.82976
 30
0.0
 11
-477.844883
 21
496.82976
 31
0.0
  0
LINE
  8
0
 10
-477.225107
 20
495.332961
 30
0.0
 11
-444.347372
 21
495.332961
 31
0.0
  0
LINE
  8
0
 10
-444.347372
 20
495.332961
 30
0.0
 11
-477.225107
 21
495.332961
 31
0.0
  0
LINE
  8
0
 10
-443.848373
 20
495.467246
 30
0.0
 11
-441.219482
 21
496.985189
 31
0.0
  0
LINE
  8
0
 10
-441.21929
 20
496.9853
 30
0.0
 11
-441.219482
 21
496.985189
 31
0.0
  0
LINE
  8
0
 10
-443.848373
 20
500.186285
 30
0.0
 11
-441.219482
 21
498.668342
 31
0.0
  0
LINE
  8
0
 10
-441.21929
 20
498.668231
 30
0.0
 11
-441.219482
 21
498.668342
 31
0.0
  0
LINE
  8
0
 10
-441.219482
 20
498.668342
 30
0.0
 11
-441.21929
 21
498.668231
 31
0.0
  0
LINE
  8
0
 10
-441.219482
 20
498.668342
 30
0.0
 11
-443.848373
 21
500.186285
 31
0.0
  0
LINE
  8
0
 10
-441.219482
 20
496.985189
 30
0.0
 11
-441.21929
 21
496.9853
 31
0.0
  0
LINE
  8
0
 10
-441.219482
 20
496.985189
 30
0.0
 11
-443.848373
 21
495.467246
 31
0.0
  0
ARC
  8
0
 10
-437.20326
 20
497.826765
 30
0.0
 40
3.241707
 50
158.450964
 51
158.45419
  0
ARC
  8
0
 10
-440.869456
 20
499.274544
 30
0.0
 40
0.7
 50
239.997503
 51
338.450964
  0
ARC
  8
0
 10
-437.20326
 20
497.826765
 30
0.0
 40
3.241707
 50
201.549036
 51
158.450964
  0
ARC
  8
0
 10
-440.869456
 20
496.378986
 30
0.0
 40
0.7
 50
21.549036
 51
120.002497
  0
ARC
  8
0
 10
-437.20326
 20
497.826765
 30
0.0
 40
3.241707
 50
201.54581
 51
201.549036
  0
CIRCLE
  8
0
 10
-437.20326
 20
497.826765
 30
0.0
 40
2.245099
  0
LINE
  8
0
 10
-479.608663
 20
439.657635
 30
0.0
 11
-484.166402
 21
444.213586
 31
0.0
  0
LINE
  8
0
 10
-484.166402
 20
444.213586
 30
0.0
 11
-479.608663
 21
439.657635
 31
0.0
  0
LINE
  8
0
 10
-470.076426
 20
436.33061
 30
0.0
 11
-470.078413
 21
436.33061
 31
0.0
  0
LINE
  8
0
 10
-470.078413
 20
436.33061
 30
0.0
 11
-470.164824
 21
436.334384
 31
0.0
  0
LINE
  8
0
 10
-470.164824
 20
436.334384
 30
0.0
 11
-470.251235
 21
436.345906
 31
0.0
  0
LINE
  8
0
 10
-470.251235
 20
436.345906
 30
0.0
 11
-470.335659
 21
436.363188
 31
0.0
  0
LINE
  8
0
 10
-470.335659
 20
436.363188
 30
0.0
 11
-470.251235
 21
436.345906
 31
0.0
  0
LINE
  8
0
 10
-470.251235
 20
436.345906
 30
0.0
 11
-470.164824
 21
436.334384
 31
0.0
  0
LINE
  8
0
 10
-470.164824
 20
436.334384
 30
0.0
 11
-470.076426
 21
436.33061
 31
0.0
  0
LINE
  8
0
 10
-470.335659
 20
436.363188
 30
0.0
 11
-470.418098
 21
436.390005
 31
0.0
  0
LINE
  8
0
 10
-470.418098
 20
436.390005
 30
0.0
 11
-470.335659
 21
436.363188
 31
0.0
  0
LINE
  8
0
 10
-470.418098
 20
436.390005
 30
0.0
 11
-470.498748
 21
436.422583
 31
0.0
  0
LINE
  8
0
 10
-470.498748
 20
436.422583
 30
0.0
 11
-470.418098
 21
436.390005
 31
0.0
  0
LINE
  8
0
 10
-470.498748
 20
436.422583
 30
0.0
 11
-470.575425
 21
436.462908
 31
0.0
  0
LINE
  8
0
 10
-470.575425
 20
436.462908
 30
0.0
 11
-470.498748
 21
436.422583
 31
0.0
  0
LINE
  8
0
 10
-470.575425
 20
436.462908
 30
0.0
 11
-470.650315
 21
436.510981
 31
0.0
  0
LINE
  8
0
 10
-470.650315
 20
436.510981
 30
0.0
 11
-470.575425
 21
436.462908
 31
0.0
  0
LINE
  8
0
 10
-470.650315
 20
436.510981
 30
0.0
 11
-470.719444
 21
436.562629
 31
0.0
  0
LINE
  8
0
 10
-470.719444
 20
436.562629
 30
0.0
 11
-470.650315
 21
436.510981
 31
0.0
  0
LINE
  8
0
 10
-470.719444
 20
436.562629
 30
0.0
 11
-470.782812
 21
436.622223
 31
0.0
  0
LINE
  8
0
 10
-470.782812
 20
436.622223
 30
0.0
 11
-470.719444
 21
436.562629
 31
0.0
  0
LINE
  8
0
 10
-470.782812
 20
436.622223
 30
0.0
 11
-470.842207
 21
436.685591
 31
0.0
  0
LINE
  8
0
 10
-470.842207
 20
436.685591
 30
0.0
 11
-470.782812
 21
436.622223
 31
0.0
  0
LINE
  8
0
 10
-470.842207
 20
436.685591
 30
0.0
 11
-470.894054
 21
436.75472
 31
0.0
  0
LINE
  8
0
 10
-470.894054
 20
436.75472
 30
0.0
 11
-470.842207
 21
436.685591
 31
0.0
  0
LINE
  8
0
 10
-470.894054
 20
436.75472
 30
0.0
 11
-470.941928
 21
436.829411
 31
0.0
  0
LINE
  8
0
 10
-470.941928
 20
436.829411
 30
0.0
 11
-470.894054
 21
436.75472
 31
0.0
  0
LINE
  8
0
 10
-470.941928
 20
436.829411
 30
0.0
 11
-470.982253
 21
436.906287
 31
0.0
  0
LINE
  8
0
 10
-470.982253
 20
436.906287
 30
0.0
 11
-470.941928
 21
436.829411
 31
0.0
  0
LINE
  8
0
 10
-470.982253
 20
436.906287
 30
0.0
 11
-471.01503
 21
436.986937
 31
0.0
  0
LINE
  8
0
 10
-471.01503
 20
436.986937
 30
0.0
 11
-470.982253
 21
436.906287
 31
0.0
  0
LINE
  8
0
 10
-471.01503
 20
436.986937
 30
0.0
 11
-471.041847
 21
437.069375
 31
0.0
  0
LINE
  8
0
 10
-471.041847
 20
437.069375
 30
0.0
 11
-471.01503
 21
436.986937
 31
0.0
  0
LINE
  8
0
 10
-471.041847
 20
437.069375
 30
0.0
 11
-471.059129
 21
437.1538
 31
0.0
  0
LINE
  8
0
 10
-471.059129
 20
437.1538
 30
0.0
 11
-471.041847
 21
437.069375
 31
0.0
  0
LINE
  8
0
 10
-471.059129
 20
437.1538
 30
0.0
 11
-471.07065
 21
437.240211
 31
0.0
  0
LINE
  8
0
 10
-471.07065
 20
437.240211
 30
0.0
 11
-471.059129
 21
437.1538
 31
0.0
  0
LINE
  8
0
 10
-471.07065
 20
437.240211
 30
0.0
 11
-471.074425
 21
437.326423
 31
0.0
  0
LINE
  8
0
 10
-471.074425
 20
437.326423
 30
0.0
 11
-471.074425
 21
437.32841
 31
0.0
  0
LINE
  8
0
 10
-471.074425
 20
437.32841
 30
0.0
 11
-471.07065
 21
437.240211
 31
0.0
  0
LINE
  8
0
 10
-471.074425
 20
438.324422
 30
0.0
 11
-471.07065
 21
438.412819
 31
0.0
  0
LINE
  8
0
 10
-471.07065
 20
438.412819
 30
0.0
 11
-471.074425
 21
438.326408
 31
0.0
  0
LINE
  8
0
 10
-471.07065
 20
438.412819
 30
0.0
 11
-471.059129
 21
438.499032
 31
0.0
  0
LINE
  8
0
 10
-471.059129
 20
438.499032
 30
0.0
 11
-471.07065
 21
438.412819
 31
0.0
  0
LINE
  8
0
 10
-471.059129
 20
438.499032
 30
0.0
 11
-471.041847
 21
438.583457
 31
0.0
  0
LINE
  8
0
 10
-471.041847
 20
438.583457
 30
0.0
 11
-471.059129
 21
438.499032
 31
0.0
  0
LINE
  8
0
 10
-471.041847
 20
438.583457
 30
0.0
 11
-471.01503
 21
438.666093
 31
0.0
  0
LINE
  8
0
 10
-471.01503
 20
438.666093
 30
0.0
 11
-471.041847
 21
438.583457
 31
0.0
  0
LINE
  8
0
 10
-471.01503
 20
438.666093
 30
0.0
 11
-470.982253
 21
438.746744
 31
0.0
  0
LINE
  8
0
 10
-470.982253
 20
438.746744
 30
0.0
 11
-471.01503
 21
438.666093
 31
0.0
  0
LINE
  8
0
 10
-470.982253
 20
438.746744
 30
0.0
 11
-470.941928
 21
438.823421
 31
0.0
  0
LINE
  8
0
 10
-470.941928
 20
438.823421
 30
0.0
 11
-470.982253
 21
438.746744
 31
0.0
  0
LINE
  8
0
 10
-470.941928
 20
438.823421
 30
0.0
 11
-470.894054
 21
438.898311
 31
0.0
  0
LINE
  8
0
 10
-470.894054
 20
438.898311
 30
0.0
 11
-470.941928
 21
438.823421
 31
0.0
  0
LINE
  8
0
 10
-470.894054
 20
438.898311
 30
0.0
 11
-470.842207
 21
438.967241
 31
0.0
  0
LINE
  8
0
 10
-470.842207
 20
438.967241
 30
0.0
 11
-470.894054
 21
438.898311
 31
0.0
  0
LINE
  8
0
 10
-470.842207
 20
438.967241
 30
0.0
 11
-470.782812
 21
439.030609
 31
0.0
  0
LINE
  8
0
 10
-470.782812
 20
439.030609
 30
0.0
 11
-470.842207
 21
438.967241
 31
0.0
  0
LINE
  8
0
 10
-470.782812
 20
439.030609
 30
0.0
 11
-470.719444
 21
439.090203
 31
0.0
  0
LINE
  8
0
 10
-470.719444
 20
439.090203
 30
0.0
 11
-470.782812
 21
439.030609
 31
0.0
  0
LINE
  8
0
 10
-470.719444
 20
439.090203
 30
0.0
 11
-470.650315
 21
439.14205
 31
0.0
  0
LINE
  8
0
 10
-470.650315
 20
439.14205
 30
0.0
 11
-470.719444
 21
439.090203
 31
0.0
  0
LINE
  8
0
 10
-470.650315
 20
439.14205
 30
0.0
 11
-470.575425
 21
439.189923
 31
0.0
  0
LINE
  8
0
 10
-470.575425
 20
439.189923
 30
0.0
 11
-470.650315
 21
439.14205
 31
0.0
  0
LINE
  8
0
 10
-470.575425
 20
439.189923
 30
0.0
 11
-470.498748
 21
439.230249
 31
0.0
  0
LINE
  8
0
 10
-470.498748
 20
439.230249
 30
0.0
 11
-470.575425
 21
439.189923
 31
0.0
  0
LINE
  8
0
 10
-470.498748
 20
439.230249
 30
0.0
 11
-470.418098
 21
439.262827
 31
0.0
  0
LINE
  8
0
 10
-470.418098
 20
439.262827
 30
0.0
 11
-470.498748
 21
439.230249
 31
0.0
  0
LINE
  8
0
 10
-470.418098
 20
439.262827
 30
0.0
 11
-470.335659
 21
439.289842
 31
0.0
  0
LINE
  8
0
 10
-470.335659
 20
439.289842
 30
0.0
 11
-470.418098
 21
439.262827
 31
0.0
  0
LINE
  8
0
 10
-470.335659
 20
439.289842
 30
0.0
 11
-470.251235
 21
439.306926
 31
0.0
  0
LINE
  8
0
 10
-470.251235
 20
439.306926
 30
0.0
 11
-470.335659
 21
439.289842
 31
0.0
  0
LINE
  8
0
 10
-470.251235
 20
439.306926
 30
0.0
 11
-470.164824
 21
439.318448
 31
0.0
  0
LINE
  8
0
 10
-470.164824
 20
439.318448
 30
0.0
 11
-470.251235
 21
439.306926
 31
0.0
  0
LINE
  8
0
 10
-470.164824
 20
439.318448
 30
0.0
 11
-470.076426
 21
439.32242
 31
0.0
  0
LINE
  8
0
 10
-470.076426
 20
439.32242
 30
0.0
 11
-470.164824
 21
439.318448
 31
0.0
  0
LINE
  8
0
 10
-470.076426
 20
439.32242
 30
0.0
 11
-444.347372
 21
439.32242
 31
0.0
  0
LINE
  8
0
 10
-444.347372
 20
439.32242
 30
0.0
 11
-470.076426
 21
439.32242
 31
0.0
  0
LINE
  8
0
 10
-471.074425
 20
438.324422
 30
0.0
 11
-471.074425
 21
437.32841
 31
0.0
  0
LINE
  8
0
 10
-471.074425
 20
437.32841
 30
0.0
 11
-471.074425
 21
438.324422
 31
0.0
  0
LINE
  8
0
 10
-472.206708
 20
438.324422
 30
0.0
 11
-472.252794
 21
438.399312
 31
0.0
  0
LINE
  8
0
 10
-472.252794
 20
438.399312
 30
0.0
 11
-472.306429
 21
438.46844
 31
0.0
  0
LINE
  8
0
 10
-472.306429
 20
438.46844
 30
0.0
 11
-472.364036
 21
438.531809
 31
0.0
  0
LINE
  8
0
 10
-472.364036
 20
438.531809
 30
0.0
 11
-472.429391
 21
438.591204
 31
0.0
  0
LINE
  8
0
 10
-472.429391
 20
438.591204
 30
0.0
 11
-472.498321
 21
438.64305
 31
0.0
  0
LINE
  8
0
 10
-472.498321
 20
438.64305
 30
0.0
 11
-472.571224
 21
438.690924
 31
0.0
  0
LINE
  8
0
 10
-472.571224
 20
438.690924
 30
0.0
 11
-472.6481
 21
438.731249
 31
0.0
  0
LINE
  8
0
 10
-472.6481
 20
438.731249
 30
0.0
 11
-472.72875
 21
438.763827
 31
0.0
  0
LINE
  8
0
 10
-472.72875
 20
438.763827
 30
0.0
 11
-472.811189
 21
438.790843
 31
0.0
  0
LINE
  8
0
 10
-472.811189
 20
438.790843
 30
0.0
 11
-472.8976
 21
438.808125
 31
0.0
  0
LINE
  8
0
 10
-472.8976
 20
438.808125
 30
0.0
 11
-472.984011
 21
438.819647
 31
0.0
  0
LINE
  8
0
 10
-472.984011
 20
438.819647
 30
0.0
 11
-473.070223
 21
438.823421
 31
0.0
  0
LINE
  8
0
 10
-472.206708
 20
438.324422
 30
0.0
 11
-472.166383
 21
438.247744
 31
0.0
  0
LINE
  8
0
 10
-472.166383
 20
438.247744
 30
0.0
 11
-472.133805
 21
438.167094
 31
0.0
  0
LINE
  8
0
 10
-472.133805
 20
438.167094
 30
0.0
 11
-472.106988
 21
438.084656
 31
0.0
  0
LINE
  8
0
 10
-472.106988
 20
438.084656
 30
0.0
 11
-472.087719
 21
438.000033
 31
0.0
  0
LINE
  8
0
 10
-472.087719
 20
438.000033
 30
0.0
 11
-472.076198
 21
437.91382
 31
0.0
  0
LINE
  8
0
 10
-472.076198
 20
437.91382
 30
0.0
 11
-472.072423
 21
437.827409
 31
0.0
  0
LINE
  8
0
 10
-472.072423
 20
437.827409
 30
0.0
 11
-472.076198
 21
437.73921
 31
0.0
  0
LINE
  8
0
 10
-472.076198
 20
437.73921
 30
0.0
 11
-472.087719
 21
437.652799
 31
0.0
  0
LINE
  8
0
 10
-472.087719
 20
437.652799
 30
0.0
 11
-472.076198
 21
437.73921
 31
0.0
  0
LINE
  8
0
 10
-472.076198
 20
437.73921
 30
0.0
 11
-472.072423
 21
437.827409
 31
0.0
  0
LINE
  8
0
 10
-472.072423
 20
437.827409
 30
0.0
 11
-472.076198
 21
437.91382
 31
0.0
  0
LINE
  8
0
 10
-472.076198
 20
437.91382
 30
0.0
 11
-472.087719
 21
438.000033
 31
0.0
  0
LINE
  8
0
 10
-472.087719
 20
438.000033
 30
0.0
 11
-472.106988
 21
438.084656
 31
0.0
  0
LINE
  8
0
 10
-472.106988
 20
438.084656
 30
0.0
 11
-472.133805
 21
438.167094
 31
0.0
  0
LINE
  8
0
 10
-472.133805
 20
438.167094
 30
0.0
 11
-472.166383
 21
438.247744
 31
0.0
  0
LINE
  8
0
 10
-472.166383
 20
438.247744
 30
0.0
 11
-472.206708
 21
438.324422
 31
0.0
  0
LINE
  8
0
 10
-472.206708
 20
438.324422
 30
0.0
 11
-472.252794
 21
438.399312
 31
0.0
  0
LINE
  8
0
 10
-472.252794
 20
438.399312
 30
0.0
 11
-472.306429
 21
438.46844
 31
0.0
  0
LINE
  8
0
 10
-472.306429
 20
438.46844
 30
0.0
 11
-472.364036
 21
438.531809
 31
0.0
  0
LINE
  8
0
 10
-472.364036
 20
438.531809
 30
0.0
 11
-472.429391
 21
438.591204
 31
0.0
  0
LINE
  8
0
 10
-472.429391
 20
438.591204
 30
0.0
 11
-472.498321
 21
438.64305
 31
0.0
  0
LINE
  8
0
 10
-472.498321
 20
438.64305
 30
0.0
 11
-472.571224
 21
438.690924
 31
0.0
  0
LINE
  8
0
 10
-472.571224
 20
438.690924
 30
0.0
 11
-472.6481
 21
438.731249
 31
0.0
  0
LINE
  8
0
 10
-472.6481
 20
438.731249
 30
0.0
 11
-472.72875
 21
438.763827
 31
0.0
  0
LINE
  8
0
 10
-472.72875
 20
438.763827
 30
0.0
 11
-472.811189
 21
438.790843
 31
0.0
  0
LINE
  8
0
 10
-472.811189
 20
438.790843
 30
0.0
 11
-472.8976
 21
438.808125
 31
0.0
  0
LINE
  8
0
 10
-472.8976
 20
438.808125
 30
0.0
 11
-472.984011
 21
438.819647
 31
0.0
  0
LINE
  8
0
 10
-472.984011
 20
438.819647
 30
0.0
 11
-473.070223
 21
438.823421
 31
0.0
  0
LINE
  8
0
 10
-472.087719
 20
437.652799
 30
0.0
 11
-472.106988
 21
437.568374
 31
0.0
  0
LINE
  8
0
 10
-472.106988
 20
437.568374
 30
0.0
 11
-472.087719
 21
437.652799
 31
0.0
  0
LINE
  8
0
 10
-472.106988
 20
437.568374
 30
0.0
 11
-472.133805
 21
437.485738
 31
0.0
  0
LINE
  8
0
 10
-472.133805
 20
437.485738
 30
0.0
 11
-472.106988
 21
437.568374
 31
0.0
  0
LINE
  8
0
 10
-472.133805
 20
437.485738
 30
0.0
 11
-472.166383
 21
437.405286
 31
0.0
  0
LINE
  8
0
 10
-472.166383
 20
437.405286
 30
0.0
 11
-472.133805
 21
437.485738
 31
0.0
  0
LINE
  8
0
 10
-472.166383
 20
437.405286
 30
0.0
 11
-472.206708
 21
437.32841
 31
0.0
  0
LINE
  8
0
 10
-472.206708
 20
437.32841
 30
0.0
 11
-472.166383
 21
437.405286
 31
0.0
  0
LINE
  8
0
 10
-472.206708
 20
437.32841
 30
0.0
 11
-472.252794
 21
437.25352
 31
0.0
  0
LINE
  8
0
 10
-472.252794
 20
437.25352
 30
0.0
 11
-472.206708
 21
437.32841
 31
0.0
  0
LINE
  8
0
 10
-472.252794
 20
437.25352
 30
0.0
 11
-472.306429
 21
437.18459
 31
0.0
  0
LINE
  8
0
 10
-472.306429
 20
437.18459
 30
0.0
 11
-472.252794
 21
437.25352
 31
0.0
  0
LINE
  8
0
 10
-472.306429
 20
437.18459
 30
0.0
 11
-472.364036
 21
437.121222
 31
0.0
  0
LINE
  8
0
 10
-472.364036
 20
437.121222
 30
0.0
 11
-472.306429
 21
437.18459
 31
0.0
  0
LINE
  8
0
 10
-472.364036
 20
437.121222
 30
0.0
 11
-472.429391
 21
437.061628
 31
0.0
  0
LINE
  8
0
 10
-472.429391
 20
437.061628
 30
0.0
 11
-472.364036
 21
437.121222
 31
0.0
  0
LINE
  8
0
 10
-472.429391
 20
437.061628
 30
0.0
 11
-472.498321
 21
437.009781
 31
0.0
  0
LINE
  8
0
 10
-472.498321
 20
437.009781
 30
0.0
 11
-472.429391
 21
437.061628
 31
0.0
  0
LINE
  8
0
 10
-472.498321
 20
437.009781
 30
0.0
 11
-472.571224
 21
436.961908
 31
0.0
  0
LINE
  8
0
 10
-472.571224
 20
436.961908
 30
0.0
 11
-472.498321
 21
437.009781
 31
0.0
  0
LINE
  8
0
 10
-472.571224
 20
436.961908
 30
0.0
 11
-472.6481
 21
436.921582
 31
0.0
  0
LINE
  8
0
 10
-472.6481
 20
436.921582
 30
0.0
 11
-472.571224
 21
436.961908
 31
0.0
  0
LINE
  8
0
 10
-472.6481
 20
436.921582
 30
0.0
 11
-472.72875
 21
436.889004
 31
0.0
  0
LINE
  8
0
 10
-472.72875
 20
436.889004
 30
0.0
 11
-472.6481
 21
436.921582
 31
0.0
  0
LINE
  8
0
 10
-472.72875
 20
436.889004
 30
0.0
 11
-472.811189
 21
436.862187
 31
0.0
  0
LINE
  8
0
 10
-472.811189
 20
436.862187
 30
0.0
 11
-472.72875
 21
436.889004
 31
0.0
  0
LINE
  8
0
 10
-472.811189
 20
436.862187
 30
0.0
 11
-472.8976
 21
436.844905
 31
0.0
  0
LINE
  8
0
 10
-472.8976
 20
436.844905
 30
0.0
 11
-472.811189
 21
436.862187
 31
0.0
  0
LINE
  8
0
 10
-472.8976
 20
436.844905
 30
0.0
 11
-472.984011
 21
436.833383
 31
0.0
  0
LINE
  8
0
 10
-472.984011
 20
436.833383
 30
0.0
 11
-472.8976
 21
436.844905
 31
0.0
  0
LINE
  8
0
 10
-472.984011
 20
436.833383
 30
0.0
 11
-473.070223
 21
436.829411
 31
0.0
  0
LINE
  8
0
 10
-473.070223
 20
436.829411
 30
0.0
 11
-472.984011
 21
436.833383
 31
0.0
  0
LINE
  8
0
 10
-470.076426
 20
436.33061
 30
0.0
 11
-444.347372
 21
436.33061
 31
0.0
  0
LINE
  8
0
 10
-444.347372
 20
436.33061
 30
0.0
 11
-441.756628
 21
437.827409
 31
0.0
  0
LINE
  8
0
 10
-441.756628
 20
437.827409
 30
0.0
 11
-444.347372
 21
439.32242
 31
0.0
  0
LINE
  8
0
 10
-444.347372
 20
439.32242
 30
0.0
 11
-441.756628
 21
437.827409
 31
0.0
  0
LINE
  8
0
 10
-441.756628
 20
437.827409
 30
0.0
 11
-444.347372
 21
436.33061
 31
0.0
  0
LINE
  8
0
 10
-444.347372
 20
436.33061
 30
0.0
 11
-470.076426
 21
436.33061
 31
0.0
  0
LINE
  8
0
 10
-477.869913
 20
440.427687
 30
0.0
 11
-477.743177
 21
440.37243
 31
0.0
  0
LINE
  8
0
 10
-477.743177
 20
440.37243
 30
0.0
 11
-477.614652
 21
440.320748
 31
0.0
  0
LINE
  8
0
 10
-477.614652
 20
440.320748
 30
0.0
 11
-477.486128
 21
440.303466
 31
0.0
  0
LINE
  8
0
 10
-477.486128
 20
440.303466
 30
0.0
 11
-477.355618
 21
440.308957
 31
0.0
  0
LINE
  8
0
 10
-477.355618
 20
440.308957
 30
0.0
 11
-477.225107
 21
440.304985
 31
0.0
  0
LINE
  8
0
 10
-477.225107
 20
440.304985
 30
0.0
 11
-477.355618
 21
440.308957
 31
0.0
  0
LINE
  8
0
 10
-477.355618
 20
440.308957
 30
0.0
 11
-477.486128
 21
440.303466
 31
0.0
  0
LINE
  8
0
 10
-477.486128
 20
440.303466
 30
0.0
 11
-477.614652
 21
440.320748
 31
0.0
  0
LINE
  8
0
 10
-477.614652
 20
440.320748
 30
0.0
 11
-477.743177
 21
440.37243
 31
0.0
  0
LINE
  8
0
 10
-477.743177
 20
440.37243
 30
0.0
 11
-477.869913
 21
440.427687
 31
0.0
  0
LINE
  8
0
 10
-477.869913
 20
440.427687
 30
0.0
 11
-477.996649
 21
440.492876
 31
0.0
  0
LINE
  8
0
 10
-477.996649
 20
440.492876
 30
0.0
 11
-477.869913
 21
440.427687
 31
0.0
  0
LINE
  8
0
 10
-477.996649
 20
440.492876
 30
0.0
 11
-478.119412
 21
440.561641
 31
0.0
  0
LINE
  8
0
 10
-478.119412
 20
440.561641
 30
0.0
 11
-477.996649
 21
440.492876
 31
0.0
  0
LINE
  8
0
 10
-478.119412
 20
440.561641
 30
0.0
 11
-478.240388
 21
440.611501
 31
0.0
  0
LINE
  8
0
 10
-478.240388
 20
440.611501
 30
0.0
 11
-478.119412
 21
440.561641
 31
0.0
  0
LINE
  8
0
 10
-478.240388
 20
440.611501
 30
0.0
 11
-478.357391
 21
440.669108
 31
0.0
  0
LINE
  8
0
 10
-478.357391
 20
440.669108
 30
0.0
 11
-478.240388
 21
440.611501
 31
0.0
  0
LINE
  8
0
 10
-478.357391
 20
440.669108
 30
0.0
 11
-478.472605
 21
440.757142
 31
0.0
  0
LINE
  8
0
 10
-478.472605
 20
440.757142
 30
0.0
 11
-478.357391
 21
440.669108
 31
0.0
  0
LINE
  8
0
 10
-478.472605
 20
440.757142
 30
0.0
 11
-478.583847
 21
440.826271
 31
0.0
  0
LINE
  8
0
 10
-478.583847
 20
440.826271
 30
0.0
 11
-478.472605
 21
440.757142
 31
0.0
  0
LINE
  8
0
 10
-478.583847
 20
440.826271
 30
0.0
 11
-478.691315
 21
440.899174
 31
0.0
  0
LINE
  8
0
 10
-478.691315
 20
440.899174
 30
0.0
 11
-478.583847
 21
440.826271
 31
0.0
  0
LINE
  8
0
 10
-478.691315
 20
440.899174
 30
0.0
 11
-478.795008
 21
440.979824
 31
0.0
  0
LINE
  8
0
 10
-478.795008
 20
440.979824
 30
0.0
 11
-478.691315
 21
440.899174
 31
0.0
  0
LINE
  8
0
 10
-478.795008
 20
440.979824
 30
0.0
 11
-478.894729
 21
441.064249
 31
0.0
  0
LINE
  8
0
 10
-478.894729
 20
441.064249
 30
0.0
 11
-478.795008
 21
440.979824
 31
0.0
  0
LINE
  8
0
 10
-478.894729
 20
441.064249
 30
0.0
 11
-478.988688
 21
441.154434
 31
0.0
  0
LINE
  8
0
 10
-478.988688
 20
441.154434
 30
0.0
 11
-478.894729
 21
441.064249
 31
0.0
  0
LINE
  8
0
 10
-487.02214
 20
431.367832
 30
0.0
 11
-487.033661
 21
431.454044
 31
0.0
  0
LINE
  8
0
 10
-487.033661
 20
431.454044
 30
0.0
 11
-487.037435
 21
431.542442
 31
0.0
  0
LINE
  8
0
 10
-487.02214
 20
431.367832
 30
0.0
 11
-487.004857
 21
431.283407
 31
0.0
  0
LINE
  8
0
 10
-487.004857
 20
431.283407
 30
0.0
 11
-486.977841
 21
431.20077
 31
0.0
  0
LINE
  8
0
 10
-486.977841
 20
431.20077
 30
0.0
 11
-486.945263
 21
431.12012
 31
0.0
  0
LINE
  8
0
 10
-486.945263
 20
431.12012
 30
0.0
 11
-486.904938
 21
431.043442
 31
0.0
  0
LINE
  8
0
 10
-486.904938
 20
431.043442
 30
0.0
 11
-486.857065
 21
430.968553
 31
0.0
  0
LINE
  8
0
 10
-486.857065
 20
430.968553
 30
0.0
 11
-486.805218
 21
430.899424
 31
0.0
  0
LINE
  8
0
 10
-486.805218
 20
430.899424
 30
0.0
 11
-486.745624
 21
430.836254
 31
0.0
  0
LINE
  8
0
 10
-486.745624
 20
430.836254
 30
0.0
 11
-486.682455
 21
430.776661
 31
0.0
  0
LINE
  8
0
 10
-486.682455
 20
430.776661
 30
0.0
 11
-486.613326
 21
430.724814
 31
0.0
  0
LINE
  8
0
 10
-486.613326
 20
430.724814
 30
0.0
 11
-486.538436
 21
430.67694
 31
0.0
  0
LINE
  8
0
 10
-486.538436
 20
430.67694
 30
0.0
 11
-486.461759
 21
430.636615
 31
0.0
  0
LINE
  8
0
 10
-486.461759
 20
430.636615
 30
0.0
 11
-486.381108
 21
430.604037
 31
0.0
  0
LINE
  8
0
 10
-486.381108
 20
430.604037
 30
0.0
 11
-486.298471
 21
430.577021
 31
0.0
  0
LINE
  8
0
 10
-486.298471
 20
430.577021
 30
0.0
 11
-486.214047
 21
430.559739
 31
0.0
  0
LINE
  8
0
 10
-486.214047
 20
430.559739
 30
0.0
 11
-486.127834
 21
430.548217
 31
0.0
  0
LINE
  8
0
 10
-486.127834
 20
430.548217
 30
0.0
 11
-486.039437
 21
430.544443
 31
0.0
  0
LINE
  8
0
 10
-487.033661
 20
431.454044
 30
0.0
 11
-487.037435
 21
431.542442
 31
0.0
  0
LINE
  8
0
 10
-487.033661
 20
431.454044
 30
0.0
 11
-487.02214
 21
431.367832
 31
0.0
  0
LINE
  8
0
 10
-487.02214
 20
431.367832
 30
0.0
 11
-487.004857
 21
431.283407
 31
0.0
  0
LINE
  8
0
 10
-487.004857
 20
431.283407
 30
0.0
 11
-486.977841
 21
431.20077
 31
0.0
  0
LINE
  8
0
 10
-486.977841
 20
431.20077
 30
0.0
 11
-486.945263
 21
431.12012
 31
0.0
  0
LINE
  8
0
 10
-486.945263
 20
431.12012
 30
0.0
 11
-486.904938
 21
431.043442
 31
0.0
  0
LINE
  8
0
 10
-486.904938
 20
431.043442
 30
0.0
 11
-486.857065
 21
430.968553
 31
0.0
  0
LINE
  8
0
 10
-486.857065
 20
430.968553
 30
0.0
 11
-486.805218
 21
430.899424
 31
0.0
  0
LINE
  8
0
 10
-486.805218
 20
430.899424
 30
0.0
 11
-486.745624
 21
430.836254
 31
0.0
  0
LINE
  8
0
 10
-486.745624
 20
430.836254
 30
0.0
 11
-486.682455
 21
430.776661
 31
0.0
  0
LINE
  8
0
 10
-486.682455
 20
430.776661
 30
0.0
 11
-486.613326
 21
430.724814
 31
0.0
  0
LINE
  8
0
 10
-486.613326
 20
430.724814
 30
0.0
 11
-486.538436
 21
430.67694
 31
0.0
  0
LINE
  8
0
 10
-486.538436
 20
430.67694
 30
0.0
 11
-486.461759
 21
430.636615
 31
0.0
  0
LINE
  8
0
 10
-486.461759
 20
430.636615
 30
0.0
 11
-486.381108
 21
430.604037
 31
0.0
  0
LINE
  8
0
 10
-486.381108
 20
430.604037
 30
0.0
 11
-486.298471
 21
430.577021
 31
0.0
  0
LINE
  8
0
 10
-486.298471
 20
430.577021
 30
0.0
 11
-486.214047
 21
430.559739
 31
0.0
  0
LINE
  8
0
 10
-486.214047
 20
430.559739
 30
0.0
 11
-486.127834
 21
430.548217
 31
0.0
  0
LINE
  8
0
 10
-486.127834
 20
430.548217
 30
0.0
 11
-486.039437
 21
430.544443
 31
0.0
  0
LINE
  8
0
 10
-483.460214
 20
430.544443
 30
0.0
 11
-483.373803
 21
430.548217
 31
0.0
  0
LINE
  8
0
 10
-483.373803
 20
430.548217
 30
0.0
 11
-483.287591
 21
430.559739
 31
0.0
  0
LINE
  8
0
 10
-483.287591
 20
430.559739
 30
0.0
 11
-483.202968
 21
430.577021
 31
0.0
  0
LINE
  8
0
 10
-483.202968
 20
430.577021
 30
0.0
 11
-483.118543
 21
430.604037
 31
0.0
  0
LINE
  8
0
 10
-483.118543
 20
430.604037
 30
0.0
 11
-483.038091
 21
430.636615
 31
0.0
  0
LINE
  8
0
 10
-483.038091
 20
430.636615
 30
0.0
 11
-482.961215
 21
430.67694
 31
0.0
  0
LINE
  8
0
 10
-482.961215
 20
430.67694
 30
0.0
 11
-482.888312
 21
430.724814
 31
0.0
  0
LINE
  8
0
 10
-482.888312
 20
430.724814
 30
0.0
 11
-482.819183
 21
430.776661
 31
0.0
  0
LINE
  8
0
 10
-482.819183
 20
430.776661
 30
0.0
 11
-482.754027
 21
430.836254
 31
0.0
  0
LINE
  8
0
 10
-483.373803
 20
430.548217
 30
0.0
 11
-483.460214
 21
430.544443
 31
0.0
  0
LINE
  8
0
 10
-483.373803
 20
430.548217
 30
0.0
 11
-483.287591
 21
430.559739
 31
0.0
  0
LINE
  8
0
 10
-483.287591
 20
430.559739
 30
0.0
 11
-483.202968
 21
430.577021
 31
0.0
  0
LINE
  8
0
 10
-483.202968
 20
430.577021
 30
0.0
 11
-483.118543
 21
430.604037
 31
0.0
  0
LINE
  8
0
 10
-483.118543
 20
430.604037
 30
0.0
 11
-483.038091
 21
430.636615
 31
0.0
  0
LINE
  8
0
 10
-483.038091
 20
430.636615
 30
0.0
 11
-482.961215
 21
430.67694
 31
0.0
  0
LINE
  8
0
 10
-482.961215
 20
430.67694
 30
0.0
 11
-482.888312
 21
430.724814
 31
0.0
  0
LINE
  8
0
 10
-482.888312
 20
430.724814
 30
0.0
 11
-482.819183
 21
430.776661
 31
0.0
  0
LINE
  8
0
 10
-482.819183
 20
430.776661
 30
0.0
 11
-482.754027
 21
430.836254
 31
0.0
  0
LINE
  8
0
 10
-478.988688
 20
434.601395
 30
0.0
 11
-478.894729
 21
434.69158
 31
0.0
  0
LINE
  8
0
 10
-478.894729
 20
434.69158
 30
0.0
 11
-478.988688
 21
434.601395
 31
0.0
  0
LINE
  8
0
 10
-478.894729
 20
434.69158
 30
0.0
 11
-478.795008
 21
434.776005
 31
0.0
  0
LINE
  8
0
 10
-478.795008
 20
434.776005
 30
0.0
 11
-478.894729
 21
434.69158
 31
0.0
  0
LINE
  8
0
 10
-478.795008
 20
434.776005
 30
0.0
 11
-478.691315
 21
434.856655
 31
0.0
  0
LINE
  8
0
 10
-478.691315
 20
434.856655
 30
0.0
 11
-478.795008
 21
434.776005
 31
0.0
  0
LINE
  8
0
 10
-478.691315
 20
434.856655
 30
0.0
 11
-478.583847
 21
434.929558
 31
0.0
  0
LINE
  8
0
 10
-478.583847
 20
434.929558
 30
0.0
 11
-478.691315
 21
434.856655
 31
0.0
  0
LINE
  8
0
 10
-478.583847
 20
434.929558
 30
0.0
 11
-478.472605
 21
434.998687
 31
0.0
  0
LINE
  8
0
 10
-478.472605
 20
434.998687
 30
0.0
 11
-478.583847
 21
434.929558
 31
0.0
  0
LINE
  8
0
 10
-478.472605
 20
434.998687
 30
0.0
 11
-478.357391
 21
435.060069
 31
0.0
  0
LINE
  8
0
 10
-478.357391
 20
435.060069
 30
0.0
 11
-478.472605
 21
434.998687
 31
0.0
  0
LINE
  8
0
 10
-478.357391
 20
435.060069
 30
0.0
 11
-478.240388
 21
435.117676
 31
0.0
  0
LINE
  8
0
 10
-478.240388
 20
435.117676
 30
0.0
 11
-478.357391
 21
435.060069
 31
0.0
  0
LINE
  8
0
 10
-478.240388
 20
435.117676
 30
0.0
 11
-478.119412
 21
435.167536
 31
0.0
  0
LINE
  8
0
 10
-478.119412
 20
435.167536
 30
0.0
 11
-478.240388
 21
435.117676
 31
0.0
  0
LINE
  8
0
 10
-478.119412
 20
435.167536
 30
0.0
 11
-477.996649
 21
435.209848
 31
0.0
  0
LINE
  8
0
 10
-477.996649
 20
435.209848
 30
0.0
 11
-478.119412
 21
435.167536
 31
0.0
  0
LINE
  8
0
 10
-477.996649
 20
435.209848
 30
0.0
 11
-477.869913
 21
435.248187
 31
0.0
  0
LINE
  8
0
 10
-477.869913
 20
435.248187
 30
0.0
 11
-477.996649
 21
435.209848
 31
0.0
  0
LINE
  8
0
 10
-477.869913
 20
435.248187
 30
0.0
 11
-477.743177
 21
435.278778
 31
0.0
  0
LINE
  8
0
 10
-477.743177
 20
435.278778
 30
0.0
 11
-477.869913
 21
435.248187
 31
0.0
  0
LINE
  8
0
 10
-477.743177
 20
435.278778
 30
0.0
 11
-477.614652
 21
435.301821
 31
0.0
  0
LINE
  8
0
 10
-477.614652
 20
435.301821
 30
0.0
 11
-477.743177
 21
435.278778
 31
0.0
  0
LINE
  8
0
 10
-477.614652
 20
435.301821
 30
0.0
 11
-477.486128
 21
435.319103
 31
0.0
  0
LINE
  8
0
 10
-477.486128
 20
435.319103
 30
0.0
 11
-477.614652
 21
435.301821
 31
0.0
  0
LINE
  8
0
 10
-477.486128
 20
435.319103
 30
0.0
 11
-477.355618
 21
435.328837
 31
0.0
  0
LINE
  8
0
 10
-477.355618
 20
435.328837
 30
0.0
 11
-477.486128
 21
435.319103
 31
0.0
  0
LINE
  8
0
 10
-477.355618
 20
435.328837
 30
0.0
 11
-477.225107
 21
435.332611
 31
0.0
  0
LINE
  8
0
 10
-477.225107
 20
435.332611
 30
0.0
 11
-477.355618
 21
435.328837
 31
0.0
  0
LINE
  8
0
 10
-444.347372
 20
435.332611
 30
0.0
 11
-444.260961
 21
435.336386
 31
0.0
  0
LINE
  8
0
 10
-444.260961
 20
435.336386
 30
0.0
 11
-444.17455
 21
435.347907
 31
0.0
  0
LINE
  8
0
 10
-444.17455
 20
435.347907
 30
0.0
 11
-444.090125
 21
435.367176
 31
0.0
  0
LINE
  8
0
 10
-444.090125
 20
435.367176
 30
0.0
 11
-444.007687
 21
435.392007
 31
0.0
  0
LINE
  8
0
 10
-444.007687
 20
435.392007
 30
0.0
 11
-443.927037
 21
435.426571
 31
0.0
  0
LINE
  8
0
 10
-443.927037
 20
435.426571
 30
0.0
 11
-443.848373
 21
435.466896
 31
0.0
  0
LINE
  8
0
 10
-443.848373
 20
435.466896
 30
0.0
 11
-443.927037
 21
435.426571
 31
0.0
  0
LINE
  8
0
 10
-443.927037
 20
435.426571
 30
0.0
 11
-444.007687
 21
435.392007
 31
0.0
  0
LINE
  8
0
 10
-444.007687
 20
435.392007
 30
0.0
 11
-444.090125
 21
435.367176
 31
0.0
  0
LINE
  8
0
 10
-444.090125
 20
435.367176
 30
0.0
 11
-444.17455
 21
435.347907
 31
0.0
  0
LINE
  8
0
 10
-444.17455
 20
435.347907
 30
0.0
 11
-444.260961
 21
435.336386
 31
0.0
  0
LINE
  8
0
 10
-444.260961
 20
435.336386
 30
0.0
 11
-444.347372
 21
435.332611
 31
0.0
  0
LINE
  8
0
 10
-443.848373
 20
440.185936
 30
0.0
 11
-443.927037
 21
440.226261
 31
0.0
  0
LINE
  8
0
 10
-443.927037
 20
440.226261
 30
0.0
 11
-444.007687
 21
440.260825
 31
0.0
  0
LINE
  8
0
 10
-444.007687
 20
440.260825
 30
0.0
 11
-444.090125
 21
440.285656
 31
0.0
  0
LINE
  8
0
 10
-444.090125
 20
440.285656
 30
0.0
 11
-444.17455
 21
440.304925
 31
0.0
  0
LINE
  8
0
 10
-444.17455
 20
440.304925
 30
0.0
 11
-444.260961
 21
440.316446
 31
0.0
  0
LINE
  8
0
 10
-444.260961
 20
440.316446
 30
0.0
 11
-444.347372
 21
440.32022
 31
0.0
  0
LINE
  8
0
 10
-444.347372
 20
440.32022
 30
0.0
 11
-444.260961
 21
440.316446
 31
0.0
  0
LINE
  8
0
 10
-444.260961
 20
440.316446
 30
0.0
 11
-444.17455
 21
440.304925
 31
0.0
  0
LINE
  8
0
 10
-444.17455
 20
440.304925
 30
0.0
 11
-444.090125
 21
440.285656
 31
0.0
  0
LINE
  8
0
 10
-444.090125
 20
440.285656
 30
0.0
 11
-444.007687
 21
440.260825
 31
0.0
  0
LINE
  8
0
 10
-444.007687
 20
440.260825
 30
0.0
 11
-443.927037
 21
440.226261
 31
0.0
  0
LINE
  8
0
 10
-443.927037
 20
440.226261
 30
0.0
 11
-443.848373
 21
440.185936
 31
0.0
  0
LINE
  8
0
 10
-484.836237
 20
442.311747
 30
0.0
 11
-484.899605
 21
442.252153
 31
0.0
  0
LINE
  8
0
 10
-484.899605
 20
442.252153
 30
0.0
 11
-484.836237
 21
442.311747
 31
0.0
  0
LINE
  8
0
 10
-484.899605
 20
442.252153
 30
0.0
 11
-484.968535
 21
442.200307
 31
0.0
  0
LINE
  8
0
 10
-484.968535
 20
442.200307
 30
0.0
 11
-484.899605
 21
442.252153
 31
0.0
  0
LINE
  8
0
 10
-484.968535
 20
442.200307
 30
0.0
 11
-485.043425
 21
442.152433
 31
0.0
  0
LINE
  8
0
 10
-485.043425
 20
442.152433
 30
0.0
 11
-484.968535
 21
442.200307
 31
0.0
  0
LINE
  8
0
 10
-485.043425
 20
442.152433
 30
0.0
 11
-485.120301
 21
442.114094
 31
0.0
  0
LINE
  8
0
 10
-485.120301
 20
442.114094
 30
0.0
 11
-485.043425
 21
442.152433
 31
0.0
  0
LINE
  8
0
 10
-485.120301
 20
442.114094
 30
0.0
 11
-485.200752
 21
442.07953
 31
0.0
  0
LINE
  8
0
 10
-485.200752
 20
442.07953
 30
0.0
 11
-485.120301
 21
442.114094
 31
0.0
  0
LINE
  8
0
 10
-485.200752
 20
442.07953
 30
0.0
 11
-485.283389
 21
442.0545
 31
0.0
  0
LINE
  8
0
 10
-485.283389
 20
442.0545
 30
0.0
 11
-485.200752
 21
442.07953
 31
0.0
  0
LINE
  8
0
 10
-485.283389
 20
442.0545
 30
0.0
 11
-485.367814
 21
442.03543
 31
0.0
  0
LINE
  8
0
 10
-485.367814
 20
442.03543
 30
0.0
 11
-485.283389
 21
442.0545
 31
0.0
  0
LINE
  8
0
 10
-485.367814
 20
442.03543
 30
0.0
 11
-485.454225
 21
442.023909
 31
0.0
  0
LINE
  8
0
 10
-485.454225
 20
442.023909
 30
0.0
 11
-485.367814
 21
442.03543
 31
0.0
  0
LINE
  8
0
 10
-485.454225
 20
442.023909
 30
0.0
 11
-485.540437
 21
442.019936
 31
0.0
  0
LINE
  8
0
 10
-485.540437
 20
442.019936
 30
0.0
 11
-485.454225
 21
442.023909
 31
0.0
  0
LINE
  8
0
 10
-485.540437
 20
442.019936
 30
0.0
 11
-485.628835
 21
442.023909
 31
0.0
  0
LINE
  8
0
 10
-485.628835
 20
442.023909
 30
0.0
 11
-485.540437
 21
442.019936
 31
0.0
  0
LINE
  8
0
 10
-485.628835
 20
442.023909
 30
0.0
 11
-485.715246
 21
442.03543
 31
0.0
  0
LINE
  8
0
 10
-485.715246
 20
442.03543
 30
0.0
 11
-485.628835
 21
442.023909
 31
0.0
  0
LINE
  8
0
 10
-485.715246
 20
442.03543
 30
0.0
 11
-485.799671
 21
442.0545
 31
0.0
  0
LINE
  8
0
 10
-485.799671
 20
442.0545
 30
0.0
 11
-485.715246
 21
442.03543
 31
0.0
  0
LINE
  8
0
 10
-485.799671
 20
442.0545
 30
0.0
 11
-485.882109
 21
442.07953
 31
0.0
  0
LINE
  8
0
 10
-485.882109
 20
442.07953
 30
0.0
 11
-485.799671
 21
442.0545
 31
0.0
  0
LINE
  8
0
 10
-485.882109
 20
442.07953
 30
0.0
 11
-485.962759
 21
442.114094
 31
0.0
  0
LINE
  8
0
 10
-485.962759
 20
442.114094
 30
0.0
 11
-485.882109
 21
442.07953
 31
0.0
  0
LINE
  8
0
 10
-485.962759
 20
442.114094
 30
0.0
 11
-486.039437
 21
442.152433
 31
0.0
  0
LINE
  8
0
 10
-486.039437
 20
442.152433
 30
0.0
 11
-485.962759
 21
442.114094
 31
0.0
  0
LINE
  8
0
 10
-486.039437
 20
442.152433
 30
0.0
 11
-486.114326
 21
442.200307
 31
0.0
  0
LINE
  8
0
 10
-486.114326
 20
442.200307
 30
0.0
 11
-486.039437
 21
442.152433
 31
0.0
  0
LINE
  8
0
 10
-486.114326
 20
442.200307
 30
0.0
 11
-486.183455
 21
442.252153
 31
0.0
  0
LINE
  8
0
 10
-486.183455
 20
442.252153
 30
0.0
 11
-486.114326
 21
442.200307
 31
0.0
  0
LINE
  8
0
 10
-486.183455
 20
442.252153
 30
0.0
 11
-486.246823
 21
442.311747
 31
0.0
  0
LINE
  8
0
 10
-486.246823
 20
442.311747
 30
0.0
 11
-486.183455
 21
442.252153
 31
0.0
  0
LINE
  8
0
 10
-487.037435
 20
444.213586
 30
0.0
 11
-487.033661
 21
444.301785
 31
0.0
  0
LINE
  8
0
 10
-487.033661
 20
444.301785
 30
0.0
 11
-487.037435
 21
444.213586
 31
0.0
  0
LINE
  8
0
 10
-487.033661
 20
444.301785
 30
0.0
 11
-487.02214
 21
444.388196
 31
0.0
  0
LINE
  8
0
 10
-487.02214
 20
444.388196
 30
0.0
 11
-487.033661
 21
444.301785
 31
0.0
  0
LINE
  8
0
 10
-487.02214
 20
444.388196
 30
0.0
 11
-487.004857
 21
444.472621
 31
0.0
  0
LINE
  8
0
 10
-487.004857
 20
444.472621
 30
0.0
 11
-487.02214
 21
444.388196
 31
0.0
  0
LINE
  8
0
 10
-487.004857
 20
444.472621
 30
0.0
 11
-486.977841
 21
444.555059
 31
0.0
  0
LINE
  8
0
 10
-486.977841
 20
444.555059
 30
0.0
 11
-487.004857
 21
444.472621
 31
0.0
  0
LINE
  8
0
 10
-486.977841
 20
444.555059
 30
0.0
 11
-486.945263
 21
444.635709
 31
0.0
  0
LINE
  8
0
 10
-486.945263
 20
444.635709
 30
0.0
 11
-486.977841
 21
444.555059
 31
0.0
  0
LINE
  8
0
 10
-486.945263
 20
444.635709
 30
0.0
 11
-486.904938
 21
444.712387
 31
0.0
  0
LINE
  8
0
 10
-486.904938
 20
444.712387
 30
0.0
 11
-486.945263
 21
444.635709
 31
0.0
  0
LINE
  8
0
 10
-486.904938
 20
444.712387
 30
0.0
 11
-486.857065
 21
444.787276
 31
0.0
  0
LINE
  8
0
 10
-486.857065
 20
444.787276
 30
0.0
 11
-486.904938
 21
444.712387
 31
0.0
  0
LINE
  8
0
 10
-486.857065
 20
444.787276
 30
0.0
 11
-486.805218
 21
444.856405
 31
0.0
  0
LINE
  8
0
 10
-486.805218
 20
444.856405
 30
0.0
 11
-486.857065
 21
444.787276
 31
0.0
  0
LINE
  8
0
 10
-486.805218
 20
444.856405
 30
0.0
 11
-486.745624
 21
444.919773
 31
0.0
  0
LINE
  8
0
 10
-486.745624
 20
444.919773
 30
0.0
 11
-486.805218
 21
444.856405
 31
0.0
  0
LINE
  8
0
 10
-486.745624
 20
444.919773
 30
0.0
 11
-486.682455
 21
444.979168
 31
0.0
  0
LINE
  8
0
 10
-486.682455
 20
444.979168
 30
0.0
 11
-486.745624
 21
444.919773
 31
0.0
  0
LINE
  8
0
 10
-486.682455
 20
444.979168
 30
0.0
 11
-486.613326
 21
445.031015
 31
0.0
  0
LINE
  8
0
 10
-486.613326
 20
445.031015
 30
0.0
 11
-486.682455
 21
444.979168
 31
0.0
  0
LINE
  8
0
 10
-486.613326
 20
445.031015
 30
0.0
 11
-486.538436
 21
445.079087
 31
0.0
  0
LINE
  8
0
 10
-486.538436
 20
445.079087
 30
0.0
 11
-486.613326
 21
445.031015
 31
0.0
  0
LINE
  8
0
 10
-486.538436
 20
445.079087
 30
0.0
 11
-486.461759
 21
445.119214
 31
0.0
  0
LINE
  8
0
 10
-486.461759
 20
445.119214
 30
0.0
 11
-486.538436
 21
445.079087
 31
0.0
  0
LINE
  8
0
 10
-486.461759
 20
445.119214
 30
0.0
 11
-486.381108
 21
445.151991
 31
0.0
  0
LINE
  8
0
 10
-486.381108
 20
445.151991
 30
0.0
 11
-486.461759
 21
445.119214
 31
0.0
  0
LINE
  8
0
 10
-486.381108
 20
445.151991
 30
0.0
 11
-486.298471
 21
445.178808
 31
0.0
  0
LINE
  8
0
 10
-486.298471
 20
445.178808
 30
0.0
 11
-486.381108
 21
445.151991
 31
0.0
  0
LINE
  8
0
 10
-486.298471
 20
445.178808
 30
0.0
 11
-486.214047
 21
445.19609
 31
0.0
  0
LINE
  8
0
 10
-486.214047
 20
445.19609
 30
0.0
 11
-486.298471
 21
445.178808
 31
0.0
  0
LINE
  8
0
 10
-486.214047
 20
445.19609
 30
0.0
 11
-486.127834
 21
445.207612
 31
0.0
  0
LINE
  8
0
 10
-486.127834
 20
445.207612
 30
0.0
 11
-486.214047
 21
445.19609
 31
0.0
  0
LINE
  8
0
 10
-486.127834
 20
445.207612
 30
0.0
 11
-486.039437
 21
445.211386
 31
0.0
  0
LINE
  8
0
 10
-486.039437
 20
445.211386
 30
0.0
 11
-486.127834
 21
445.207612
 31
0.0
  0
LINE
  8
0
 10
-483.460214
 20
445.211386
 30
0.0
 11
-483.373803
 21
445.207612
 31
0.0
  0
LINE
  8
0
 10
-483.373803
 20
445.207612
 30
0.0
 11
-483.460214
 21
445.211386
 31
0.0
  0
LINE
  8
0
 10
-483.373803
 20
445.207612
 30
0.0
 11
-483.287591
 21
445.19609
 31
0.0
  0
LINE
  8
0
 10
-483.287591
 20
445.19609
 30
0.0
 11
-483.373803
 21
445.207612
 31
0.0
  0
LINE
  8
0
 10
-483.287591
 20
445.19609
 30
0.0
 11
-483.202968
 21
445.178808
 31
0.0
  0
LINE
  8
0
 10
-483.202968
 20
445.178808
 30
0.0
 11
-483.287591
 21
445.19609
 31
0.0
  0
LINE
  8
0
 10
-483.202968
 20
445.178808
 30
0.0
 11
-483.118543
 21
445.151991
 31
0.0
  0
LINE
  8
0
 10
-483.118543
 20
445.151991
 30
0.0
 11
-483.202968
 21
445.178808
 31
0.0
  0
LINE
  8
0
 10
-483.118543
 20
445.151991
 30
0.0
 11
-483.038091
 21
445.119214
 31
0.0
  0
LINE
  8
0
 10
-483.038091
 20
445.119214
 30
0.0
 11
-483.118543
 21
445.151991
 31
0.0
  0
LINE
  8
0
 10
-483.038091
 20
445.119214
 30
0.0
 11
-482.961215
 21
445.079087
 31
0.0
  0
LINE
  8
0
 10
-482.961215
 20
445.079087
 30
0.0
 11
-483.038091
 21
445.119214
 31
0.0
  0
LINE
  8
0
 10
-482.961215
 20
445.079087
 30
0.0
 11
-482.888312
 21
445.031015
 31
0.0
  0
LINE
  8
0
 10
-482.888312
 20
445.031015
 30
0.0
 11
-482.961215
 21
445.079087
 31
0.0
  0
LINE
  8
0
 10
-482.888312
 20
445.031015
 30
0.0
 11
-482.819183
 21
444.979168
 31
0.0
  0
LINE
  8
0
 10
-482.819183
 20
444.979168
 30
0.0
 11
-482.888312
 21
445.031015
 31
0.0
  0
LINE
  8
0
 10
-482.819183
 20
444.979168
 30
0.0
 11
-482.754027
 21
444.919773
 31
0.0
  0
LINE
  8
0
 10
-482.754027
 20
444.919773
 30
0.0
 11
-482.819183
 21
444.979168
 31
0.0
  0
LINE
  8
0
 10
-483.972523
 20
443.879662
 30
0.0
 11
-484.018609
 21
443.919788
 31
0.0
  0
LINE
  8
0
 10
-484.018609
 20
443.919788
 30
0.0
 11
-484.066681
 21
443.954353
 31
0.0
  0
LINE
  8
0
 10
-484.066681
 20
443.954353
 30
0.0
 11
-484.120316
 21
443.983156
 31
0.0
  0
LINE
  8
0
 10
-484.120316
 20
443.983156
 30
0.0
 11
-484.177923
 21
444.004213
 31
0.0
  0
LINE
  8
0
 10
-484.177923
 20
444.004213
 30
0.0
 11
-484.235531
 21
444.017721
 31
0.0
  0
LINE
  8
0
 10
-484.235531
 20
444.017721
 30
0.0
 11
-484.294926
 21
444.025468
 31
0.0
  0
LINE
  8
0
 10
-484.294926
 20
444.025468
 30
0.0
 11
-484.356506
 21
444.025468
 31
0.0
  0
LINE
  8
0
 10
-484.356506
 20
444.025468
 30
0.0
 11
-484.415901
 21
444.017721
 31
0.0
  0
LINE
  8
0
 10
-484.415901
 20
444.017721
 30
0.0
 11
-484.473509
 21
444.004213
 31
0.0
  0
LINE
  8
0
 10
-484.473509
 20
444.004213
 30
0.0
 11
-484.531116
 21
443.983156
 31
0.0
  0
LINE
  8
0
 10
-484.531116
 20
443.983156
 30
0.0
 11
-484.582963
 21
443.954353
 31
0.0
  0
LINE
  8
0
 10
-484.582963
 20
443.954353
 30
0.0
 11
-484.632823
 21
443.919788
 31
0.0
  0
LINE
  8
0
 10
-484.632823
 20
443.919788
 30
0.0
 11
-484.678909
 21
443.879662
 31
0.0
  0
LINE
  8
0
 10
-484.678909
 20
443.879662
 30
0.0
 11
-484.632823
 21
443.919788
 31
0.0
  0
LINE
  8
0
 10
-484.632823
 20
443.919788
 30
0.0
 11
-484.582963
 21
443.954353
 31
0.0
  0
LINE
  8
0
 10
-484.582963
 20
443.954353
 30
0.0
 11
-484.531116
 21
443.983156
 31
0.0
  0
LINE
  8
0
 10
-484.531116
 20
443.983156
 30
0.0
 11
-484.473509
 21
444.004213
 31
0.0
  0
LINE
  8
0
 10
-484.473509
 20
444.004213
 30
0.0
 11
-484.415901
 21
444.017721
 31
0.0
  0
LINE
  8
0
 10
-484.415901
 20
444.017721
 30
0.0
 11
-484.356506
 21
444.025468
 31
0.0
  0
LINE
  8
0
 10
-484.356506
 20
444.025468
 30
0.0
 11
-484.294926
 21
444.025468
 31
0.0
  0
LINE
  8
0
 10
-484.294926
 20
444.025468
 30
0.0
 11
-484.235531
 21
444.017721
 31
0.0
  0
LINE
  8
0
 10
-484.235531
 20
444.017721
 30
0.0
 11
-484.177923
 21
444.004213
 31
0.0
  0
LINE
  8
0
 10
-484.177923
 20
444.004213
 30
0.0
 11
-484.120316
 21
443.983156
 31
0.0
  0
LINE
  8
0
 10
-484.120316
 20
443.983156
 30
0.0
 11
-484.066681
 21
443.954353
 31
0.0
  0
LINE
  8
0
 10
-484.066681
 20
443.954353
 30
0.0
 11
-484.018609
 21
443.919788
 31
0.0
  0
LINE
  8
0
 10
-484.018609
 20
443.919788
 30
0.0
 11
-483.972523
 21
443.879662
 31
0.0
  0
LINE
  8
0
 10
-483.972523
 20
443.879662
 30
0.0
 11
-483.932396
 21
443.835364
 31
0.0
  0
LINE
  8
0
 10
-483.932396
 20
443.835364
 30
0.0
 11
-483.972523
 21
443.879662
 31
0.0
  0
LINE
  8
0
 10
-483.932396
 20
443.835364
 30
0.0
 11
-483.897832
 21
443.785503
 31
0.0
  0
LINE
  8
0
 10
-483.897832
 20
443.785503
 30
0.0
 11
-483.932396
 21
443.835364
 31
0.0
  0
LINE
  8
0
 10
-483.897832
 20
443.785503
 30
0.0
 11
-483.870816
 21
443.731869
 31
0.0
  0
LINE
  8
0
 10
-483.870816
 20
443.731869
 30
0.0
 11
-483.897832
 21
443.785503
 31
0.0
  0
LINE
  8
0
 10
-483.870816
 20
443.731869
 30
0.0
 11
-483.84976
 21
443.676049
 31
0.0
  0
LINE
  8
0
 10
-483.84976
 20
443.676049
 30
0.0
 11
-483.870816
 21
443.731869
 31
0.0
  0
LINE
  8
0
 10
-483.84976
 20
443.676049
 30
0.0
 11
-483.834464
 21
443.616654
 31
0.0
  0
LINE
  8
0
 10
-483.834464
 20
443.616654
 30
0.0
 11
-483.84976
 21
443.676049
 31
0.0
  0
LINE
  8
0
 10
-483.834464
 20
443.616654
 30
0.0
 11
-483.826717
 21
443.557259
 31
0.0
  0
LINE
  8
0
 10
-483.826717
 20
443.557259
 30
0.0
 11
-483.834464
 21
443.616654
 31
0.0
  0
LINE
  8
0
 10
-483.826717
 20
443.557259
 30
0.0
 11
-483.826717
 21
443.497665
 31
0.0
  0
LINE
  8
0
 10
-483.826717
 20
443.497665
 30
0.0
 11
-483.826717
 21
443.557259
 31
0.0
  0
LINE
  8
0
 10
-483.826717
 20
443.497665
 30
0.0
 11
-483.834464
 21
443.43827
 31
0.0
  0
LINE
  8
0
 10
-483.834464
 20
443.43827
 30
0.0
 11
-483.826717
 21
443.497665
 31
0.0
  0
LINE
  8
0
 10
-483.834464
 20
443.43827
 30
0.0
 11
-483.84976
 21
443.378676
 31
0.0
  0
LINE
  8
0
 10
-483.84976
 20
443.378676
 30
0.0
 11
-483.834464
 21
443.43827
 31
0.0
  0
LINE
  8
0
 10
-483.84976
 20
443.378676
 30
0.0
 11
-483.870816
 21
443.323055
 31
0.0
  0
LINE
  8
0
 10
-483.870816
 20
443.323055
 30
0.0
 11
-483.84976
 21
443.378676
 31
0.0
  0
LINE
  8
0
 10
-483.870816
 20
443.323055
 30
0.0
 11
-483.897832
 21
443.269222
 31
0.0
  0
LINE
  8
0
 10
-483.897832
 20
443.269222
 30
0.0
 11
-483.870816
 21
443.323055
 31
0.0
  0
LINE
  8
0
 10
-483.897832
 20
443.269222
 30
0.0
 11
-483.932396
 21
443.219362
 31
0.0
  0
LINE
  8
0
 10
-483.932396
 20
443.219362
 30
0.0
 11
-483.897832
 21
443.269222
 31
0.0
  0
LINE
  8
0
 10
-483.932396
 20
443.219362
 30
0.0
 11
-483.972523
 21
443.175262
 31
0.0
  0
LINE
  8
0
 10
-483.972523
 20
443.175262
 30
0.0
 11
-483.932396
 21
443.219362
 31
0.0
  0
LINE
  8
0
 10
-479.608663
 20
439.657635
 30
0.0
 11
-479.514505
 21
439.579714
 31
0.0
  0
LINE
  8
0
 10
-479.514505
 20
439.579714
 30
0.0
 11
-479.414784
 21
439.499097
 31
0.0
  0
LINE
  8
0
 10
-479.414784
 20
439.499097
 30
0.0
 11
-479.311091
 21
439.422021
 31
0.0
  0
LINE
  8
0
 10
-479.311091
 20
439.422021
 30
0.0
 11
-479.203623
 21
439.348771
 31
0.0
  0
LINE
  8
0
 10
-479.203623
 20
439.348771
 30
0.0
 11
-479.092382
 21
439.279486
 31
0.0
  0
LINE
  8
0
 10
-479.092382
 20
439.279486
 30
0.0
 11
-478.977167
 21
439.214215
 31
0.0
  0
LINE
  8
0
 10
-478.977167
 20
439.214215
 30
0.0
 11
-478.860164
 21
439.154227
 31
0.0
  0
LINE
  8
0
 10
-478.860164
 20
439.154227
 30
0.0
 11
-478.739189
 21
439.098457
 31
0.0
  0
LINE
  8
0
 10
-478.739189
 20
439.098457
 30
0.0
 11
-478.616425
 21
439.047999
 31
0.0
  0
LINE
  8
0
 10
-478.616425
 20
439.047999
 30
0.0
 11
-478.489888
 21
439.002131
 31
0.0
  0
LINE
  8
0
 10
-478.489888
 20
439.002131
 30
0.0
 11
-478.363151
 21
438.962159
 31
0.0
  0
LINE
  8
0
 10
-478.363151
 20
438.962159
 30
0.0
 11
-478.234627
 21
438.927485
 31
0.0
  0
LINE
  8
0
 10
-478.234627
 20
438.927485
 30
0.0
 11
-478.105905
 21
438.898476
 31
0.0
  0
LINE
  8
0
 10
-478.105905
 20
438.898476
 30
0.0
 11
-477.975394
 21
438.867433
 31
0.0
  0
LINE
  8
0
 10
-477.975394
 20
438.867433
 30
0.0
 11
-477.844883
 21
438.834837
 31
0.0
  0
LINE
  8
0
 10
-477.844883
 20
438.834837
 30
0.0
 11
-477.975394
 21
438.867433
 31
0.0
  0
LINE
  8
0
 10
-477.975394
 20
438.867433
 30
0.0
 11
-478.105905
 21
438.898476
 31
0.0
  0
LINE
  8
0
 10
-478.105905
 20
438.898476
 30
0.0
 11
-478.234627
 21
438.927485
 31
0.0
  0
LINE
  8
0
 10
-478.234627
 20
438.927485
 30
0.0
 11
-478.363151
 21
438.962159
 31
0.0
  0
LINE
  8
0
 10
-478.363151
 20
438.962159
 30
0.0
 11
-478.489888
 21
439.002131
 31
0.0
  0
LINE
  8
0
 10
-478.489888
 20
439.002131
 30
0.0
 11
-478.616425
 21
439.047999
 31
0.0
  0
LINE
  8
0
 10
-478.616425
 20
439.047999
 30
0.0
 11
-478.739189
 21
439.098457
 31
0.0
  0
LINE
  8
0
 10
-478.739189
 20
439.098457
 30
0.0
 11
-478.860164
 21
439.154227
 31
0.0
  0
LINE
  8
0
 10
-478.860164
 20
439.154227
 30
0.0
 11
-478.977167
 21
439.214215
 31
0.0
  0
LINE
  8
0
 10
-478.977167
 20
439.214215
 30
0.0
 11
-479.092382
 21
439.279486
 31
0.0
  0
LINE
  8
0
 10
-479.092382
 20
439.279486
 30
0.0
 11
-479.203623
 21
439.348771
 31
0.0
  0
LINE
  8
0
 10
-479.203623
 20
439.348771
 30
0.0
 11
-479.311091
 21
439.422021
 31
0.0
  0
LINE
  8
0
 10
-479.311091
 20
439.422021
 30
0.0
 11
-479.414784
 21
439.499097
 31
0.0
  0
LINE
  8
0
 10
-479.414784
 20
439.499097
 30
0.0
 11
-479.514505
 21
439.579714
 31
0.0
  0
LINE
  8
0
 10
-479.514505
 20
439.579714
 30
0.0
 11
-479.608663
 21
439.657635
 31
0.0
  0
LINE
  8
0
 10
-479.608663
 20
436.098393
 30
0.0
 11
-479.514505
 21
436.188578
 31
0.0
  0
LINE
  8
0
 10
-479.514505
 20
436.188578
 30
0.0
 11
-479.608663
 21
436.098393
 31
0.0
  0
LINE
  8
0
 10
-479.514505
 20
436.188578
 30
0.0
 11
-479.414784
 21
436.273003
 31
0.0
  0
LINE
  8
0
 10
-479.414784
 20
436.273003
 30
0.0
 11
-479.514505
 21
436.188578
 31
0.0
  0
LINE
  8
0
 10
-479.414784
 20
436.273003
 30
0.0
 11
-479.311091
 21
436.351666
 31
0.0
  0
LINE
  8
0
 10
-479.311091
 20
436.351666
 30
0.0
 11
-479.414784
 21
436.273003
 31
0.0
  0
LINE
  8
0
 10
-479.311091
 20
436.351666
 30
0.0
 11
-479.203623
 21
436.426556
 31
0.0
  0
LINE
  8
0
 10
-479.203623
 20
436.426556
 30
0.0
 11
-479.311091
 21
436.351666
 31
0.0
  0
LINE
  8
0
 10
-479.203623
 20
436.426556
 30
0.0
 11
-479.092382
 21
436.495486
 31
0.0
  0
LINE
  8
0
 10
-479.092382
 20
436.495486
 30
0.0
 11
-479.203623
 21
436.426556
 31
0.0
  0
LINE
  8
0
 10
-479.092382
 20
436.495486
 30
0.0
 11
-478.977167
 21
436.557067
 31
0.0
  0
LINE
  8
0
 10
-478.977167
 20
436.557067
 30
0.0
 11
-479.092382
 21
436.495486
 31
0.0
  0
LINE
  8
0
 10
-478.977167
 20
436.557067
 30
0.0
 11
-478.860164
 21
436.612688
 31
0.0
  0
LINE
  8
0
 10
-478.860164
 20
436.612688
 30
0.0
 11
-478.977167
 21
436.557067
 31
0.0
  0
LINE
  8
0
 10
-478.860164
 20
436.612688
 30
0.0
 11
-478.739189
 21
436.662548
 31
0.0
  0
LINE
  8
0
 10
-478.739189
 20
436.662548
 30
0.0
 11
-478.860164
 21
436.612688
 31
0.0
  0
LINE
  8
0
 10
-478.739189
 20
436.662548
 30
0.0
 11
-478.616425
 21
436.706647
 31
0.0
  0
LINE
  8
0
 10
-478.616425
 20
436.706647
 30
0.0
 11
-478.739189
 21
436.662548
 31
0.0
  0
LINE
  8
0
 10
-478.616425
 20
436.706647
 30
0.0
 11
-478.489888
 21
436.743198
 31
0.0
  0
LINE
  8
0
 10
-478.489888
 20
436.743198
 30
0.0
 11
-478.616425
 21
436.706647
 31
0.0
  0
LINE
  8
0
 10
-478.489888
 20
436.743198
 30
0.0
 11
-478.363151
 21
436.77379
 31
0.0
  0
LINE
  8
0
 10
-478.363151
 20
436.77379
 30
0.0
 11
-478.489888
 21
436.743198
 31
0.0
  0
LINE
  8
0
 10
-478.363151
 20
436.77379
 30
0.0
 11
-478.234627
 21
436.798819
 31
0.0
  0
LINE
  8
0
 10
-478.234627
 20
436.798819
 30
0.0
 11
-478.363151
 21
436.77379
 31
0.0
  0
LINE
  8
0
 10
-478.234627
 20
436.798819
 30
0.0
 11
-478.105905
 21
436.816101
 31
0.0
  0
LINE
  8
0
 10
-478.105905
 20
436.816101
 30
0.0
 11
-478.234627
 21
436.798819
 31
0.0
  0
LINE
  8
0
 10
-478.105905
 20
436.816101
 30
0.0
 11
-477.975394
 21
436.825636
 31
0.0
  0
LINE
  8
0
 10
-477.975394
 20
436.825636
 30
0.0
 11
-478.105905
 21
436.816101
 31
0.0
  0
LINE
  8
0
 10
-477.975394
 20
436.825636
 30
0.0
 11
-477.844883
 21
436.829411
 31
0.0
  0
LINE
  8
0
 10
-477.844883
 20
436.829411
 30
0.0
 11
-477.975394
 21
436.825636
 31
0.0
  0
LINE
  8
0
 10
-483.972523
 20
432.580567
 30
0.0
 11
-483.932396
 21
432.536467
 31
0.0
  0
LINE
  8
0
 10
-483.932396
 20
432.536467
 30
0.0
 11
-483.972523
 21
432.580567
 31
0.0
  0
LINE
  8
0
 10
-483.972523
 20
432.580567
 30
0.0
 11
-484.836237
 21
433.444281
 31
0.0
  0
LINE
  8
0
 10
-484.836237
 20
433.444281
 30
0.0
 11
-484.899605
 21
433.503676
 31
0.0
  0
LINE
  8
0
 10
-484.899605
 20
433.503676
 30
0.0
 11
-484.968535
 21
433.555522
 31
0.0
  0
LINE
  8
0
 10
-484.968535
 20
433.555522
 30
0.0
 11
-485.043425
 21
433.603595
 31
0.0
  0
LINE
  8
0
 10
-485.043425
 20
433.603595
 30
0.0
 11
-485.120301
 21
433.641934
 31
0.0
  0
LINE
  8
0
 10
-485.120301
 20
433.641934
 30
0.0
 11
-485.200752
 21
433.676498
 31
0.0
  0
LINE
  8
0
 10
-485.200752
 20
433.676498
 30
0.0
 11
-485.283389
 21
433.701329
 31
0.0
  0
LINE
  8
0
 10
-485.283389
 20
433.701329
 30
0.0
 11
-485.367814
 21
433.720597
 31
0.0
  0
LINE
  8
0
 10
-485.367814
 20
433.720597
 30
0.0
 11
-485.454225
 21
433.732119
 31
0.0
  0
LINE
  8
0
 10
-485.454225
 20
433.732119
 30
0.0
 11
-485.540437
 21
433.735893
 31
0.0
  0
LINE
  8
0
 10
-485.540437
 20
433.735893
 30
0.0
 11
-485.628835
 21
433.732119
 31
0.0
  0
LINE
  8
0
 10
-485.628835
 20
433.732119
 30
0.0
 11
-485.715246
 21
433.720597
 31
0.0
  0
LINE
  8
0
 10
-485.715246
 20
433.720597
 30
0.0
 11
-485.799671
 21
433.701329
 31
0.0
  0
LINE
  8
0
 10
-485.799671
 20
433.701329
 30
0.0
 11
-485.882109
 21
433.676498
 31
0.0
  0
LINE
  8
0
 10
-485.882109
 20
433.676498
 30
0.0
 11
-485.962759
 21
433.641934
 31
0.0
  0
LINE
  8
0
 10
-485.962759
 20
433.641934
 30
0.0
 11
-486.039437
 21
433.603595
 31
0.0
  0
LINE
  8
0
 10
-486.039437
 20
433.603595
 30
0.0
 11
-486.114326
 21
433.555522
 31
0.0
  0
LINE
  8
0
 10
-486.114326
 20
433.555522
 30
0.0
 11
-486.183455
 21
433.503676
 31
0.0
  0
LINE
  8
0
 10
-486.183455
 20
433.503676
 30
0.0
 11
-486.246823
 21
433.444281
 31
0.0
  0
LINE
  8
0
 10
-486.246823
 20
433.444281
 30
0.0
 11
-487.037435
 21
432.65347
 31
0.0
  0
LINE
  8
0
 10
-487.037435
 20
432.65347
 30
0.0
 11
-486.246823
 21
433.444281
 31
0.0
  0
LINE
  8
0
 10
-486.246823
 20
433.444281
 30
0.0
 11
-486.183455
 21
433.503676
 31
0.0
  0
LINE
  8
0
 10
-486.183455
 20
433.503676
 30
0.0
 11
-486.114326
 21
433.555522
 31
0.0
  0
LINE
  8
0
 10
-486.114326
 20
433.555522
 30
0.0
 11
-486.039437
 21
433.603595
 31
0.0
  0
LINE
  8
0
 10
-486.039437
 20
433.603595
 30
0.0
 11
-485.962759
 21
433.641934
 31
0.0
  0
LINE
  8
0
 10
-485.962759
 20
433.641934
 30
0.0
 11
-485.882109
 21
433.676498
 31
0.0
  0
LINE
  8
0
 10
-485.882109
 20
433.676498
 30
0.0
 11
-485.799671
 21
433.701329
 31
0.0
  0
LINE
  8
0
 10
-485.799671
 20
433.701329
 30
0.0
 11
-485.715246
 21
433.720597
 31
0.0
  0
LINE
  8
0
 10
-485.715246
 20
433.720597
 30
0.0
 11
-485.628835
 21
433.732119
 31
0.0
  0
LINE
  8
0
 10
-485.628835
 20
433.732119
 30
0.0
 11
-485.540437
 21
433.735893
 31
0.0
  0
LINE
  8
0
 10
-485.540437
 20
433.735893
 30
0.0
 11
-485.454225
 21
433.732119
 31
0.0
  0
LINE
  8
0
 10
-485.454225
 20
433.732119
 30
0.0
 11
-485.367814
 21
433.720597
 31
0.0
  0
LINE
  8
0
 10
-485.367814
 20
433.720597
 30
0.0
 11
-485.283389
 21
433.701329
 31
0.0
  0
LINE
  8
0
 10
-485.283389
 20
433.701329
 30
0.0
 11
-485.200752
 21
433.676498
 31
0.0
  0
LINE
  8
0
 10
-485.200752
 20
433.676498
 30
0.0
 11
-485.120301
 21
433.641934
 31
0.0
  0
LINE
  8
0
 10
-485.120301
 20
433.641934
 30
0.0
 11
-485.043425
 21
433.603595
 31
0.0
  0
LINE
  8
0
 10
-485.043425
 20
433.603595
 30
0.0
 11
-484.968535
 21
433.555522
 31
0.0
  0
LINE
  8
0
 10
-484.968535
 20
433.555522
 30
0.0
 11
-484.899605
 21
433.503676
 31
0.0
  0
LINE
  8
0
 10
-484.899605
 20
433.503676
 30
0.0
 11
-484.836237
 21
433.444281
 31
0.0
  0
LINE
  8
0
 10
-484.836237
 20
433.444281
 30
0.0
 11
-483.972523
 21
432.580567
 31
0.0
  0
LINE
  8
0
 10
-483.932396
 20
432.536467
 30
0.0
 11
-483.897832
 21
432.486607
 31
0.0
  0
LINE
  8
0
 10
-483.897832
 20
432.486607
 30
0.0
 11
-483.932396
 21
432.536467
 31
0.0
  0
LINE
  8
0
 10
-483.897832
 20
432.486607
 30
0.0
 11
-483.870816
 21
432.432774
 31
0.0
  0
LINE
  8
0
 10
-483.870816
 20
432.432774
 30
0.0
 11
-483.897832
 21
432.486607
 31
0.0
  0
LINE
  8
0
 10
-483.870816
 20
432.432774
 30
0.0
 11
-483.84976
 21
432.377153
 31
0.0
  0
LINE
  8
0
 10
-483.84976
 20
432.377153
 30
0.0
 11
-483.870816
 21
432.432774
 31
0.0
  0
LINE
  8
0
 10
-483.84976
 20
432.377153
 30
0.0
 11
-483.834464
 21
432.317758
 31
0.0
  0
LINE
  8
0
 10
-483.834464
 20
432.317758
 30
0.0
 11
-483.84976
 21
432.377153
 31
0.0
  0
LINE
  8
0
 10
-483.834464
 20
432.317758
 30
0.0
 11
-483.826717
 21
432.258164
 31
0.0
  0
LINE
  8
0
 10
-483.826717
 20
432.258164
 30
0.0
 11
-483.834464
 21
432.317758
 31
0.0
  0
LINE
  8
0
 10
-483.826717
 20
432.258164
 30
0.0
 11
-483.826717
 21
432.198769
 31
0.0
  0
LINE
  8
0
 10
-483.826717
 20
432.198769
 30
0.0
 11
-483.826717
 21
432.258164
 31
0.0
  0
LINE
  8
0
 10
-483.826717
 20
432.198769
 30
0.0
 11
-483.834464
 21
432.139175
 31
0.0
  0
LINE
  8
0
 10
-483.834464
 20
432.139175
 30
0.0
 11
-483.826717
 21
432.198769
 31
0.0
  0
LINE
  8
0
 10
-483.834464
 20
432.139175
 30
0.0
 11
-483.84976
 21
432.07978
 31
0.0
  0
LINE
  8
0
 10
-483.84976
 20
432.07978
 30
0.0
 11
-483.834464
 21
432.139175
 31
0.0
  0
LINE
  8
0
 10
-483.84976
 20
432.07978
 30
0.0
 11
-483.870816
 21
432.024159
 31
0.0
  0
LINE
  8
0
 10
-483.870816
 20
432.024159
 30
0.0
 11
-483.84976
 21
432.07978
 31
0.0
  0
LINE
  8
0
 10
-483.870816
 20
432.024159
 30
0.0
 11
-483.897832
 21
431.970326
 31
0.0
  0
LINE
  8
0
 10
-483.897832
 20
431.970326
 30
0.0
 11
-483.870816
 21
432.024159
 31
0.0
  0
LINE
  8
0
 10
-483.897832
 20
431.970326
 30
0.0
 11
-483.932396
 21
431.920465
 31
0.0
  0
LINE
  8
0
 10
-483.932396
 20
431.920465
 30
0.0
 11
-483.897832
 21
431.970326
 31
0.0
  0
LINE
  8
0
 10
-483.932396
 20
431.920465
 30
0.0
 11
-483.972523
 21
431.876366
 31
0.0
  0
LINE
  8
0
 10
-483.972523
 20
431.876366
 30
0.0
 11
-483.932396
 21
431.920465
 31
0.0
  0
LINE
  8
0
 10
-483.972523
 20
431.876366
 30
0.0
 11
-484.018609
 21
431.836041
 31
0.0
  0
LINE
  8
0
 10
-484.018609
 20
431.836041
 30
0.0
 11
-483.972523
 21
431.876366
 31
0.0
  0
LINE
  8
0
 10
-484.018609
 20
431.836041
 30
0.0
 11
-484.066681
 21
431.801476
 31
0.0
  0
LINE
  8
0
 10
-484.066681
 20
431.801476
 30
0.0
 11
-484.018609
 21
431.836041
 31
0.0
  0
LINE
  8
0
 10
-484.066681
 20
431.801476
 30
0.0
 11
-484.120316
 21
431.772673
 31
0.0
  0
LINE
  8
0
 10
-484.120316
 20
431.772673
 30
0.0
 11
-484.066681
 21
431.801476
 31
0.0
  0
LINE
  8
0
 10
-484.120316
 20
431.772673
 30
0.0
 11
-484.177923
 21
431.751616
 31
0.0
  0
LINE
  8
0
 10
-484.177923
 20
431.751616
 30
0.0
 11
-484.120316
 21
431.772673
 31
0.0
  0
LINE
  8
0
 10
-484.177923
 20
431.751616
 30
0.0
 11
-484.235531
 21
431.738108
 31
0.0
  0
LINE
  8
0
 10
-484.235531
 20
431.738108
 30
0.0
 11
-484.177923
 21
431.751616
 31
0.0
  0
LINE
  8
0
 10
-484.235531
 20
431.738108
 30
0.0
 11
-484.294926
 21
431.730361
 31
0.0
  0
LINE
  8
0
 10
-484.294926
 20
431.730361
 30
0.0
 11
-484.235531
 21
431.738108
 31
0.0
  0
LINE
  8
0
 10
-484.294926
 20
431.730361
 30
0.0
 11
-484.356506
 21
431.730361
 31
0.0
  0
LINE
  8
0
 10
-484.356506
 20
431.730361
 30
0.0
 11
-484.294926
 21
431.730361
 31
0.0
  0
LINE
  8
0
 10
-484.356506
 20
431.730361
 30
0.0
 11
-484.415901
 21
431.738108
 31
0.0
  0
LINE
  8
0
 10
-484.415901
 20
431.738108
 30
0.0
 11
-484.356506
 21
431.730361
 31
0.0
  0
LINE
  8
0
 10
-484.415901
 20
431.738108
 30
0.0
 11
-484.473509
 21
431.751616
 31
0.0
  0
LINE
  8
0
 10
-484.473509
 20
431.751616
 30
0.0
 11
-484.415901
 21
431.738108
 31
0.0
  0
LINE
  8
0
 10
-484.473509
 20
431.751616
 30
0.0
 11
-484.531116
 21
431.772673
 31
0.0
  0
LINE
  8
0
 10
-484.531116
 20
431.772673
 30
0.0
 11
-484.473509
 21
431.751616
 31
0.0
  0
LINE
  8
0
 10
-484.531116
 20
431.772673
 30
0.0
 11
-484.582963
 21
431.801476
 31
0.0
  0
LINE
  8
0
 10
-484.582963
 20
431.801476
 30
0.0
 11
-484.531116
 21
431.772673
 31
0.0
  0
LINE
  8
0
 10
-484.582963
 20
431.801476
 30
0.0
 11
-484.632823
 21
431.836041
 31
0.0
  0
LINE
  8
0
 10
-484.632823
 20
431.836041
 30
0.0
 11
-484.582963
 21
431.801476
 31
0.0
  0
LINE
  8
0
 10
-484.632823
 20
431.836041
 30
0.0
 11
-484.678909
 21
431.876366
 31
0.0
  0
LINE
  8
0
 10
-484.678909
 20
431.876366
 30
0.0
 11
-484.632823
 21
431.836041
 31
0.0
  0
LINE
  8
0
 10
-484.678909
 20
431.876366
 30
0.0
 11
-485.540437
 21
432.737895
 31
0.0
  0
LINE
  8
0
 10
-485.540437
 20
432.737895
 30
0.0
 11
-484.678909
 21
431.876366
 31
0.0
  0
LINE
  8
0
 10
-484.166402
 20
431.542442
 30
0.0
 11
-486.039437
 21
431.542442
 31
0.0
  0
LINE
  8
0
 10
-486.039437
 20
431.542442
 30
0.0
 11
-486.039437
 21
432.239094
 31
0.0
  0
LINE
  8
0
 10
-486.039437
 20
432.239094
 30
0.0
 11
-485.540437
 21
432.737895
 31
0.0
  0
LINE
  8
0
 10
-485.540437
 20
432.737895
 30
0.0
 11
-486.039437
 21
432.239094
 31
0.0
  0
LINE
  8
0
 10
-486.039437
 20
432.239094
 30
0.0
 11
-486.039437
 21
431.542442
 31
0.0
  0
LINE
  8
0
 10
-486.039437
 20
431.542442
 30
0.0
 11
-484.166402
 21
431.542442
 31
0.0
  0
LINE
  8
0
 10
-484.166402
 20
431.542442
 30
0.0
 11
-479.608663
 21
436.098393
 31
0.0
  0
LINE
  8
0
 10
-479.608663
 20
436.098393
 30
0.0
 11
-484.166402
 21
431.542442
 31
0.0
  0
LINE
  8
0
 10
-483.460214
 20
430.544443
 30
0.0
 11
-486.039437
 21
430.544443
 31
0.0
  0
LINE
  8
0
 10
-486.039437
 20
430.544443
 30
0.0
 11
-483.460214
 21
430.544443
 31
0.0
  0
LINE
  8
0
 10
-482.754027
 20
430.836254
 30
0.0
 11
-478.988688
 21
434.601395
 31
0.0
  0
LINE
  8
0
 10
-478.988688
 20
434.601395
 30
0.0
 11
-482.754027
 21
430.836254
 31
0.0
  0
LINE
  8
0
 10
-487.037435
 20
431.542442
 30
0.0
 11
-487.037435
 21
432.65347
 31
0.0
  0
LINE
  8
0
 10
-487.037435
 20
432.65347
 30
0.0
 11
-487.037435
 21
431.542442
 31
0.0
  0
LINE
  8
0
 10
-487.037435
 20
443.102359
 30
0.0
 11
-486.246823
 21
442.311747
 31
0.0
  0
LINE
  8
0
 10
-486.246823
 20
442.311747
 30
0.0
 11
-487.037435
 21
443.102359
 31
0.0
  0
LINE
  8
0
 10
-487.037435
 20
443.102359
 30
0.0
 11
-487.037435
 21
444.213586
 31
0.0
  0
LINE
  8
0
 10
-487.037435
 20
444.213586
 30
0.0
 11
-487.037435
 21
443.102359
 31
0.0
  0
LINE
  8
0
 10
-486.039437
 20
443.516934
 30
0.0
 11
-486.039437
 21
444.213586
 31
0.0
  0
LINE
  8
0
 10
-486.039437
 20
444.213586
 30
0.0
 11
-484.166402
 21
444.213586
 31
0.0
  0
LINE
  8
0
 10
-484.166402
 20
444.213586
 30
0.0
 11
-479.608663
 21
439.657635
 31
0.0
  0
LINE
  8
0
 10
-484.166402
 20
444.213586
 30
0.0
 11
-486.039437
 21
444.213586
 31
0.0
  0
LINE
  8
0
 10
-486.039437
 20
444.213586
 30
0.0
 11
-486.039437
 21
443.516934
 31
0.0
  0
LINE
  8
0
 10
-486.039437
 20
443.516934
 30
0.0
 11
-485.540437
 21
443.017934
 31
0.0
  0
LINE
  8
0
 10
-485.540437
 20
443.017934
 30
0.0
 11
-486.039437
 21
443.516934
 31
0.0
  0
LINE
  8
0
 10
-485.540437
 20
443.017934
 30
0.0
 11
-484.678909
 21
443.879662
 31
0.0
  0
LINE
  8
0
 10
-484.678909
 20
443.879662
 30
0.0
 11
-485.540437
 21
443.017934
 31
0.0
  0
LINE
  8
0
 10
-484.836237
 20
442.311747
 30
0.0
 11
-483.972523
 21
443.175262
 31
0.0
  0
LINE
  8
0
 10
-483.972523
 20
443.175262
 30
0.0
 11
-484.836237
 21
442.311747
 31
0.0
  0
LINE
  8
0
 10
-486.039437
 20
445.211386
 30
0.0
 11
-483.460214
 21
445.211386
 31
0.0
  0
LINE
  8
0
 10
-483.460214
 20
445.211386
 30
0.0
 11
-486.039437
 21
445.211386
 31
0.0
  0
LINE
  8
0
 10
-482.754027
 20
444.919773
 30
0.0
 11
-478.988688
 21
441.154434
 31
0.0
  0
LINE
  8
0
 10
-478.988688
 20
441.154434
 30
0.0
 11
-482.754027
 21
444.919773
 31
0.0
  0
LINE
  8
0
 10
-477.225107
 20
440.304985
 30
0.0
 11
-444.347372
 21
440.32022
 31
0.0
  0
LINE
  8
0
 10
-444.347372
 20
440.32022
 30
0.0
 11
-477.225107
 21
440.304985
 31
0.0
  0
LINE
  8
0
 10
-477.844883
 20
438.834837
 30
0.0
 11
-473.070223
 21
438.823421
 31
0.0
  0
LINE
  8
0
 10
-473.070223
 20
438.823421
 30
0.0
 11
-477.844883
 21
438.834837
 31
0.0
  0
LINE
  8
0
 10
-477.844883
 20
436.829411
 30
0.0
 11
-473.070223
 21
436.829411
 31
0.0
  0
LINE
  8
0
 10
-473.070223
 20
436.829411
 30
0.0
 11
-477.844883
 21
436.829411
 31
0.0
  0
LINE
  8
0
 10
-477.225107
 20
435.332611
 30
0.0
 11
-444.347372
 21
435.332611
 31
0.0
  0
LINE
  8
0
 10
-444.347372
 20
435.332611
 30
0.0
 11
-477.225107
 21
435.332611
 31
0.0
  0
LINE
  8
0
 10
-443.848373
 20
435.466896
 30
0.0
 11
-441.219482
 21
436.98484
 31
0.0
  0
LINE
  8
0
 10
-441.21929
 20
436.984951
 30
0.0
 11
-441.219482
 21
436.98484
 31
0.0
  0
LINE
  8
0
 10
-443.848373
 20
440.185936
 30
0.0
 11
-441.219482
 21
438.667992
 31
0.0
  0
LINE
  8
0
 10
-441.21929
 20
438.667881
 30
0.0
 11
-441.219482
 21
438.667992
 31
0.0
  0
LINE
  8
0
 10
-441.219482
 20
438.667992
 30
0.0
 11
-441.21929
 21
438.667881
 31
0.0
  0
LINE
  8
0
 10
-441.219482
 20
438.667992
 30
0.0
 11
-443.848373
 21
440.185936
 31
0.0
  0
LINE
  8
0
 10
-441.219482
 20
436.98484
 30
0.0
 11
-441.21929
 21
436.984951
 31
0.0
  0
LINE
  8
0
 10
-441.219482
 20
436.98484
 30
0.0
 11
-443.848373
 21
435.466896
 31
0.0
  0
ARC
  8
0
 10
-437.20326
 20
437.826416
 30
0.0
 40
3.241707
 50
158.450964
 51
158.45419
  0
ARC
  8
0
 10
-440.869456
 20
439.274195
 30
0.0
 40
0.7
 50
239.997503
 51
338.450964
  0
ARC
  8
0
 10
-437.20326
 20
437.826416
 30
0.0
 40
3.241707
 50
201.549036
 51
158.450964
  0
ARC
  8
0
 10
-440.869456
 20
436.378637
 30
0.0
 40
0.7
 50
21.549036
 51
120.002497
  0
ARC
  8
0
 10
-437.20326
 20
437.826416
 30
0.0
 40
3.241707
 50
201.54581
 51
201.549036
  0
CIRCLE
  8
0
 10
-437.20326
 20
437.826416
 30
0.0
 40
2.245099
  0
LINE
  8
0
 10
-458.82506
 20
495.212471
 30
0.0
 11
-458.837435
 21
495.212255
 31
0.0
  0
LINE
  8
0
 10
-434.337435
 20
486.139117
 30
0.0
 11
-434.337435
 21
474.988268
 31
0.0
  0
LINE
  8
0
 10
-434.337435
 20
449.488268
 30
0.0
 11
-434.337435
 21
460.639117
 31
0.0
  0
LINE
  8
0
 10
-455.337435
 20
447.313693
 30
0.0
 11
-431.337435
 21
447.104248
 31
0.0
  0
LINE
  8
0
 10
-460.837435
 20
464.909848
 30
0.0
 11
-460.837435
 21
470.717538
 31
0.0
  0
LINE
  8
0
 10
-460.837435
 20
500.211493
 30
0.0
 11
-460.837435
 21
489.909848
 31
0.0
  0
LINE
  8
0
 10
-458.82506
 20
440.414915
 30
0.0
 11
-458.837435
 21
440.415131
 31
0.0
  0
LINE
  8
0
 10
-455.337435
 20
473.813693
 30
0.0
 11
-435.328709
 21
473.988306
 31
0.0
  0
LINE
  8
0
 10
-455.337435
 20
461.813693
 30
0.0
 11
-435.328709
 21
461.639079
 31
0.0
  0
LINE
  8
0
 10
-435.328709
 20
448.488306
 30
0.0
 11
-455.337435
 21
448.313693
 31
0.0
  0
LINE
  8
0
 10
-455.337435
 20
462.813693
 30
0.0
 11
-455.337435
 21
461.813693
 31
0.0
  0
LINE
  8
0
 10
-455.337435
 20
447.313693
 30
0.0
 11
-455.337435
 21
448.313693
 31
0.0
  0
LINE
  8
0
 10
-435.328709
 20
487.139079
 30
0.0
 11
-455.337435
 21
487.313693
 31
0.0
  0
LINE
  8
0
 10
-455.337435
 20
472.813693
 30
0.0
 11
-455.337435
 21
473.813693
 31
0.0
  0
LINE
  8
0
 10
-455.337435
 20
488.313693
 30
0.0
 11
-455.337435
 21
487.313693
 31
0.0
  0
LINE
  8
0
 10
-460.837435
 20
440.449432
 30
0.0
 11
-460.837435
 21
445.717538
 31
0.0
  0
LINE
  8
0
 10
-460.837435
 20
435.415893
 30
0.0
 11
-460.837435
 21
440.449432
 31
0.0
  0
LINE
  8
0
 10
-429.354618
 20
432.900963
 30
0.0
 11
-429.537435
 21
432.904155
 31
0.0
  0
LINE
  8
0
 10
-465.37234
 20
471.779392
 30
0.0
 11
-461.819983
 21
471.717385
 31
0.0
  0
LINE
  8
0
 10
-461.819983
 20
488.91
 30
0.0
 11
-465.37234
 21
488.847994
 31
0.0
  0
LINE
  8
0
 10
-467.337435
 20
473.779087
 30
0.0
 11
-467.337435
 21
486.848298
 31
0.0
  0
LINE
  8
0
 10
-467.337435
 20
461.848298
 30
0.0
 11
-467.337435
 21
448.779087
 31
0.0
  0
LINE
  8
0
 10
-465.37234
 20
463.847994
 30
0.0
 11
-461.819983
 21
463.91
 31
0.0
  0
LINE
  8
0
 10
-461.819983
 20
446.717385
 30
0.0
 11
-465.37234
 21
446.779392
 31
0.0
  0
LINE
  8
0
 10
-434.337435
 20
472.630429
 30
0.0
 11
-434.337435
 21
462.996957
 31
0.0
  0
LINE
  8
0
 10
-434.337435
 20
472.630429
 30
0.0
 11
-435.337435
 21
472.639156
 31
0.0
  0
LINE
  8
0
 10
-434.337435
 20
462.996957
 30
0.0
 11
-435.337435
 21
462.98823
 31
0.0
  0
LINE
  8
0
 10
-435.337435
 20
462.98823
 30
0.0
 11
-435.337435
 21
472.639156
 31
0.0
  0
LINE
  8
0
 10
-435.337435
 20
472.639156
 30
0.0
 11
-455.337435
 21
472.813693
 31
0.0
  0
LINE
  8
0
 10
-435.337435
 20
462.98823
 30
0.0
 11
-455.337435
 21
462.813693
 31
0.0
  0
LINE
  8
0
 10
-455.337435
 20
462.813693
 30
0.0
 11
-460.837435
 21
462.813693
 31
0.0
  0
LINE
  8
0
 10
-460.837435
 20
462.813693
 30
0.0
 11
-460.837435
 21
464.909848
 31
0.0
  0
LINE
  8
0
 10
-460.837435
 20
470.717538
 30
0.0
 11
-460.837435
 21
472.813693
 31
0.0
  0
LINE
  8
0
 10
-460.837435
 20
472.813693
 30
0.0
 11
-455.337435
 21
472.813693
 31
0.0
  0
LINE
  8
0
 10
-455.337435
 20
488.313693
 30
0.0
 11
-460.837435
 21
488.313693
 31
0.0
  0
LINE
  8
0
 10
-460.837435
 20
488.313693
 30
0.0
 11
-460.837435
 21
489.909848
 31
0.0
  0
LINE
  8
0
 10
-455.337435
 20
447.313693
 30
0.0
 11
-460.837435
 21
447.303043
 31
0.0
  0
LINE
  8
0
 10
-460.837435
 20
447.303043
 30
0.0
 11
-460.837435
 21
445.717538
 31
0.0
  0
LINE
  8
0
 10
-431.337435
 20
463.023138
 30
0.0
 11
-434.337435
 21
462.996957
 31
0.0
  0
LINE
  8
0
 10
-431.337435
 20
472.604248
 30
0.0
 11
-434.337435
 21
472.630429
 31
0.0
  0
LINE
  8
0
 10
-431.337435
 20
488.523138
 30
0.0
 11
-455.337435
 21
488.313693
 31
0.0
  0
LINE
  8
0
 10
-431.337435
 20
502.691812
 30
0.0
 11
-458.87234
 21
502.211189
 31
0.0
  0
ARC
  8
0
 10
-435.337435
 20
449.488268
 30
0.0
 40
1.0
 50
270.5
 51
0.0
  0
ARC
  8
0
 10
-435.337435
 20
460.639117
 30
0.0
 40
1.0
 50
0.0
 51
89.5
  0
ARC
  8
0
 10
-435.337435
 20
474.988268
 30
0.0
 40
1.0
 50
270.5
 51
0.0
  0
ARC
  8
0
 10
-435.337435
 20
486.139117
 30
0.0
 40
1.0
 50
0.0
 51
89.5
  0
ARC
  8
0
 10
-458.837435
 20
435.415893
 30
0.0
 40
2.0
 50
180.0
 51
269.0
  0
ARC
  8
0
 10
-465.337435
 20
448.779087
 30
0.0
 40
2.0
 50
180.0
 51
269.0
  0
ARC
  8
0
 10
-465.337435
 20
461.848298
 30
0.0
 40
2.0
 50
91.0
 51
180.0
  0
ARC
  8
0
 10
-465.337435
 20
473.779087
 30
0.0
 40
2.0
 50
180.0
 51
269.0
  0
ARC
  8
0
 10
-465.337435
 20
486.848298
 30
0.0
 40
2.0
 50
91.0
 51
180.0
  0
ARC
  8
0
 10
-458.837435
 20
500.211493
 30
0.0
 40
2.0
 50
91.0
 51
180.0
  0
ARC
  8
0
 10
-461.837435
 20
470.717538
 30
0.0
 40
1.0
 50
0.0
 51
89.0
  0
ARC
  8
0
 10
-461.837435
 20
464.909848
 30
0.0
 40
1.0
 50
271.0
 51
0.0
  0
ARC
  8
0
 10
-461.837435
 20
489.909848
 30
0.0
 40
1.0
 50
271.0
 51
0.0
  0
ARC
  8
0
 10
-461.837435
 20
445.717538
 30
0.0
 40
1.0
 50
0.0
 51
89.0
  0
LINE
  8
0
 10
-421.337435
 20
403.929085
 30
0.0
 11
-421.337435
 21
403.969079
 31
0.0
  0
LINE
  8
0
 10
-421.337435
 20
403.969079
 30
0.0
 11
-421.337435
 21
407.05124
 31
0.0
  0
LINE
  8
0
 10
-421.337435
 20
407.05124
 30
0.0
 11
-421.337435
 21
412.928894
 31
0.0
  0
LINE
  8
0
 10
-421.337435
 20
412.928894
 30
0.0
 11
-421.337435
 21
418.446547
 31
0.0
  0
LINE
  8
0
 10
-421.337435
 20
418.446547
 30
0.0
 11
-421.337435
 21
423.630868
 31
0.0
  0
LINE
  8
0
 10
-421.337435
 20
423.630868
 30
0.0
 11
-421.337435
 21
428.508522
 31
0.0
  0
LINE
  8
0
 10
-421.337435
 20
428.508522
 30
0.0
 11
-421.337435
 21
433.106176
 31
0.0
  0
LINE
  8
0
 10
-421.337435
 20
433.106176
 30
0.0
 11
-421.337435
 21
437.450496
 31
0.0
  0
LINE
  8
0
 10
-421.337435
 20
437.450496
 30
0.0
 11
-421.337435
 21
441.56815
 31
0.0
  0
LINE
  8
0
 10
-421.337435
 20
441.56815
 30
0.0
 11
-421.337435
 21
445.485804
 31
0.0
  0
LINE
  8
0
 10
-421.337435
 20
445.485804
 30
0.0
 11
-421.337435
 21
449.230124
 31
0.0
  0
LINE
  8
0
 10
-421.337435
 20
449.230124
 30
0.0
 11
-421.337435
 21
452.827778
 31
0.0
  0
LINE
  8
0
 10
-421.337435
 20
452.827778
 30
0.0
 11
-421.337435
 21
456.305432
 31
0.0
  0
LINE
  8
0
 10
-421.337435
 20
456.305432
 30
0.0
 11
-421.337435
 21
459.689753
 31
0.0
  0
LINE
  8
0
 10
-421.337435
 20
459.689753
 30
0.0
 11
-421.337435
 21
463.007407
 31
0.0
  0
LINE
  8
0
 10
-421.337435
 20
463.007407
 30
0.0
 11
-421.337435
 21
466.28506
 31
0.0
  0
LINE
  8
0
 10
-421.337435
 20
466.28506
 30
0.0
 11
-421.337435
 21
469.549381
 31
0.0
  0
LINE
  8
0
 10
-421.337435
 20
469.549381
 30
0.0
 11
-421.337435
 21
472.827035
 31
0.0
  0
LINE
  8
0
 10
-421.337435
 20
472.827035
 30
0.0
 11
-421.337435
 21
476.144689
 31
0.0
  0
LINE
  8
0
 10
-421.337435
 20
476.144689
 30
0.0
 11
-421.337435
 21
479.529009
 31
0.0
  0
LINE
  8
0
 10
-421.337435
 20
479.529009
 30
0.0
 11
-421.337435
 21
483.006663
 31
0.0
  0
LINE
  8
0
 10
-421.337435
 20
483.006663
 30
0.0
 11
-421.337435
 21
486.604317
 31
0.0
  0
LINE
  8
0
 10
-421.337435
 20
486.604317
 30
0.0
 11
-421.337435
 21
490.348638
 31
0.0
  0
LINE
  8
0
 10
-421.337435
 20
490.348638
 30
0.0
 11
-421.337435
 21
494.266291
 31
0.0
  0
LINE
  8
0
 10
-421.337435
 20
494.266291
 30
0.0
 11
-421.337435
 21
498.383945
 31
0.0
  0
LINE
  8
0
 10
-421.337435
 20
498.383945
 30
0.0
 11
-421.337435
 21
502.728266
 31
0.0
  0
LINE
  8
0
 10
-421.337435
 20
502.728266
 30
0.0
 11
-421.337435
 21
507.32592
 31
0.0
  0
LINE
  8
0
 10
-421.337435
 20
507.32592
 30
0.0
 11
-421.337435
 21
512.203574
 31
0.0
  0
LINE
  8
0
 10
-421.337435
 20
512.203574
 30
0.0
 11
-421.337435
 21
517.387894
 31
0.0
  0
LINE
  8
0
 10
-421.337435
 20
517.387894
 30
0.0
 11
-421.337435
 21
522.905548
 31
0.0
  0
LINE
  8
0
 10
-421.337435
 20
522.905548
 30
0.0
 11
-421.337435
 21
528.783202
 31
0.0
  0
LINE
  8
0
 10
-421.337435
 20
528.783202
 30
0.0
 11
-421.337435
 21
531.865362
 31
0.0
  0
LINE
  8
0
 10
-421.337435
 20
531.865362
 30
0.0
 11
-421.337435
 21
531.905356
 31
0.0
  0
LINE
  8
0
 10
-433.86666
 20
524.078269
 30
0.0
 11
-436.637435
 21
524.078269
 31
0.0
  0
LINE
  8
0
 10
-433.637435
 20
525.378269
 30
0.0
 11
-436.537435
 21
525.378269
 31
0.0
  0
LINE
  8
0
 10
-430.524405
 20
524.245219
 30
0.0
 11
-433.637435
 21
525.378269
 31
0.0
  0
LINE
  8
0
 10
-431.995415
 20
523.397191
 30
0.0
 11
-433.86666
 21
524.078269
 31
0.0
  0
LINE
  8
0
 10
-436.537435
 20
522.178269
 30
0.0
 11
-434.787435
 21
522.178269
 31
0.0
  0
LINE
  8
0
 10
-436.837435
 20
523.878269
 30
0.0
 11
-436.837435
 21
523.678269
 31
0.0
  0
LINE
  8
0
 10
-434.787435
 20
523.478269
 30
0.0
 11
-436.637435
 21
523.478269
 31
0.0
  0
LINE
  8
0
 10
-429.537435
 20
412.920858
 30
0.0
 11
-429.537435
 21
467.978269
 31
0.0
  0
LINE
  8
0
 10
-431.337435
 20
413.299039
 30
0.0
 11
-431.337435
 21
467.978269
 31
0.0
  0
LINE
  8
0
 10
-429.537435
 20
467.978269
 30
0.0
 11
-429.537435
 21
522.83568
 31
0.0
  0
LINE
  8
0
 10
-431.337435
 20
467.978269
 30
0.0
 11
-431.337435
 21
522.457499
 31
0.0
  0
LINE
  8
0
 10
-436.637435
 20
411.678269
 30
0.0
 11
-433.86666
 21
411.678269
 31
0.0
  0
LINE
  8
0
 10
-436.537435
 20
410.378269
 30
0.0
 11
-433.637435
 21
410.378269
 31
0.0
  0
LINE
  8
0
 10
-433.637435
 20
410.378269
 30
0.0
 11
-430.524405
 21
411.511319
 31
0.0
  0
LINE
  8
0
 10
-433.86666
 20
411.678269
 30
0.0
 11
-431.995415
 21
412.359347
 31
0.0
  0
LINE
  8
0
 10
-434.787435
 20
413.578269
 30
0.0
 11
-436.537435
 21
413.578269
 31
0.0
  0
LINE
  8
0
 10
-436.837435
 20
412.078269
 30
0.0
 11
-436.837435
 21
411.878269
 31
0.0
  0
LINE
  8
0
 10
-436.637435
 20
412.278269
 30
0.0
 11
-434.787435
 21
412.278269
 31
0.0
  0
ARC
  8
0
 10
-432.337435
 20
522.457499
 30
0.0
 40
1.0
 50
0.0
 51
70.0
  0
ARC
  8
0
 10
-431.037435
 20
522.83568
 30
0.0
 40
1.5
 50
0.0
 51
70.0
  0
ARC
  8
0
 10
-434.787435
 20
522.828269
 30
0.0
 40
0.65
 50
270.0
 51
0.0
  0
ARC
  8
0
 10
-434.787435
 20
522.828269
 30
0.0
 40
0.65
 50
0.0
 51
90.0
  0
ARC
  8
0
 10
-436.637435
 20
523.878269
 30
0.0
 40
0.2
 50
90.0
 51
180.0
  0
ARC
  8
0
 10
-436.637435
 20
523.678269
 30
0.0
 40
0.2
 50
180.0
 51
270.0
  0
ARC
  8
0
 10
-432.337435
 20
413.299039
 30
0.0
 40
1.0
 50
290.0
 51
0.0
  0
ARC
  8
0
 10
-431.037435
 20
412.920858
 30
0.0
 40
1.5
 50
290.0
 51
0.0
  0
ARC
  8
0
 10
-434.787435
 20
412.928269
 30
0.0
 40
0.65
 50
0.0
 51
90.0
  0
ARC
  8
0
 10
-434.787435
 20
412.928269
 30
0.0
 40
0.65
 50
270.0
 51
0.0
  0
ARC
  8
0
 10
-436.637435
 20
411.878269
 30
0.0
 40
0.2
 50
180.0
 51
270.0
  0
ARC
  8
0
 10
-436.637435
 20
412.078269
 30
0.0
 40
0.2
 50
90.0
 51
180.0
  0
ARC
  8
0
 10
-436.537435
 20
411.978269
 30
0.0
 40
1.6
 50
180.0
 51
270.0
  0
ARC
  8
0
 10
-436.537435
 20
411.978269
 30
0.0
 40
1.6
 50
90.0
 51
180.0
  0
ARC
  8
0
 10
-436.537435
 20
523.778269
 30
0.0
 40
1.6
 50
180.0
 51
270.0
  0
ARC
  8
0
 10
-436.537435
 20
523.778269
 30
0.0
 40
1.6
 50
90.0
 51
180.0
  0
LINE
  8
0
 10
-427.995022
 20
402.83018
 30
0.0
 11
-425.0479
 21
402.881622
 31
0.0
  0
LINE
  8
0
 10
-425.0479
 20
402.881622
 30
0.0
 11
-422.319982
 21
402.929238
 31
0.0
  0
LINE
  8
0
 10
-421.344929
 20
403.81418
 30
0.0
 11
-421.347034
 21
403.799033
 31
0.0
  0
ARC
  8
0
 10
-422.246939
 20
403.93189
 30
0.0
 40
0.909659
 50
349.672152
 51
351.601829
  0
LINE
  8
0
 10
-421.352018
 20
403.768806
 30
0.0
 11
-421.354901
 21
403.753698
 31
0.0
  0
LINE
  8
0
 10
-421.354901
 20
403.753698
 30
0.0
 11
-421.358041
 21
403.738623
 31
0.0
  0
ARC
  8
0
 10
-422.266977
 20
403.935924
 30
0.0
 40
0.930103
 50
345.196898
 51
347.752871
  0
LINE
  8
0
 10
-421.367744
 20
403.698285
 30
0.0
 11
-421.373275
 21
403.678247
 31
0.0
  0
ARC
  8
0
 10
-422.288658
 20
403.941912
 30
0.0
 40
0.952599
 50
341.377634
 51
343.931545
  0
LINE
  8
0
 10
-421.385933
 20
403.63772
 30
0.0
 11
-421.392943
 21
403.617645
 31
0.0
  0
ARC
  8
0
 10
-422.31263
 20
403.950255
 30
0.0
 40
0.977984
 50
337.549986
 51
340.117188
  0
LINE
  8
0
 10
-421.408764
 20
403.576785
 30
0.0
 11
-421.417363
 21
403.556606
 31
0.0
  0
ARC
  8
0
 10
-422.337163
 20
403.960702
 30
0.0
 40
1.004652
 50
333.839872
 51
336.282642
  0
LINE
  8
0
 10
-421.435422
 20
403.51777
 30
0.0
 11
-421.445073
 21
403.49863
 31
0.0
  0
ARC
  8
0
 10
-422.359011
 20
403.971655
 30
0.0
 40
1.029094
 50
330.77031
 51
332.635361
  0
LINE
  8
0
 10
-421.460952
 20
403.469136
 30
0.0
 11
-421.470117
 21
403.45309
 31
0.0
  0
ARC
  8
0
 10
-422.377882
 20
403.982437
 30
0.0
 40
1.050831
 50
327.735361
 51
329.75212
  0
LINE
  8
0
 10
-421.489308
 20
403.421472
 30
0.0
 11
-421.500092
 21
403.404739
 31
0.0
  0
ARC
  8
0
 10
-422.397881
 20
403.995302
 30
0.0
 40
1.074611
 50
324.538033
 51
326.663187
  0
LINE
  8
0
 10
-421.522609
 20
403.371853
 30
0.0
 11
-421.531413
 21
403.359671
 31
0.0
  0
LINE
  8
0
 10
-421.531413
 20
403.359671
 30
0.0
 11
-421.54039
 21
403.347604
 31
0.0
  0
ARC
  8
0
 10
-422.418191
 20
404.010023
 30
0.0
 40
1.099697
 50
322.019955
 51
322.960517
  0
LINE
  8
0
 10
-421.551382
 20
403.333284
 30
0.0
 11
-421.560079
 21
403.322289
 31
0.0
  0
LINE
  8
0
 10
-421.560079
 20
403.322289
 30
0.0
 11
-421.568915
 21
403.311405
 31
0.0
  0
ARC
  8
0
 10
-422.429612
 20
404.019114
 30
0.0
 40
1.114294
 50
319.59761
 51
320.571174
  0
LINE
  8
0
 10
-421.581064
 20
403.296883
 30
0.0
 11
-421.586954
 21
403.290019
 31
0.0
  0
LINE
  8
0
 10
-421.586954
 20
403.290019
 30
0.0
 11
-421.592895
 21
403.28321
 31
0.0
  0
ARC
  8
0
 10
-421.580066
 20
403.302332
 30
0.0
 40
0.002755
 50
319.630207
 51
320.309275
  0
ARC
  8
0
 10
-421.579971
 20
403.302213
 30
0.0
 40
0.002606
 50
320.988282
 51
321.692101
  0
ARC
  8
0
 10
-421.579801
 20
403.302102
 30
0.0
 40
0.002403
 50
321.267656
 51
321.997373
  0
ARC
  8
0
 10
-421.579789
 20
403.302072
 30
0.0
 40
0.002376
 50
322.386557
 51
323.143775
  0
ARC
  8
0
 10
-421.579628
 20
403.30197
 30
0.0
 40
0.002186
 50
322.73694
 51
323.523264
  0
ARC
  8
0
 10
-421.579474
 20
403.301874
 30
0.0
 40
0.002005
 50
323.122134
 51
323.939397
  0
ARC
  8
0
 10
-421.579463
 20
403.301852
 30
0.0
 40
0.001983
 50
324.263883
 51
325.11369
  0
LINE
  8
0
 10
-421.577836
 20
403.300718
 30
0.0
 11
-421.577828
 21
403.30073
 31
0.0
  0
LINE
  8
0
 10
-421.767497
 20
403.277069
 30
0.0
 11
-421.76857
 21
403.277573
 31
0.0
  0
ARC
  8
0
 10
-422.420369
 20
404.010508
 30
0.0
 40
1.101662
 50
315.50279
 51
316.4775
  0
ARC
  8
0
 10
-422.419899
 20
404.010164
 30
0.0
 40
1.101084
 50
316.473641
 51
317.448809
  0
ARC
  8
0
 10
-422.419092
 20
404.009352
 30
0.0
 40
1.09994
 50
317.451562
 51
318.427647
  0
LINE
  8
0
 10
-421.596206
 20
403.27947
 30
0.0
 11
-421.592761
 21
403.283371
 31
0.0
  0
ARC
  8
0
 10
-422.187379
 20
403.808284
 30
0.0
 40
0.79316
 50
318.562755
 51
319.540215
  0
LINE
  8
0
 10
-421.583893
 20
403.293591
 30
0.0
 11
-421.577828
 21
403.30073
 31
0.0
  0
ARC
  8
0
 10
-422.390752
 20
403.96973
 30
0.0
 40
1.051165
 50
300.317509
 51
301.83147
  0
LINE
  8
0
 10
-421.860133
 20
403.062322
 30
0.0
 11
-421.872174
 21
403.055389
 31
0.0
  0
ARC
  8
0
 10
-422.38311
 20
403.956457
 30
0.0
 40
1.035847
 50
298.046664
 51
299.554667
  0
LINE
  8
0
 10
-421.896064
 20
403.042255
 30
0.0
 11
-421.908144
 21
403.035923
 31
0.0
  0
ARC
  8
0
 10
-422.375554
 20
403.942027
 30
0.0
 40
1.019557
 50
295.783979
 51
297.286711
  0
LINE
  8
0
 10
-421.932067
 20
403.023977
 30
0.0
 11
-421.944152
 21
403.018238
 31
0.0
  0
ARC
  8
0
 10
-422.36837
 20
403.926902
 30
0.0
 40
1.002811
 50
293.528678
 51
295.02591
  0
LINE
  8
0
 10
-421.968039
 20
403.007464
 30
0.0
 11
-421.980095
 21
403.002309
 31
0.0
  0
ARC
  8
0
 10
-422.361666
 20
403.911193
 30
0.0
 40
0.985732
 50
291.282768
 51
292.773812
  0
LINE
  8
0
 10
-422.003874
 20
402.992688
 30
0.0
 11
-422.015866
 21
402.988108
 31
0.0
  0
ARC
  8
0
 10
-422.355412
 20
403.894786
 30
0.0
 40
0.968172
 50
288.832637
 51
290.530624
  0
LINE
  8
0
 10
-422.042881
 20
402.978445
 30
0.0
 11
-422.056508
 21
402.973911
 31
0.0
  0
ARC
  8
0
 10
-422.349563
 20
403.877163
 30
0.0
 40
0.949603
 50
286.287658
 51
287.975332
  0
LINE
  8
0
 10
-422.083237
 20
402.965672
 30
0.0
 11
-422.096706
 21
402.961845
 31
0.0
  0
ARC
  8
0
 10
-422.344782
 20
403.860202
 30
0.0
 40
0.93198
 50
283.772875
 51
285.437174
  0
LINE
  8
0
 10
-422.122902
 20
402.955019
 30
0.0
 11
-422.136091
 21
402.951889
 31
0.0
  0
ARC
  8
0
 10
-422.341064
 20
403.844662
 30
0.0
 40
0.916001
 50
281.297351
 51
282.930482
  0
LINE
  8
0
 10
-422.161618
 20
402.94641
 30
0.0
 11
-422.174458
 21
402.94394
 31
0.0
  0
ARC
  8
0
 10
-422.338407
 20
403.830798
 30
0.0
 40
0.901885
 50
278.880682
 51
280.473708
  0
LINE
  8
0
 10
-422.199176
 20
402.939725
 30
0.0
 11
-422.211599
 21
402.937872
 31
0.0
  0
ARC
  8
0
 10
-422.33669
 20
403.81918
 30
0.0
 40
0.890142
 50
277.005437
 51
278.078464
  0
ARC
  8
0
 10
-422.336042
 20
403.813834
 30
0.0
 40
0.884756
 50
275.925409
 51
277.006
  0
ARC
  8
0
 10
-422.335474
 20
403.808634
 30
0.0
 40
0.879525
 50
274.835441
 51
275.923594
  0
ARC
  8
0
 10
-422.335154
 20
403.803925
 30
0.0
 40
0.874807
 50
273.745082
 51
274.840569
  0
ARC
  8
0
 10
-422.334806
 20
403.799551
 30
0.0
 40
0.870419
 50
272.638401
 51
273.740993
  0
ARC
  8
0
 10
-422.334667
 20
403.795332
 30
0.0
 40
0.866198
 50
271.532371
 51
272.642067
  0
LINE
  8
0
 10
-422.311503
 20
402.929444
 30
0.0
 11
-422.319901
 21
402.929261
 31
0.0
  0
ARC
  8
0
 10
-421.836507
 20
403.0769
 30
0.0
 40
0.000293
 50
318.496201
 51
320.30121
  0
ARC
  8
0
 10
-421.836509
 20
403.076889
 30
0.0
 40
0.000287
 50
318.477065
 51
320.320345
  0
ARC
  8
0
 10
-421.83648
 20
403.076879
 30
0.0
 40
0.000259
 50
314.060599
 51
315.939401
  0
ARC
  8
0
 10
-421.836483
 20
403.07687
 30
0.0
 40
0.000254
 50
314.044443
 51
315.955557
  0
ARC
  8
0
 10
-421.836487
 20
403.07689
 30
0.0
 40
0.000272
 50
309.631415
 51
311.571174
  0
ARC
  8
0
 10
-421.836462
 20
403.076853
 30
0.0
 40
0.000228
 50
308.823431
 51
310.787711
  0
ARC
  8
0
 10
-421.836496
 20
403.076875
 30
0.0
 40
0.000266
 50
309.608957
 51
311.593633
  0
ARC
  8
0
 10
-421.836473
 20
403.076868
 30
0.0
 40
0.000246
 50
304.537548
 51
306.537808
  0
ARC
  8
0
 10
-421.83648
 20
403.07689
 30
0.0
 40
0.000269
 50
300.999868
 51
303.010898
  0
LINE
  8
0
 10
-421.836341
 20
403.07666
 30
0.0
 11
-421.836344
 21
403.076658
 31
0.0
  0
LINE
  8
0
 10
-422.319972
 20
402.929238
 30
0.0
 11
-422.319982
 21
402.929238
 31
0.0
  0
ARC
  8
0
 10
-422.317276
 20
403.856616
 30
0.0
 40
0.916299
 50
301.663552
 51
304.044679
  0
ARC
  8
0
 10
-422.40281
 20
403.98864
 30
0.0
 40
1.073584
 50
303.882527
 51
306.238676
  0
ARC
  8
0
 10
-422.409137
 20
403.997293
 30
0.0
 40
1.084303
 50
306.238059
 51
308.572896
  0
ARC
  8
0
 10
-422.414345
 20
404.003856
 30
0.0
 40
1.092682
 50
308.57179
 51
310.890357
  0
ARC
  8
0
 10
-422.418037
 20
404.0081
 30
0.0
 40
1.098307
 50
310.89108
 51
313.198876
  0
ARC
  8
0
 10
-422.419972
 20
404.010216
 30
0.0
 40
1.101174
 50
313.196876
 51
315.499172
  0
ARC
  8
0
 10
-421.595833
 20
403.285802
 30
0.0
 40
0.003918
 50
318.580881
 51
319.047268
  0
ARC
  8
0
 10
-421.595726
 20
403.28563
 30
0.0
 40
0.003725
 50
319.954131
 51
320.434727
  0
ARC
  8
0
 10
-421.595504
 20
403.285582
 30
0.0
 40
0.003524
 50
318.743167
 51
319.23866
  0
ARC
  8
0
 10
-421.595401
 20
403.28542
 30
0.0
 40
0.003342
 50
320.184564
 51
320.6961
  0
ARC
  8
0
 10
-421.595299
 20
403.285375
 30
0.0
 40
0.003234
 50
320.176084
 51
320.70458
  0
ARC
  8
0
 10
-421.595094
 20
403.285225
 30
0.0
 40
0.002981
 50
320.437407
 51
320.983779
  0
ARC
  8
0
 10
-421.594998
 20
403.285082
 30
0.0
 40
0.002816
 50
322.022948
 51
322.588571
  0
ARC
  8
0
 10
-422.335943
 20
403.816419
 30
0.0
 40
0.887325
 50
271.0313
 51
273.837736
  0
ARC
  8
0
 10
-422.319979
 20
402.929387
 30
0.0
 40
0.00015
 50
268.851716
 51
271.148284
  0
ARC
  8
0
 10
-422.319998
 20
402.929388
 30
0.0
 40
0.000152
 50
278.317476
 51
280.607168
  0
ARC
  8
0
 10
-422.319967
 20
402.929415
 30
0.0
 40
0.000176
 50
268.862258
 51
271.137742
  0
ARC
  8
0
 10
-422.319986
 20
402.929392
 30
0.0
 40
0.000155
 50
278.335121
 51
280.589523
  0
ARC
  8
0
 10
-422.320006
 20
402.929395
 30
0.0
 40
0.000163
 50
287.321612
 51
289.548285
  0
ARC
  8
0
 10
-422.319974
 20
402.929425
 30
0.0
 40
0.000185
 50
277.033609
 51
279.226595
  0
ARC
  8
0
 10
-422.319995
 20
402.929403
 30
0.0
 40
0.000168
 50
287.358049
 51
289.511849
  0
ARC
  8
0
 10
-422.31999
 20
402.929409
 30
0.0
 40
0.000172
 50
287.380163
 51
289.489734
  0
ARC
  8
0
 10
-422.319985
 20
402.929414
 30
0.0
 40
0.000176
 50
287.40434
 51
289.465558
  0
ARC
  8
0
 10
-422.320008
 20
402.92945
 30
0.0
 40
0.000217
 50
292.193877
 51
294.203303
  0
ARC
  8
0
 10
-422.319975
 20
402.929429
 30
0.0
 40
0.000185
 50
287.457507
 51
289.412392
  0
ARC
  8
0
 10
-422.320001
 20
402.929436
 30
0.0
 40
0.000203
 50
295.616025
 51
297.514076
  0
ARC
  8
0
 10
-422.320029
 20
402.929446
 30
0.0
 40
0.000225
 50
302.770261
 51
304.609875
  0
ARC
  8
0
 10
-422.204382
 20
403.928168
 30
0.0
 40
0.866912
 50
359.057619
 51
359.955783
  0
ARC
  8
0
 10
-422.207132
 20
403.928275
 30
0.0
 40
0.869663
 50
358.159506
 51
359.053545
  0
LINE
  8
0
 10
-421.337917
 20
403.900344
 30
0.0
 11
-421.338117
 21
403.894687
 31
0.0
  0
ARC
  8
0
 10
-422.221945
 20
403.92902
 30
0.0
 40
0.884495
 50
354.02514
 51
355.496475
  0
LINE
  8
0
 10
-421.342255
 20
403.836951
 30
0.0
 11
-421.343519
 21
403.825561
 31
0.0
  0
LINE
  8
0
 10
-421.343519
 20
403.825561
 30
0.0
 11
-421.344929
 21
403.81418
 31
0.0
  0
LINE
  8
0
 10
-421.340162
 20
403.859806
 30
0.0
 11
-421.340181
 21
403.859569
 31
0.0
  0
ARC
  8
0
 10
-421.846205
 20
403.912652
 30
0.0
 40
0.508405
 50
357.085706
 51
357.974932
  0
ARC
  8
0
 10
-422.213398
 20
403.928519
 30
0.0
 40
0.875935
 50
356.385019
 51
357.270349
  0
ARC
  8
0
 10
-422.216851
 20
403.928738
 30
0.0
 40
0.879394
 50
355.504208
 51
356.384955
  0
ARC
  8
0
 10
-421.374273
 20
403.929178
 30
0.0
 40
0.036841
 50
357.388151
 51
358.007632
  0
ARC
  8
0
 10
-421.373951
 20
403.929107
 30
0.0
 40
0.036517
 50
358.101292
 51
358.724439
  0
ARC
  8
0
 10
-421.373651
 20
403.92904
 30
0.0
 40
0.036215
 50
358.818656
 51
359.445241
  0
ARC
  8
0
 10
-421.373358
 20
403.929069
 30
0.0
 40
0.035923
 50
359.394886
 51
0.024909
  0
LINE
  8
0
 10
-422.319982
 20
532.905204
 30
0.0
 11
-425.0479
 21
532.95282
 31
0.0
  0
LINE
  8
0
 10
-425.0479
 20
532.95282
 30
0.0
 11
-427.995022
 21
533.004262
 31
0.0
  0
ARC
  8
0
 10
-422.422565
 20
531.821567
 30
0.0
 40
1.104877
 50
37.984461
 51
40.143989
  0
LINE
  8
0
 10
-421.551725
 20
532.501561
 30
0.0
 11
-421.539048
 21
532.485004
 31
0.0
  0
ARC
  8
0
 10
-422.410486
 20
531.830744
 30
0.0
 40
1.089706
 50
34.689528
 51
36.898556
  0
LINE
  8
0
 10
-421.514477
 20
532.450928
 30
0.0
 11
-421.502684
 21
532.433529
 31
0.0
  0
ARC
  8
0
 10
-422.390149
 20
531.844495
 30
0.0
 40
1.065154
 50
31.332396
 51
33.573277
  0
LINE
  8
0
 10
-421.480331
 20
532.398378
 30
0.0
 11
-421.46968
 21
532.380484
 31
0.0
  0
ARC
  8
0
 10
-422.366618
 20
531.858508
 30
0.0
 40
1.037765
 50
27.89235
 51
30.197396
  0
LINE
  8
0
 10
-421.449412
 20
532.343987
 30
0.0
 11
-421.439843
 21
532.325451
 31
0.0
  0
ARC
  8
0
 10
-422.342275
 20
531.871097
 30
0.0
 40
1.010357
 50
24.367379
 51
26.724215
  0
LINE
  8
0
 10
-421.421922
 20
532.287956
 30
0.0
 11
-421.413556
 21
532.268957
 31
0.0
  0
ARC
  8
0
 10
-422.318243
 20
531.881718
 30
0.0
 40
0.984079
 50
20.762208
 51
23.172667
  0
LINE
  8
0
 10
-421.39807
 20
532.230565
 30
0.0
 11
-421.39095
 21
532.211157
 31
0.0
  0
ARC
  8
0
 10
-422.294849
 20
531.890366
 30
0.0
 40
0.959135
 50
17.075516
 51
19.539598
  0
LINE
  8
0
 10
-421.377994
 20
532.171999
 30
0.0
 11
-421.372163
 21
532.152252
 31
0.0
  0
ARC
  8
0
 10
-422.273043
 20
531.896883
 30
0.0
 40
0.936375
 50
13.344987
 51
15.826256
  0
LINE
  8
0
 10
-421.361952
 20
532.113011
 30
0.0
 11
-421.357499
 21
532.093276
 31
0.0
  0
ARC
  8
0
 10
-422.25525
 20
531.900982
 30
0.0
 40
0.918114
 50
10.218979
 51
12.089759
  0
LINE
  8
0
 10
-421.3517
 20
532.063866
 30
0.0
 11
-421.349169
 21
532.049131
 31
0.0
  0
ARC
  8
0
 10
-422.263967
 20
531.900064
 30
0.0
 40
0.926863
 50
7.451156
 51
9.255019
  0
ARC
  8
0
 10
-422.337921
 20
532.006697
 30
0.0
 40
0.898793
 50
80.320218
 51
81.920578
  0
LINE
  8
0
 10
-422.186796
 20
532.892694
 30
0.0
 11
-422.174458
 21
532.890501
 31
0.0
  0
ARC
  8
0
 10
-422.34028
 20
531.993709
 30
0.0
 40
0.911994
 50
77.881931
 51
79.524
  0
LINE
  8
0
 10
-422.148828
 20
532.885381
 30
0.0
 11
-422.136091
 21
532.882552
 31
0.0
  0
ARC
  8
0
 10
-422.343626
 20
531.978691
 30
0.0
 40
0.927381
 50
75.394384
 51
77.068537
  0
LINE
  8
0
 10
-422.109773
 20
532.876103
 30
0.0
 11
-422.096706
 21
532.872597
 31
0.0
  0
ARC
  8
0
 10
-422.348066
 20
531.962332
 30
0.0
 40
0.944332
 50
72.864619
 51
74.563064
  0
LINE
  8
0
 10
-422.069837
 20
532.864747
 30
0.0
 11
-422.056508
 21
532.860531
 31
0.0
  0
ARC
  8
0
 10
-422.353585
 20
531.944891
 30
0.0
 40
0.962627
 50
70.315516
 51
72.024503
  0
LINE
  8
0
 10
-422.029333
 20
532.851264
 30
0.0
 11
-422.015866
 21
532.846334
 31
0.0
  0
ARC
  8
0
 10
-422.359808
 20
531.927914
 30
0.0
 40
0.980709
 50
67.969911
 51
69.469435
  0
LINE
  8
0
 10
-421.99195
 20
532.837019
 30
0.0
 11
-421.980095
 21
532.832132
 31
0.0
  0
ARC
  8
0
 10
-422.366233
 20
531.912289
 30
0.0
 40
0.997603
 50
65.722261
 51
67.227973
  0
LINE
  8
0
 10
-421.956058
 20
532.821668
 30
0.0
 11
-421.944152
 21
532.816204
 31
0.0
  0
ARC
  8
0
 10
-422.373277
 20
531.897033
 30
0.0
 40
1.014408
 50
63.46301
 51
64.973992
  0
LINE
  8
0
 10
-421.920064
 20
532.804569
 30
0.0
 11
-421.908144
 21
532.798519
 31
0.0
  0
ARC
  8
0
 10
-422.380669
 20
531.882473
 30
0.0
 40
1.030738
 50
61.197925
 51
62.713949
  0
LINE
  8
0
 10
-421.884074
 20
532.785697
 30
0.0
 11
-421.872174
 21
532.779053
 31
0.0
  0
ARC
  8
0
 10
-422.38833
 20
531.868796
 30
0.0
 40
1.046415
 50
58.923538
 51
60.444833
  0
LINE
  8
0
 10
-421.84819
 20
532.765029
 30
0.0
 11
-421.836344
 21
532.757784
 31
0.0
  0
LINE
  8
0
 10
-422.319901
 20
532.905181
 30
0.0
 11
-422.319982
 21
532.905204
 31
0.0
  0
ARC
  8
0
 10
-421.836483
 20
532.757582
 30
0.0
 40
0.000245
 50
53.454743
 51
55.469898
  0
ARC
  8
0
 10
-421.836476
 20
532.757576
 30
0.0
 40
0.000245
 50
53.458296
 51
55.466347
  0
ARC
  8
0
 10
-421.83647
 20
532.75757
 30
0.0
 40
0.000247
 50
53.464255
 51
55.460389
  0
ARC
  8
0
 10
-421.836493
 20
532.757563
 30
0.0
 40
0.000267
 50
48.409117
 51
50.388293
  0
ARC
  8
0
 10
-421.836488
 20
532.757555
 30
0.0
 40
0.00027
 50
48.419774
 51
50.377637
  0
ARC
  8
0
 10
-421.836484
 20
532.757576
 30
0.0
 40
0.000252
 50
44.0339
 51
45.966097
  0
ARC
  8
0
 10
-421.836481
 20
532.757567
 30
0.0
 40
0.000256
 50
44.048685
 51
45.95132
  0
ARC
  8
0
 10
-421.836478
 20
532.757558
 30
0.0
 40
0.00026
 50
44.065297
 51
45.934703
  0
ARC
  8
0
 10
-421.836507
 20
532.757548
 30
0.0
 40
0.000288
 50
39.684695
 51
41.517892
  0
LINE
  8
0
 10
-421.836285
 20
532.757732
 30
0.0
 11
-421.836282
 21
532.757729
 31
0.0
  0
LINE
  8
0
 10
-421.63457
 20
532.596059
 30
0.0
 11
-421.634592
 21
532.596081
 31
0.0
  0
ARC
  8
0
 10
-422.419424
 20
531.824835
 30
0.0
 40
1.100354
 50
44.499767
 51
46.087522
  0
ARC
  8
0
 10
-422.419204
 20
531.825014
 30
0.0
 40
1.100073
 50
46.089282
 51
47.678871
  0
ARC
  8
0
 10
-422.417485
 20
531.826971
 30
0.0
 40
1.097468
 50
47.676455
 51
49.269482
  0
ARC
  8
0
 10
-422.41483
 20
531.830012
 30
0.0
 40
1.093432
 50
49.270933
 51
50.86923
  0
ARC
  8
0
 10
-422.411502
 20
531.834123
 30
0.0
 40
1.088143
 50
50.868553
 51
52.473954
  0
ARC
  8
0
 10
-422.407577
 20
531.839225
 30
0.0
 40
1.081706
 50
52.47422
 51
54.08833
  0
ARC
  8
0
 10
-422.403136
 20
531.845313
 30
0.0
 40
1.074171
 50
54.089725
 51
55.714148
  0
ARC
  8
0
 10
-422.398253
 20
531.852528
 30
0.0
 40
1.065458
 50
55.712529
 51
57.349098
  0
LINE
  8
0
 10
-421.823418
 20
532.749616
 30
0.0
 11
-421.836282
 21
532.757729
 31
0.0
  0
ARC
  8
0
 10
-421.579341
 20
532.532677
 30
0.0
 40
0.001833
 50
34.386522
 51
35.262456
  0
ARC
  8
0
 10
-421.579486
 20
532.53259
 30
0.0
 40
0.002001
 50
34.890206
 51
35.732221
  0
ARC
  8
0
 10
-421.579569
 20
532.532497
 30
0.0
 40
0.002123
 50
36.465047
 51
37.274748
  0
ARC
  8
0
 10
-421.579652
 20
532.532472
 30
0.0
 40
0.002205
 50
36.480173
 51
37.259622
  0
ARC
  8
0
 10
-421.579738
 20
532.532369
 30
0.0
 40
0.002336
 50
37.992085
 51
38.742886
  0
ARC
  8
0
 10
-421.579906
 20
532.532259
 30
0.0
 40
0.002535
 50
38.298044
 51
39.021573
  0
ARC
  8
0
 10
-421.579999
 20
532.532226
 30
0.0
 40
0.002629
 50
38.310878
 51
39.008738
  0
LINE
  8
0
 10
-421.577956
 20
532.533881
 30
0.0
 11
-421.577967
 21
532.533893
 31
0.0
  0
ARC
  8
0
 10
-422.187379
 20
532.026157
 30
0.0
 40
0.79316
 50
40.459785
 51
41.437245
  0
LINE
  8
0
 10
-421.583893
 20
532.54085
 30
0.0
 11
-421.577828
 21
532.533712
 31
0.0
  0
ARC
  8
0
 10
-422.334643
 20
532.040075
 30
0.0
 40
0.865231
 50
87.911796
 51
89.023784
  0
ARC
  8
0
 10
-422.334707
 20
532.036442
 30
0.0
 40
0.868864
 50
86.81093
 51
87.916272
  0
ARC
  8
0
 10
-422.461224
 20
529.981637
 30
0.0
 40
2.92755
 50
86.383363
 51
86.575877
  0
ARC
  8
0
 10
-422.329349
 20
532.106211
 30
0.0
 40
0.798892
 50
85.116204
 51
86.210774
  0
ARC
  8
0
 10
-422.335579
 20
532.025253
 30
0.0
 40
0.880086
 50
84.073334
 51
85.1608
  0
ARC
  8
0
 10
-422.336084
 20
532.020233
 30
0.0
 40
0.885132
 50
82.994229
 51
84.074361
  0
ARC
  8
0
 10
-422.33674
 20
532.014883
 30
0.0
 40
0.890522
 50
81.921765
 51
82.994334
  0
ARC
  8
0
 10
-421.594975
 20
532.549377
 30
0.0
 40
0.002787
 50
37.40845
 51
37.980031
  0
ARC
  8
0
 10
-421.595173
 20
532.549236
 30
0.0
 40
0.00303
 50
37.770877
 51
38.323208
  0
ARC
  8
0
 10
-421.595274
 20
532.549088
 30
0.0
 40
0.003201
 50
39.29267
 51
39.826666
  0
ARC
  8
0
 10
-421.595375
 20
532.549043
 30
0.0
 40
0.003307
 50
39.301265
 51
39.818072
  0
ARC
  8
0
 10
-421.595477
 20
532.548883
 30
0.0
 40
0.003489
 50
40.758819
 51
41.259354
  0
ARC
  8
0
 10
-421.595699
 20
532.548834
 30
0.0
 40
0.003689
 50
39.562981
 51
40.048161
  0
ARC
  8
0
 10
-421.595806
 20
532.548664
 30
0.0
 40
0.003882
 50
40.950554
 51
41.421296
  0
ARC
  8
0
 10
-422.418827
 20
531.825287
 30
0.0
 40
1.099612
 50
41.302605
 51
42.10268
  0
ARC
  8
0
 10
-422.419579
 20
531.824582
 30
0.0
 40
1.100642
 50
42.103648
 51
42.903035
  0
ARC
  8
0
 10
-422.420099
 20
531.824145
 30
0.0
 40
1.101321
 50
42.90127
 51
43.700199
  0
ARC
  8
0
 10
-422.420322
 20
531.823911
 30
0.0
 40
1.101643
 50
43.700984
 51
44.499684
  0
LINE
  8
0
 10
-421.34493
 20
532.020261
 30
0.0
 11
-421.344844
 21
532.019602
 31
0.0
  0
ARC
  8
0
 10
-422.236478
 20
531.903999
 30
0.0
 40
0.899096
 50
5.957464
 51
7.387319
  0
LINE
  8
0
 10
-421.342237
 20
531.997317
 30
0.0
 11
-421.341138
 21
531.986098
 31
0.0
  0
LINE
  8
0
 10
-421.341138
 20
531.986098
 30
0.0
 11
-421.340181
 21
531.974872
 31
0.0
  0
LINE
  8
0
 10
-421.340181
 20
531.974872
 30
0.0
 11
-421.340162
 21
531.974636
 31
0.0
  0
ARC
  8
0
 10
-421.37341
 20
531.905372
 30
0.0
 40
0.035975
 50
359.974015
 51
0.604725
  0
ARC
  8
0
 10
-421.373611
 20
531.905402
 30
0.0
 40
0.036175
 50
0.554415
 51
1.181688
  0
ARC
  8
0
 10
-421.373911
 20
531.905336
 30
0.0
 40
0.036476
 50
1.275217
 51
1.899052
  0
ARC
  8
0
 10
-421.374219
 20
531.905266
 30
0.0
 40
0.036787
 50
1.99191
 51
2.612307
  0
ARC
  8
0
 10
-422.048957
 20
531.908454
 30
0.0
 40
0.711528
 50
359.750501
 51
2.512024
  0
ARC
  8
0
 10
-422.200976
 20
531.906833
 30
0.0
 40
0.86348
 50
3.619215
 51
4.503628
  0
ARC
  8
0
 10
-422.212829
 20
531.905966
 30
0.0
 40
0.875364
 50
2.737906
 51
3.626903
  0
ARC
  8
0
 10
-422.209587
 20
531.906097
 30
0.0
 40
0.87212
 50
1.846124
 51
2.739475
  0
ARC
  8
0
 10
-422.206582
 20
531.906197
 30
0.0
 40
0.869113
 50
0.948226
 51
1.845931
  0
ARC
  8
0
 10
-422.203687
 20
531.906266
 30
0.0
 40
0.866217
 50
0.044734
 51
0.946794
  0
LINE
  8
0
 10
-431.337435
 20
432.935574
 30
0.0
 11
-458.87234
 21
433.416197
 31
0.0
  0
LINE
  8
0
 10
-489.537435
 20
530.878269
 30
0.0
 11
-489.537435
 21
552.878269
 31
0.0
  0
LINE
  8
0
 10
-489.537435
 20
404.878269
 30
0.0
 11
-489.537435
 21
382.878269
 31
0.0
  0
LINE
  8
0
 10
-509.537435
 20
551.122736
 30
0.0
 11
-507.781902
 21
552.878269
 31
0.0
  0
LINE
  8
0
 10
-509.537435
 20
544.051669
 30
0.0
 11
-500.710835
 21
552.878269
 31
0.0
  0
LINE
  8
0
 10
-509.537435
 20
536.980601
 30
0.0
 11
-493.639767
 21
552.878269
 31
0.0
  0
LINE
  8
0
 10
-509.537435
 20
529.909533
 30
0.0
 11
-489.537435
 21
549.909533
 31
0.0
  0
LINE
  8
0
 10
-509.537435
 20
522.838465
 30
0.0
 11
-489.537435
 21
542.838465
 31
0.0
  0
LINE
  8
0
 10
-509.537435
 20
515.767397
 30
0.0
 11
-489.537435
 21
535.767397
 31
0.0
  0
LINE
  8
0
 10
-509.537435
 20
508.69633
 30
0.0
 11
-489.537435
 21
528.69633
 31
0.0
  0
LINE
  8
0
 10
-509.537435
 20
501.625262
 30
0.0
 11
-489.537435
 21
521.625262
 31
0.0
  0
LINE
  8
0
 10
-509.537435
 20
494.554194
 30
0.0
 11
-489.537435
 21
514.554194
 31
0.0
  0
LINE
  8
0
 10
-509.537435
 20
487.483126
 30
0.0
 11
-489.537435
 21
507.483126
 31
0.0
  0
LINE
  8
0
 10
-509.537435
 20
480.412058
 30
0.0
 11
-489.537435
 21
500.412058
 31
0.0
  0
LINE
  8
0
 10
-509.537435
 20
473.340991
 30
0.0
 11
-489.537435
 21
493.340991
 31
0.0
  0
LINE
  8
0
 10
-509.537435
 20
466.269923
 30
0.0
 11
-489.537435
 21
486.269923
 31
0.0
  0
LINE
  8
0
 10
-509.537435
 20
459.198855
 30
0.0
 11
-489.537435
 21
479.198855
 31
0.0
  0
LINE
  8
0
 10
-509.537435
 20
452.127787
 30
0.0
 11
-489.537435
 21
472.127787
 31
0.0
  0
LINE
  8
0
 10
-509.537435
 20
445.056719
 30
0.0
 11
-489.537435
 21
465.056719
 31
0.0
  0
LINE
  8
0
 10
-509.537435
 20
437.985651
 30
0.0
 11
-489.537435
 21
457.985651
 31
0.0
  0
LINE
  8
0
 10
-509.537435
 20
430.914584
 30
0.0
 11
-489.537435
 21
450.914584
 31
0.0
  0
LINE
  8
0
 10
-509.537435
 20
423.843516
 30
0.0
 11
-489.537435
 21
443.843516
 31
0.0
  0
LINE
  8
0
 10
-509.537435
 20
416.772448
 30
0.0
 11
-489.537435
 21
436.772448
 31
0.0
  0
LINE
  8
0
 10
-509.537435
 20
409.70138
 30
0.0
 11
-489.537435
 21
429.70138
 31
0.0
  0
LINE
  8
0
 10
-509.537435
 20
402.630312
 30
0.0
 11
-489.537435
 21
422.630312
 31
0.0
  0
LINE
  8
0
 10
-509.537435
 20
395.559245
 30
0.0
 11
-489.537435
 21
415.559245
 31
0.0
  0
LINE
  8
0
 10
-509.537435
 20
388.488177
 30
0.0
 11
-489.537435
 21
408.488177
 31
0.0
  0
LINE
  8
0
 10
-508.076275
 20
382.878269
 30
0.0
 11
-489.537435
 21
401.417109
 31
0.0
  0
LINE
  8
0
 10
-501.005207
 20
382.878269
 30
0.0
 11
-489.537435
 21
394.346041
 31
0.0
  0
LINE
  8
0
 10
-493.934139
 20
382.878269
 30
0.0
 11
-489.537435
 21
387.274973
 31
0.0
  0
ENDSEC
  0
EOF
