  0
SECTION
  2
HEADER
  9
$ACADVER
  1
AC1009
  9
$INSBASE
 10
0.0
 20
0.0
 30
0.0
  9
$EXTMIN
 10
-509.537435
 20
382.878269
 30
0.0
  9
$EXTMAX
 10
-418.427902
 20
552.878269
 30
0.0
  9
$LIMMIN
 10
-509.537435
 20
382.878269
  9
$LIMMAX
 10
-421.337429
 20
552.878269
  9
$ORTHOMODE
 70
     0
  9
$REGENMODE
 70
     1
  9
$FILLMODE
 70
     1
  9
$QTEXTMODE
 70
     0
  9
$MIRRTEXT
 70
     1
  9
$DRAGMODE
 70
     2
  9
$LTSCALE
 40
1.0
  9
$OSMODE
 70
     0
  9
$ATTMODE
 70
     1
  9
$TEXTSIZE
 40
3.5
  9
$TRACEWID
 40
0.5
  9
$TEXTSTYLE
  7
STANDARD
  9
$CLAYER
  8
0
  9
$CELTYPE
  6
BYLAYER
  9
$CECOLOR
 62
   256
  9
$DIMSCALE
 40
1.0
  9
$DIMASZ
 40
0.18
  9
$DIMEXO
 40
0.0625
  9
$DIMDLI
 40
0.38
  9
$DIMRND
 40
0.0
  9
$DIMDLE
 40
0.0
  9
$DIMEXE
 40
0.18
  9
$DIMTP
 40
0.0
  9
$DIMTM
 40
0.0
  9
$DIMTXT
 40
0.18
  9
$DIMCEN
 40
0.09
  9
$DIMTSZ
 40
0.0
  9
$DIMTOL
 70
     0
  9
$DIMLIM
 70
     0
  9
$DIMTIH
 70
     1
  9
$DIMTOH
 70
     1
  9
$DIMSE1
 70
     0
  9
$DIMSE2
 70
     0
  9
$DIMTAD
 70
     0
  9
$DIMZIN
 70
     0
  9
$DIMBLK
  1

  9
$DIMASO
 70
     1
  9
$DIMSHO
 70
     1
  9
$DIMPOST
  1

  9
$DIMAPOST
  1

  9
$DIMALT
 70
     0
  9
$DIMALTD
 70
     2
  9
$DIMALTF
 40
25.4
  9
$DIMLFAC
 40
1.0
  9
$DIMTOFL
 70
     0
  9
$DIMTVP
 40
0.0
  9
$DIMTIX
 70
     0
  9
$DIMSOXD
 70
     0
  9
$DIMSAH
 70
     0
  9
$DIMBLK1
  1

  9
$DIMBLK2
  1

  9
$DIMSTYLE
  2
*UNNAMED
  9
$DIMCLRD
 70
     0
  9
$DIMCLRE
 70
     0
  9
$DIMCLRT
 70
     0
  9
$DIMTFAC
 40
1.0
  9
$DIMGAP
 40
0.09
  9
$LUNITS
 70
     2
  9
$LUPREC
 70
     4
  9
$SKETCHINC
 40
0.1
  9
$FILLETRAD
 40
2.0
  9
$AUNITS
 70
     0
  9
$AUPREC
 70
     0
  9
$MENU
  1
ACAD
  9
$ELEVATION
 40
0.0
  9
$PELEVATION
 40
0.0
  9
$THICKNESS
 40
0.0
  9
$LIMCHECK
 70
     0
  9
$BLIPMODE
 70
     1
  9
$CHAMFERA
 40
0.0
  9
$CHAMFERB
 40
0.0
  9
$SKPOLY
 70
     0
  9
$TDCREATE
 40
2450948.629855440
  9
$TDUPDATE
 40
2450948.630052546
  9
$TDINDWG
 40
0.0001119213
  9
$TDUSRTIMER
 40
0.0001119213
  9
$USRTIMER
 70
     1
  9
$ANGBASE
 50
0.0
  9
$ANGDIR
 70
     0
  9
$PDMODE
 70
     0
  9
$PDSIZE
 40
0.0
  9
$PLINEWID
 40
0.0
  9
$COORDS
 70
     2
  9
$SPLFRAME
 70
     0
  9
$SPLINETYPE
 70
     6
  9
$SPLINESEGS
 70
     8
  9
$ATTDIA
 70
     0
  9
$ATTREQ
 70
     1
  9
$HANDLING
 70
     0
  9
$HANDSEED
  5
0
  9
$SURFTAB1
 70
     6
  9
$SURFTAB2
 70
     6
  9
$SURFTYPE
 70
     6
  9
$SURFU
 70
     6
  9
$SURFV
 70
     6
  9
$UCSNAME
  2

  9
$UCSORG
 10
0.0
 20
0.0
 30
0.0
  9
$UCSXDIR
 10
1.0
 20
0.0
 30
0.0
  9
$UCSYDIR
 10
0.0
 20
1.0
 30
0.0
  9
$PUCSNAME
  2

  9
$PUCSORG
 10
0.0
 20
0.0
 30
0.0
  9
$PUCSXDIR
 10
1.0
 20
0.0
 30
0.0
  9
$PUCSYDIR
 10
0.0
 20
1.0
 30
0.0
  9
$USERI1
 70
     0
  9
$USERI2
 70
     0
  9
$USERI3
 70
     0
  9
$USERI4
 70
     0
  9
$USERI5
 70
     0
  9
$USERR1
 40
0.0
  9
$USERR2
 40
0.0
  9
$USERR3
 40
0.0
  9
$USERR4
 40
0.0
  9
$USERR5
 40
0.0
  9
$WORLDVIEW
 70
     1
  9
$SHADEDGE
 70
     3
  9
$SHADEDIF
 70
    70
  9
$TILEMODE
 70
     1
  9
$MAXACTVP
 70
    16
  9
$PINSBASE
 10
0.0
 20
0.0
 30
0.0
  9
$PLIMCHECK
 70
     0
  9
$PEXTMIN
 10
1.000000E+20
 20
1.000000E+20
 30
1.000000E+20
  9
$PEXTMAX
 10
-1.000000E+20
 20
-1.000000E+20
 30
-1.000000E+20
  9
$PLIMMIN
 10
0.0
 20
0.0
  9
$PLIMMAX
 10
420.0
 20
297.0
  9
$UNITMODE
 70
     0
  9
$VISRETAIN
 70
     0
  9
$PLINEGEN
 70
     0
  9
$PSLTSCALE
 70
     1
  9
$TREEDEPTH
 70
  3020
  9
$DWGCODEPAGE
  3
iso8859-1
  0
ENDSEC
  0
SECTION
  2
TABLES
  0
TABLE
  2
VPORT
 70
     2
  0
VPORT
  2
*ACTIVE
 70
     0
 10
0.0
 20
0.0
 11
1.0
 21
1.0
 12
-346.204573
 22
459.028778
 13
0.0
 23
0.0
 14
1.0
 24
1.0
 15
0.0
 25
0.0
 16
0.0
 26
0.0
 36
1.0
 17
0.0
 27
0.0
 37
0.0
 40
242.168581
 41
1.748359
 42
50.0
 43
0.0
 44
0.0
 50
0.0
 51
0.0
 71
     0
 72
   100
 73
     1
 74
     0
 75
     0
 76
     0
 77
     0
 78
     0
  0
ENDTAB
  0
TABLE
  2
LTYPE
 70
     1
  0
LTYPE
  2
CONTINUOUS
 70
    64
  3
Solid line
 72
    65
 73
     0
 40
0.0
  0
ENDTAB
  0
TABLE
  2
LAYER
 70
     1
  0
LAYER
  2
0
 70
    64
 62
     7
  6
CONTINUOUS
  0
ENDTAB
  0
TABLE
  2
STYLE
 70
     1
  0
STYLE
  2
STANDARD
 70
     0
 40
0.0
 41
1.0
 50
0.0
 71
     0
 42
3.5
  3
txt
  4

  0
ENDTAB
  0
TABLE
  2
VIEW
 70
     0
  0
ENDTAB
  0
TABLE
  2
UCS
 70
     0
  0
ENDTAB
  0
TABLE
  2
APPID
 70
     1
  0
APPID
  2
ACAD
 70
    64
  0
ENDTAB
  0
TABLE
  2
DIMSTYLE
 70
     0
  0
ENDTAB
  0
ENDSEC
  0
SECTION
  2
BLOCKS
  0
ENDSEC
  0
SECTION
  2
ENTITIES
  0
LINE
  8
0
 10
-430.537435
 20
405.378269
 30
0.0
 11
-485.037435
 21
405.378269
 31
0.0
  0
LINE
  8
0
 10
-485.037435
 20
530.378269
 30
0.0
 11
-430.537435
 21
530.378269
 31
0.0
  0
LINE
  8
0
 10
-429.537435
 20
532.878269
 30
0.0
 11
-487.537435
 21
532.878269
 31
0.0
  0
LINE
  8
0
 10
-485.037435
 20
530.378269
 30
0.0
 11
-430.537435
 21
530.378269
 31
0.0
  0
LINE
  8
0
 10
-433.355312
 20
526.978269
 30
0.0
 11
-431.379455
 21
526.259116
 31
0.0
  0
LINE
  8
0
 10
-438.137435
 20
524.378269
 30
0.0
 11
-438.137435
 21
523.178269
 31
0.0
  0
LINE
  8
0
 10
-433.637435
 20
525.378269
 30
0.0
 11
-430.221476
 21
524.134961
 31
0.0
  0
LINE
  8
0
 10
-437.137435
 20
525.378269
 30
0.0
 11
-433.637435
 21
525.378269
 31
0.0
  0
LINE
  8
0
 10
-437.537435
 20
526.978269
 30
0.0
 11
-433.355312
 21
526.978269
 31
0.0
  0
LINE
  8
0
 10
-430.037435
 20
529.878269
 30
0.0
 11
-430.037435
 21
527.198808
 31
0.0
  0
LINE
  8
0
 10
-435.237435
 20
516.278269
 30
0.0
 11
-437.837435
 21
516.278269
 31
0.0
  0
LINE
  8
0
 10
-427.537435
 20
530.878269
 30
0.0
 11
-427.537435
 21
526.014346
 31
0.0
  0
LINE
  8
0
 10
-434.537435
 20
514.878269
 30
0.0
 11
-438.537435
 21
514.878269
 31
0.0
  0
LINE
  8
0
 10
-435.237435
 20
520.778269
 30
0.0
 11
-437.837435
 21
520.778269
 31
0.0
  0
LINE
  8
0
 10
-434.537435
 20
522.178269
 30
0.0
 11
-437.137435
 21
522.178269
 31
0.0
  0
LINE
  8
0
 10
-433.537435
 20
520.528269
 30
0.0
 11
-433.537435
 21
521.178269
 31
0.0
  0
LINE
  8
0
 10
-434.937435
 20
520.478269
 30
0.0
 11
-434.937435
 21
516.578269
 31
0.0
  0
LINE
  8
0
 10
-438.137435
 20
520.478269
 30
0.0
 11
-438.137435
 21
516.578269
 31
0.0
  0
LINE
  8
0
 10
-433.537435
 20
515.878269
 30
0.0
 11
-433.537435
 21
516.528269
 31
0.0
  0
LINE
  8
0
 10
-433.537435
 20
516.528269
 30
0.0
 11
-433.537435
 21
520.528269
 31
0.0
  0
LINE
  8
0
 10
-439.537435
 20
524.978269
 30
0.0
 11
-439.537435
 21
515.878269
 31
0.0
  0
LINE
  8
0
 10
-487.037435
 20
464.378269
 30
0.0
 11
-487.037435
 21
441.378269
 31
0.0
  0
LINE
  8
0
 10
-486.037435
 20
495.378269
 30
0.0
 11
-482.027385
 21
495.378269
 31
0.0
  0
LINE
  8
0
 10
-486.037435
 20
495.378269
 30
0.0
 11
-482.027385
 21
495.378269
 31
0.0
  0
LINE
  8
0
 10
-486.137435
 20
496.978269
 30
0.0
 11
-482.351649
 21
496.978269
 31
0.0
  0
LINE
  8
0
 10
-482.351649
 20
498.778269
 30
0.0
 11
-486.137435
 21
498.778269
 31
0.0
  0
LINE
  8
0
 10
-482.027385
 20
500.378269
 30
0.0
 11
-486.037435
 21
500.378269
 31
0.0
  0
LINE
  8
0
 10
-483.183882
 20
500.524716
 30
0.0
 11
-482.678857
 21
501.029741
 31
0.0
  0
LINE
  8
0
 10
-481.290989
 20
501.33893
 30
0.0
 11
-483.183882
 21
503.231823
 31
0.0
  0
LINE
  8
0
 10
-481.290989
 20
494.417609
 30
0.0
 11
-483.183882
 21
492.524716
 31
0.0
  0
LINE
  8
0
 10
-483.183882
 20
495.231823
 30
0.0
 11
-482.678857
 21
494.726798
 31
0.0
  0
LINE
  8
0
 10
-482.027385
 20
500.378269
 30
0.0
 11
-482.678857
 21
501.029741
 31
0.0
  0
LINE
  8
0
 10
-484.037435
 20
500.878269
 30
0.0
 11
-484.037435
 21
502.878269
 31
0.0
  0
LINE
  8
0
 10
-482.678857
 20
494.726798
 30
0.0
 11
-482.027385
 21
495.378269
 31
0.0
  0
LINE
  8
0
 10
-484.037435
 20
492.878269
 30
0.0
 11
-484.037435
 21
494.878269
 31
0.0
  0
LINE
  8
0
 10
-482.027385
 20
470.378269
 30
0.0
 11
-486.037435
 21
470.378269
 31
0.0
  0
LINE
  8
0
 10
-486.037435
 20
465.378269
 30
0.0
 11
-482.027385
 21
465.378269
 31
0.0
  0
LINE
  8
0
 10
-486.137435
 20
466.978269
 30
0.0
 11
-482.351649
 21
466.978269
 31
0.0
  0
LINE
  8
0
 10
-482.351649
 20
468.778269
 30
0.0
 11
-486.137435
 21
468.778269
 31
0.0
  0
LINE
  8
0
 10
-482.027385
 20
470.378269
 30
0.0
 11
-486.037435
 21
470.378269
 31
0.0
  0
LINE
  8
0
 10
-483.183882
 20
470.524716
 30
0.0
 11
-482.678857
 21
471.029741
 31
0.0
  0
LINE
  8
0
 10
-481.290989
 20
471.33893
 30
0.0
 11
-483.183882
 21
473.231823
 31
0.0
  0
LINE
  8
0
 10
-481.290989
 20
464.417609
 30
0.0
 11
-483.183882
 21
462.524716
 31
0.0
  0
LINE
  8
0
 10
-483.183882
 20
465.231823
 30
0.0
 11
-482.678857
 21
464.726798
 31
0.0
  0
LINE
  8
0
 10
-482.027385
 20
470.378269
 30
0.0
 11
-482.678857
 21
471.029741
 31
0.0
  0
LINE
  8
0
 10
-484.037435
 20
470.878269
 30
0.0
 11
-484.037435
 21
472.878269
 31
0.0
  0
LINE
  8
0
 10
-482.678857
 20
464.726798
 30
0.0
 11
-482.027385
 21
465.378269
 31
0.0
  0
LINE
  8
0
 10
-484.037435
 20
462.878269
 30
0.0
 11
-484.037435
 21
464.878269
 31
0.0
  0
LINE
  8
0
 10
-483.183882
 20
440.524716
 30
0.0
 11
-482.678857
 21
441.029741
 31
0.0
  0
LINE
  8
0
 10
-481.290989
 20
441.33893
 30
0.0
 11
-483.183882
 21
443.231823
 31
0.0
  0
LINE
  8
0
 10
-481.290989
 20
434.417609
 30
0.0
 11
-483.183882
 21
432.524716
 31
0.0
  0
LINE
  8
0
 10
-483.183882
 20
435.231823
 30
0.0
 11
-482.678857
 21
434.726798
 31
0.0
  0
LINE
  8
0
 10
-431.379455
 20
409.497423
 30
0.0
 11
-433.355312
 21
408.778269
 31
0.0
  0
LINE
  8
0
 10
-487.037435
 20
528.378269
 30
0.0
 11
-487.037435
 21
501.378269
 31
0.0
  0
LINE
  8
0
 10
-489.537435
 20
404.878269
 30
0.0
 11
-489.537435
 21
530.878269
 31
0.0
  0
LINE
  8
0
 10
-487.537435
 20
402.878269
 30
0.0
 11
-429.537435
 21
402.878269
 31
0.0
  0
LINE
  8
0
 10
-438.137435
 20
412.578269
 30
0.0
 11
-438.137435
 21
411.378269
 31
0.0
  0
LINE
  8
0
 10
-430.221476
 20
411.621577
 30
0.0
 11
-433.637435
 21
410.378269
 31
0.0
  0
LINE
  8
0
 10
-433.637435
 20
410.378269
 30
0.0
 11
-437.137435
 21
410.378269
 31
0.0
  0
LINE
  8
0
 10
-433.355312
 20
408.778269
 30
0.0
 11
-437.537435
 21
408.778269
 31
0.0
  0
LINE
  8
0
 10
-430.037435
 20
408.55773
 30
0.0
 11
-430.037435
 21
405.878269
 31
0.0
  0
LINE
  8
0
 10
-437.837435
 20
419.478269
 30
0.0
 11
-435.237435
 21
419.478269
 31
0.0
  0
LINE
  8
0
 10
-427.537435
 20
409.742192
 30
0.0
 11
-427.537435
 21
404.878269
 31
0.0
  0
LINE
  8
0
 10
-438.537435
 20
420.878269
 30
0.0
 11
-434.537435
 21
420.878269
 31
0.0
  0
LINE
  8
0
 10
-437.837435
 20
414.978269
 30
0.0
 11
-435.237435
 21
414.978269
 31
0.0
  0
LINE
  8
0
 10
-437.137435
 20
413.578269
 30
0.0
 11
-434.537435
 21
413.578269
 31
0.0
  0
LINE
  8
0
 10
-487.037435
 20
494.378269
 30
0.0
 11
-487.037435
 21
471.378269
 31
0.0
  0
LINE
  8
0
 10
-482.027385
 20
440.378269
 30
0.0
 11
-482.678857
 21
441.029741
 31
0.0
  0
LINE
  8
0
 10
-484.037435
 20
440.878269
 30
0.0
 11
-484.037435
 21
442.878269
 31
0.0
  0
LINE
  8
0
 10
-482.351649
 20
438.778269
 30
0.0
 11
-486.137435
 21
438.778269
 31
0.0
  0
LINE
  8
0
 10
-482.027385
 20
440.378269
 30
0.0
 11
-486.037435
 21
440.378269
 31
0.0
  0
LINE
  8
0
 10
-482.678857
 20
434.726798
 30
0.0
 11
-482.027385
 21
435.378269
 31
0.0
  0
LINE
  8
0
 10
-484.037435
 20
432.878269
 30
0.0
 11
-484.037435
 21
434.878269
 31
0.0
  0
LINE
  8
0
 10
-486.137435
 20
436.978269
 30
0.0
 11
-482.351649
 21
436.978269
 31
0.0
  0
LINE
  8
0
 10
-486.037435
 20
435.378269
 30
0.0
 11
-482.027385
 21
435.378269
 31
0.0
  0
LINE
  8
0
 10
-487.037435
 20
434.378269
 30
0.0
 11
-487.037435
 21
407.378269
 31
0.0
  0
LINE
  8
0
 10
-433.537435
 20
414.578269
 30
0.0
 11
-433.537435
 21
415.228269
 31
0.0
  0
LINE
  8
0
 10
-434.937435
 20
419.178269
 30
0.0
 11
-434.937435
 21
415.278269
 31
0.0
  0
LINE
  8
0
 10
-438.137435
 20
419.178269
 30
0.0
 11
-438.137435
 21
415.278269
 31
0.0
  0
LINE
  8
0
 10
-433.537435
 20
419.228269
 30
0.0
 11
-433.537435
 21
419.878269
 31
0.0
  0
LINE
  8
0
 10
-433.537435
 20
415.228269
 30
0.0
 11
-433.537435
 21
419.228269
 31
0.0
  0
LINE
  8
0
 10
-439.537435
 20
419.878269
 30
0.0
 11
-439.537435
 21
410.778269
 31
0.0
  0
ARC
  8
0
 10
-485.037435
 20
528.378269
 30
0.0
 40
2.0
 50
90.0
 51
180.0
  0
ARC
  8
0
 10
-487.537435
 20
530.878269
 30
0.0
 40
2.0
 50
90.0
 51
180.0
  0
ARC
  8
0
 10
-429.537435
 20
526.014346
 30
0.0
 40
2.0
 50
249.999978
 51
0.000001
  0
ARC
  8
0
 10
-431.037435
 20
527.198808
 30
0.0
 40
1.0
 50
250.0
 51
0.0
  0
ARC
  8
0
 10
-437.537435
 20
524.978269
 30
0.0
 40
2.0
 50
90.0
 51
180.0
  0
ARC
  8
0
 10
-437.137435
 20
524.378269
 30
0.0
 40
1.0
 50
90.0
 51
180.0
  0
ARC
  8
0
 10
-437.837435
 20
516.578269
 30
0.0
 40
0.3
 50
180.0
 51
189.594068
  0
ARC
  8
0
 10
-435.237435
 20
516.578269
 30
0.0
 40
0.3
 50
270.0
 51
350.405932
  0
ARC
  8
0
 10
-434.537435
 20
515.878269
 30
0.0
 40
1.0
 50
270.0
 51
0.0
  0
ARC
  8
0
 10
-438.537435
 20
515.878269
 30
0.0
 40
1.0
 50
180.0
 51
270.0
  0
ARC
  8
0
 10
-429.537435
 20
530.878269
 30
0.0
 40
2.0
 50
0.0
 51
90.0
  0
ARC
  8
0
 10
-430.537435
 20
529.878269
 30
0.0
 40
0.5
 50
0.0
 51
90.0
  0
ARC
  8
0
 10
-434.537435
 20
521.178269
 30
0.0
 40
1.0
 50
0.0
 51
90.0
  0
ARC
  8
0
 10
-437.137435
 20
523.178269
 30
0.0
 40
1.0
 50
180.0
 51
270.0
  0
ARC
  8
0
 10
-435.237435
 20
520.478269
 30
0.0
 40
0.3
 50
0.0
 51
9.594068
  0
ARC
  8
0
 10
-437.837435
 20
520.478269
 30
0.0
 40
0.3
 50
90.0
 51
170.405932
  0
ARC
  8
0
 10
-435.237435
 20
516.578269
 30
0.0
 40
0.3
 50
350.405932
 51
0.0
  0
ARC
  8
0
 10
-435.237435
 20
520.478269
 30
0.0
 40
0.3
 50
9.594068
 51
90.0
  0
ARC
  8
0
 10
-437.837435
 20
516.578269
 30
0.0
 40
0.3
 50
189.594068
 51
270.0
  0
ARC
  8
0
 10
-437.837435
 20
520.478269
 30
0.0
 40
0.3
 50
170.405932
 51
180.0
  0
ARC
  8
0
 10
-486.037435
 20
501.378269
 30
0.0
 40
1.0
 50
180.0
 51
270.0
  0
ARC
  8
0
 10
-486.137435
 20
497.878269
 30
0.0
 40
0.9
 50
90.0
 51
270.0
  0
ARC
  8
0
 10
-486.037435
 20
494.378269
 30
0.0
 40
1.0
 50
90.0
 51
180.0
  0
ARC
  8
0
 10
-483.537435
 20
492.878269
 30
0.0
 40
0.5
 50
180.0
 51
270.0
  0
ARC
  8
0
 10
-483.537435
 20
502.878269
 30
0.0
 40
0.5
 50
45.0
 51
90.0
  0
ARC
  8
0
 10
-483.537435
 20
500.878269
 30
0.0
 40
0.5
 50
180.0
 51
315.0
  0
ARC
  8
0
 10
-483.537435
 20
502.878269
 30
0.0
 40
0.5
 50
90.0
 51
180.0
  0
ARC
  8
0
 10
-482.351649
 20
500.278269
 30
0.0
 40
1.5
 50
270.0
 51
45.0
  0
ARC
  8
0
 10
-483.537435
 20
494.878269
 30
0.0
 40
0.5
 50
45.0
 51
180.0
  0
ARC
  8
0
 10
-483.537435
 20
492.878269
 30
0.0
 40
0.5
 50
270.0
 51
315.0
  0
ARC
  8
0
 10
-482.351649
 20
495.478269
 30
0.0
 40
1.5
 50
315.0
 51
90.0
  0
ARC
  8
0
 10
-486.037435
 20
471.378269
 30
0.0
 40
1.0
 50
180.0
 51
270.0
  0
ARC
  8
0
 10
-486.037435
 20
464.378269
 30
0.0
 40
1.0
 50
90.0
 51
180.0
  0
ARC
  8
0
 10
-486.137435
 20
467.878269
 30
0.0
 40
0.9
 50
90.0
 51
270.0
  0
ARC
  8
0
 10
-486.037435
 20
471.378269
 30
0.0
 40
1.0
 50
180.0
 51
270.0
  0
ARC
  8
0
 10
-483.537435
 20
462.878269
 30
0.0
 40
0.5
 50
180.0
 51
270.0
  0
ARC
  8
0
 10
-483.537435
 20
472.878269
 30
0.0
 40
0.5
 50
45.0
 51
90.0
  0
ARC
  8
0
 10
-483.537435
 20
470.878269
 30
0.0
 40
0.5
 50
180.0
 51
315.0
  0
ARC
  8
0
 10
-483.537435
 20
472.878269
 30
0.0
 40
0.5
 50
90.0
 51
180.0
  0
ARC
  8
0
 10
-482.351649
 20
470.278269
 30
0.0
 40
1.5
 50
270.0
 51
45.0
  0
ARC
  8
0
 10
-483.537435
 20
464.878269
 30
0.0
 40
0.5
 50
45.0
 51
180.0
  0
ARC
  8
0
 10
-483.537435
 20
462.878269
 30
0.0
 40
0.5
 50
270.0
 51
315.0
  0
ARC
  8
0
 10
-482.351649
 20
465.478269
 30
0.0
 40
1.5
 50
315.0
 51
90.0
  0
ARC
  8
0
 10
-429.537435
 20
409.742192
 30
0.0
 40
2.0
 50
359.999999
 51
110.000022
  0
ARC
  8
0
 10
-485.037435
 20
407.378269
 30
0.0
 40
2.0
 50
180.0
 51
270.0
  0
ARC
  8
0
 10
-487.537435
 20
404.878269
 30
0.0
 40
2.0
 50
180.0
 51
270.0
  0
ARC
  8
0
 10
-431.037435
 20
408.55773
 30
0.0
 40
1.0
 50
0.0
 51
110.0
  0
ARC
  8
0
 10
-437.537435
 20
410.778269
 30
0.0
 40
2.0
 50
180.0
 51
270.0
  0
ARC
  8
0
 10
-437.137435
 20
411.378269
 30
0.0
 40
1.0
 50
180.0
 51
270.0
  0
ARC
  8
0
 10
-437.837435
 20
419.178269
 30
0.0
 40
0.3
 50
170.405932
 51
180.0
  0
ARC
  8
0
 10
-435.237435
 20
419.178269
 30
0.0
 40
0.3
 50
9.594068
 51
90.0
  0
ARC
  8
0
 10
-434.537435
 20
419.878269
 30
0.0
 40
1.0
 50
0.0
 51
90.0
  0
ARC
  8
0
 10
-438.537435
 20
419.878269
 30
0.0
 40
1.0
 50
90.0
 51
180.0
  0
ARC
  8
0
 10
-429.537435
 20
404.878269
 30
0.0
 40
2.0
 50
270.0
 51
0.0
  0
ARC
  8
0
 10
-430.537435
 20
405.878269
 30
0.0
 40
0.5
 50
270.0
 51
0.0
  0
ARC
  8
0
 10
-434.537435
 20
414.578269
 30
0.0
 40
1.0
 50
270.0
 51
0.0
  0
ARC
  8
0
 10
-437.137435
 20
412.578269
 30
0.0
 40
1.0
 50
90.0
 51
180.0
  0
ARC
  8
0
 10
-435.237435
 20
415.278269
 30
0.0
 40
0.3
 50
350.405932
 51
0.0
  0
ARC
  8
0
 10
-437.837435
 20
415.278269
 30
0.0
 40
0.3
 50
189.594068
 51
270.0
  0
ARC
  8
0
 10
-486.037435
 20
434.378269
 30
0.0
 40
1.0
 50
90.0
 51
180.0
  0
ARC
  8
0
 10
-486.037435
 20
441.378269
 30
0.0
 40
1.0
 50
180.0
 51
270.0
  0
ARC
  8
0
 10
-486.137435
 20
437.878269
 30
0.0
 40
0.9
 50
90.0
 51
270.0
  0
ARC
  8
0
 10
-435.237435
 20
419.178269
 30
0.0
 40
0.3
 50
0.0
 51
9.594068
  0
ARC
  8
0
 10
-435.237435
 20
415.278269
 30
0.0
 40
0.3
 50
270.0
 51
350.405932
  0
ARC
  8
0
 10
-437.837435
 20
419.178269
 30
0.0
 40
0.3
 50
90.0
 51
170.405932
  0
ARC
  8
0
 10
-437.837435
 20
415.278269
 30
0.0
 40
0.3
 50
180.0
 51
189.594068
  0
ARC
  8
0
 10
-483.537435
 20
432.878269
 30
0.0
 40
0.5
 50
180.0
 51
270.0
  0
ARC
  8
0
 10
-483.537435
 20
442.878269
 30
0.0
 40
0.5
 50
45.0
 51
90.0
  0
ARC
  8
0
 10
-483.537435
 20
440.878269
 30
0.0
 40
0.5
 50
180.0
 51
315.0
  0
ARC
  8
0
 10
-483.537435
 20
442.878269
 30
0.0
 40
0.5
 50
90.0
 51
180.0
  0
ARC
  8
0
 10
-482.351649
 20
440.278269
 30
0.0
 40
1.5
 50
270.0
 51
45.0
  0
ARC
  8
0
 10
-483.537435
 20
434.878269
 30
0.0
 40
0.5
 50
45.0
 51
180.0
  0
ARC
  8
0
 10
-483.537435
 20
432.878269
 30
0.0
 40
0.5
 50
270.0
 51
315.0
  0
ARC
  8
0
 10
-482.351649
 20
435.478269
 30
0.0
 40
1.5
 50
315.0
 51
90.0
  0
LINE
  8
0
 10
-418.63238
 20
437.035236
 30
0.0
 11
-418.63238
 21
499.453056
 31
0.0
  0
LINE
  8
0
 10
-418.63238
 20
499.453056
 30
0.0
 11
-418.632425
 21
513.161453
 31
0.0
  0
ARC
  8
0
 10
-419.632425
 20
513.161449
 30
0.0
 40
1.0
 50
0.000188
 51
88.999959
  0
LINE
  8
0
 10
-421.332331
 20
514.191275
 30
0.0
 11
-419.614972
 21
514.161297
 31
0.0
  0
LINE
  8
0
 10
-418.63238
 20
437.035236
 30
0.0
 11
-418.632425
 21
423.32684
 31
0.0
  0
ARC
  8
0
 10
-419.632425
 20
423.326843
 30
0.0
 40
1.0
 50
271.0
 51
359.999812
  0
LINE
  8
0
 10
-421.332331
 20
422.297017
 30
0.0
 11
-419.614973
 21
422.326996
 31
0.0
  0
LINE
  8
0
 10
-434.337435
 20
486.139117
 30
0.0
 11
-434.337435
 21
474.988268
 31
0.0
  0
LINE
  8
0
 10
-434.337435
 20
449.488268
 30
0.0
 11
-434.337435
 21
460.639117
 31
0.0
  0
LINE
  8
0
 10
-455.337435
 20
447.313693
 30
0.0
 11
-431.337435
 21
447.104248
 31
0.0
  0
LINE
  8
0
 10
-460.837435
 20
464.909848
 30
0.0
 11
-460.837435
 21
470.717538
 31
0.0
  0
LINE
  8
0
 10
-460.837435
 20
500.211493
 30
0.0
 11
-460.837435
 21
489.909848
 31
0.0
  0
LINE
  8
0
 10
-455.337435
 20
473.813693
 30
0.0
 11
-435.328709
 21
473.988306
 31
0.0
  0
LINE
  8
0
 10
-455.337435
 20
461.813693
 30
0.0
 11
-435.328709
 21
461.639079
 31
0.0
  0
LINE
  8
0
 10
-435.328709
 20
448.488306
 30
0.0
 11
-455.337435
 21
448.313693
 31
0.0
  0
LINE
  8
0
 10
-455.337435
 20
462.813693
 30
0.0
 11
-455.337435
 21
461.813693
 31
0.0
  0
LINE
  8
0
 10
-455.337435
 20
447.313693
 30
0.0
 11
-455.337435
 21
448.313693
 31
0.0
  0
LINE
  8
0
 10
-435.328709
 20
487.139079
 30
0.0
 11
-455.337435
 21
487.313693
 31
0.0
  0
LINE
  8
0
 10
-455.337435
 20
472.813693
 30
0.0
 11
-455.337435
 21
473.813693
 31
0.0
  0
LINE
  8
0
 10
-455.337435
 20
488.313693
 30
0.0
 11
-455.337435
 21
487.313693
 31
0.0
  0
LINE
  8
0
 10
-460.837435
 20
440.449432
 30
0.0
 11
-460.837435
 21
445.717538
 31
0.0
  0
LINE
  8
0
 10
-460.837435
 20
435.415893
 30
0.0
 11
-460.837435
 21
440.449432
 31
0.0
  0
LINE
  8
0
 10
-429.354618
 20
432.900963
 30
0.0
 11
-429.537435
 21
432.904155
 31
0.0
  0
LINE
  8
0
 10
-465.37234
 20
471.779392
 30
0.0
 11
-461.819983
 21
471.717385
 31
0.0
  0
LINE
  8
0
 10
-461.819983
 20
488.91
 30
0.0
 11
-465.37234
 21
488.847994
 31
0.0
  0
LINE
  8
0
 10
-467.337435
 20
473.779087
 30
0.0
 11
-467.337435
 21
486.848298
 31
0.0
  0
LINE
  8
0
 10
-467.337435
 20
461.848298
 30
0.0
 11
-467.337435
 21
448.779087
 31
0.0
  0
LINE
  8
0
 10
-465.37234
 20
463.847994
 30
0.0
 11
-461.819983
 21
463.91
 31
0.0
  0
LINE
  8
0
 10
-461.819983
 20
446.717385
 30
0.0
 11
-465.37234
 21
446.779392
 31
0.0
  0
LINE
  8
0
 10
-434.337435
 20
472.630429
 30
0.0
 11
-434.337435
 21
462.996957
 31
0.0
  0
LINE
  8
0
 10
-434.337435
 20
472.630429
 30
0.0
 11
-435.337435
 21
472.639156
 31
0.0
  0
LINE
  8
0
 10
-434.337435
 20
462.996957
 30
0.0
 11
-435.337435
 21
462.98823
 31
0.0
  0
LINE
  8
0
 10
-435.337435
 20
462.98823
 30
0.0
 11
-435.337435
 21
472.639156
 31
0.0
  0
LINE
  8
0
 10
-435.337435
 20
472.639156
 30
0.0
 11
-455.337435
 21
472.813693
 31
0.0
  0
LINE
  8
0
 10
-435.337435
 20
462.98823
 30
0.0
 11
-455.337435
 21
462.813693
 31
0.0
  0
LINE
  8
0
 10
-455.337435
 20
462.813693
 30
0.0
 11
-460.837435
 21
462.813693
 31
0.0
  0
LINE
  8
0
 10
-460.837435
 20
462.813693
 30
0.0
 11
-460.837435
 21
464.909848
 31
0.0
  0
LINE
  8
0
 10
-460.837435
 20
470.717538
 30
0.0
 11
-460.837435
 21
472.813693
 31
0.0
  0
LINE
  8
0
 10
-460.837435
 20
472.813693
 30
0.0
 11
-455.337435
 21
472.813693
 31
0.0
  0
LINE
  8
0
 10
-455.337435
 20
488.313693
 30
0.0
 11
-460.837435
 21
488.313693
 31
0.0
  0
LINE
  8
0
 10
-460.837435
 20
488.313693
 30
0.0
 11
-460.837435
 21
489.909848
 31
0.0
  0
LINE
  8
0
 10
-455.337435
 20
447.313693
 30
0.0
 11
-460.837435
 21
447.303043
 31
0.0
  0
LINE
  8
0
 10
-460.837435
 20
447.303043
 30
0.0
 11
-460.837435
 21
445.717538
 31
0.0
  0
LINE
  8
0
 10
-431.337435
 20
463.023138
 30
0.0
 11
-434.337435
 21
462.996957
 31
0.0
  0
LINE
  8
0
 10
-431.337435
 20
472.604248
 30
0.0
 11
-434.337435
 21
472.630429
 31
0.0
  0
LINE
  8
0
 10
-431.337435
 20
488.523138
 30
0.0
 11
-455.337435
 21
488.313693
 31
0.0
  0
LINE
  8
0
 10
-431.337435
 20
502.691812
 30
0.0
 11
-458.87234
 21
502.211189
 31
0.0
  0
ARC
  8
0
 10
-435.337435
 20
449.488268
 30
0.0
 40
1.0
 50
270.5
 51
0.0
  0
ARC
  8
0
 10
-435.337435
 20
460.639117
 30
0.0
 40
1.0
 50
0.0
 51
89.5
  0
ARC
  8
0
 10
-435.337435
 20
474.988268
 30
0.0
 40
1.0
 50
270.5
 51
0.0
  0
ARC
  8
0
 10
-435.337435
 20
486.139117
 30
0.0
 40
1.0
 50
0.0
 51
89.5
  0
ARC
  8
0
 10
-458.837435
 20
435.415893
 30
0.0
 40
2.0
 50
180.0
 51
269.0
  0
ARC
  8
0
 10
-465.337435
 20
448.779087
 30
0.0
 40
2.0
 50
180.0
 51
269.0
  0
ARC
  8
0
 10
-465.337435
 20
461.848298
 30
0.0
 40
2.0
 50
91.0
 51
180.0
  0
ARC
  8
0
 10
-465.337435
 20
473.779087
 30
0.0
 40
2.0
 50
180.0
 51
269.0
  0
ARC
  8
0
 10
-465.337435
 20
486.848298
 30
0.0
 40
2.0
 50
91.0
 51
180.0
  0
ARC
  8
0
 10
-458.837435
 20
500.211493
 30
0.0
 40
2.0
 50
91.0
 51
180.0
  0
ARC
  8
0
 10
-461.837435
 20
470.717538
 30
0.0
 40
1.0
 50
0.0
 51
89.0
  0
ARC
  8
0
 10
-461.837435
 20
464.909848
 30
0.0
 40
1.0
 50
271.0
 51
0.0
  0
ARC
  8
0
 10
-461.837435
 20
489.909848
 30
0.0
 40
1.0
 50
271.0
 51
0.0
  0
ARC
  8
0
 10
-461.837435
 20
445.717538
 30
0.0
 40
1.0
 50
0.0
 51
89.0
  0
LINE
  8
0
 10
-428.21239
 20
532.492176
 30
0.0
 11
-428.126869
 21
532.406655
 31
0.0
  0
LINE
  8
0
 10
-427.537435
 20
404.845648
 30
0.0
 11
-427.537435
 21
409.768221
 31
0.0
  0
LINE
  8
0
 10
-427.537435
 20
526.066221
 30
0.0
 11
-427.537435
 21
530.988794
 31
0.0
  0
LINE
  8
0
 10
-428.126869
 20
532.406655
 30
0.0
 11
-428.123221
 21
532.403007
 31
0.0
  0
LINE
  8
0
 10
-428.126869
 20
403.427787
 30
0.0
 11
-428.21239
 21
403.342266
 31
0.0
  0
LINE
  8
0
 10
-429.537435
 20
411.767221
 30
0.0
 11
-429.536435
 21
411.767221
 31
0.0
  0
LINE
  8
0
 10
-429.537435
 20
524.067221
 30
0.0
 11
-429.537435
 21
411.767221
 31
0.0
  0
LINE
  8
0
 10
-429.536435
 20
524.067221
 30
0.0
 11
-429.537435
 21
524.067221
 31
0.0
  0
LINE
  8
0
 10
-428.123221
 20
403.431434
 30
0.0
 11
-428.126869
 21
403.427787
 31
0.0
  0
ARC
  8
0
 10
-428.000257
 20
532.704308
 30
0.0
 40
0.3
 50
89.0
 51
225.0
  0
ARC
  8
0
 10
-429.537435
 20
530.988794
 30
0.0
 40
2.0
 50
0.0
 51
45.0
  0
ARC
  8
0
 10
-429.536435
 20
526.066221
 30
0.0
 40
1.999
 50
270.0
 51
0.0
  0
ARC
  8
0
 10
-429.537435
 20
404.845648
 30
0.0
 40
2.0
 50
315.0
 51
0.0
  0
ARC
  8
0
 10
-429.536435
 20
409.768221
 30
0.0
 40
1.999
 50
0.0
 51
90.0
  0
ARC
  8
0
 10
-428.000257
 20
403.130134
 30
0.0
 40
0.3
 50
135.0
 51
271.0
  0
LINE
  8
0
 10
-433.86666
 20
524.078269
 30
0.0
 11
-436.637435
 21
524.078269
 31
0.0
  0
LINE
  8
0
 10
-433.637435
 20
525.378269
 30
0.0
 11
-436.537435
 21
525.378269
 31
0.0
  0
LINE
  8
0
 10
-430.524405
 20
524.245219
 30
0.0
 11
-433.637435
 21
525.378269
 31
0.0
  0
LINE
  8
0
 10
-431.995415
 20
523.397191
 30
0.0
 11
-433.86666
 21
524.078269
 31
0.0
  0
LINE
  8
0
 10
-436.537435
 20
522.178269
 30
0.0
 11
-434.787435
 21
522.178269
 31
0.0
  0
LINE
  8
0
 10
-436.837435
 20
523.878269
 30
0.0
 11
-436.837435
 21
523.678269
 31
0.0
  0
LINE
  8
0
 10
-434.787435
 20
523.478269
 30
0.0
 11
-436.637435
 21
523.478269
 31
0.0
  0
LINE
  8
0
 10
-429.537435
 20
412.920858
 30
0.0
 11
-429.537435
 21
467.978269
 31
0.0
  0
LINE
  8
0
 10
-431.337435
 20
413.299039
 30
0.0
 11
-431.337435
 21
467.978269
 31
0.0
  0
LINE
  8
0
 10
-429.537435
 20
467.978269
 30
0.0
 11
-429.537435
 21
522.83568
 31
0.0
  0
LINE
  8
0
 10
-431.337435
 20
467.978269
 30
0.0
 11
-431.337435
 21
522.457499
 31
0.0
  0
LINE
  8
0
 10
-436.637435
 20
411.678269
 30
0.0
 11
-433.86666
 21
411.678269
 31
0.0
  0
LINE
  8
0
 10
-436.537435
 20
410.378269
 30
0.0
 11
-433.637435
 21
410.378269
 31
0.0
  0
LINE
  8
0
 10
-433.637435
 20
410.378269
 30
0.0
 11
-430.524405
 21
411.511319
 31
0.0
  0
LINE
  8
0
 10
-433.86666
 20
411.678269
 30
0.0
 11
-431.995415
 21
412.359347
 31
0.0
  0
LINE
  8
0
 10
-434.787435
 20
413.578269
 30
0.0
 11
-436.537435
 21
413.578269
 31
0.0
  0
LINE
  8
0
 10
-436.837435
 20
412.078269
 30
0.0
 11
-436.837435
 21
411.878269
 31
0.0
  0
LINE
  8
0
 10
-436.637435
 20
412.278269
 30
0.0
 11
-434.787435
 21
412.278269
 31
0.0
  0
ARC
  8
0
 10
-432.337435
 20
522.457499
 30
0.0
 40
1.0
 50
0.0
 51
70.0
  0
ARC
  8
0
 10
-431.037435
 20
522.83568
 30
0.0
 40
1.5
 50
0.0
 51
70.0
  0
ARC
  8
0
 10
-434.787435
 20
522.828269
 30
0.0
 40
0.65
 50
270.0
 51
0.0
  0
ARC
  8
0
 10
-434.787435
 20
522.828269
 30
0.0
 40
0.65
 50
0.0
 51
90.0
  0
ARC
  8
0
 10
-436.637435
 20
523.878269
 30
0.0
 40
0.2
 50
90.0
 51
180.0
  0
ARC
  8
0
 10
-436.637435
 20
523.678269
 30
0.0
 40
0.2
 50
180.0
 51
270.0
  0
ARC
  8
0
 10
-432.337435
 20
413.299039
 30
0.0
 40
1.0
 50
290.0
 51
0.0
  0
ARC
  8
0
 10
-431.037435
 20
412.920858
 30
0.0
 40
1.5
 50
290.0
 51
0.0
  0
ARC
  8
0
 10
-434.787435
 20
412.928269
 30
0.0
 40
0.65
 50
0.0
 51
90.0
  0
ARC
  8
0
 10
-434.787435
 20
412.928269
 30
0.0
 40
0.65
 50
270.0
 51
0.0
  0
ARC
  8
0
 10
-436.637435
 20
411.878269
 30
0.0
 40
0.2
 50
180.0
 51
270.0
  0
ARC
  8
0
 10
-436.637435
 20
412.078269
 30
0.0
 40
0.2
 50
90.0
 51
180.0
  0
ARC
  8
0
 10
-436.537435
 20
411.978269
 30
0.0
 40
1.6
 50
180.0
 51
270.0
  0
ARC
  8
0
 10
-436.537435
 20
411.978269
 30
0.0
 40
1.6
 50
90.0
 51
180.0
  0
ARC
  8
0
 10
-436.537435
 20
523.778269
 30
0.0
 40
1.6
 50
180.0
 51
270.0
  0
ARC
  8
0
 10
-436.537435
 20
523.778269
 30
0.0
 40
1.6
 50
90.0
 51
180.0
  0
LINE
  8
0
 10
-421.337435
 20
403.929085
 30
0.0
 11
-421.337435
 21
403.969079
 31
0.0
  0
LINE
  8
0
 10
-421.337435
 20
403.969079
 30
0.0
 11
-421.337435
 21
407.05124
 31
0.0
  0
LINE
  8
0
 10
-421.337435
 20
407.05124
 30
0.0
 11
-421.337435
 21
412.928894
 31
0.0
  0
LINE
  8
0
 10
-421.337435
 20
412.928894
 30
0.0
 11
-421.337435
 21
418.446547
 31
0.0
  0
LINE
  8
0
 10
-421.337435
 20
418.446547
 30
0.0
 11
-421.337435
 21
423.630868
 31
0.0
  0
LINE
  8
0
 10
-421.337435
 20
423.630868
 30
0.0
 11
-421.337435
 21
428.508522
 31
0.0
  0
LINE
  8
0
 10
-421.337435
 20
428.508522
 30
0.0
 11
-421.337435
 21
433.106176
 31
0.0
  0
LINE
  8
0
 10
-421.337435
 20
433.106176
 30
0.0
 11
-421.337435
 21
437.450496
 31
0.0
  0
LINE
  8
0
 10
-421.337435
 20
437.450496
 30
0.0
 11
-421.337435
 21
441.56815
 31
0.0
  0
LINE
  8
0
 10
-421.337435
 20
441.56815
 30
0.0
 11
-421.337435
 21
445.485804
 31
0.0
  0
LINE
  8
0
 10
-421.337435
 20
445.485804
 30
0.0
 11
-421.337435
 21
449.230124
 31
0.0
  0
LINE
  8
0
 10
-421.337435
 20
449.230124
 30
0.0
 11
-421.337435
 21
452.827778
 31
0.0
  0
LINE
  8
0
 10
-421.337435
 20
452.827778
 30
0.0
 11
-421.337435
 21
456.305432
 31
0.0
  0
LINE
  8
0
 10
-421.337435
 20
456.305432
 30
0.0
 11
-421.337435
 21
459.689753
 31
0.0
  0
LINE
  8
0
 10
-421.337435
 20
459.689753
 30
0.0
 11
-421.337435
 21
463.007407
 31
0.0
  0
LINE
  8
0
 10
-421.337435
 20
463.007407
 30
0.0
 11
-421.337435
 21
466.28506
 31
0.0
  0
LINE
  8
0
 10
-421.337435
 20
466.28506
 30
0.0
 11
-421.337435
 21
469.549381
 31
0.0
  0
LINE
  8
0
 10
-421.337435
 20
469.549381
 30
0.0
 11
-421.337435
 21
472.827035
 31
0.0
  0
LINE
  8
0
 10
-421.337435
 20
472.827035
 30
0.0
 11
-421.337435
 21
476.144689
 31
0.0
  0
LINE
  8
0
 10
-421.337435
 20
476.144689
 30
0.0
 11
-421.337435
 21
479.529009
 31
0.0
  0
LINE
  8
0
 10
-421.337435
 20
479.529009
 30
0.0
 11
-421.337435
 21
483.006663
 31
0.0
  0
LINE
  8
0
 10
-421.337435
 20
483.006663
 30
0.0
 11
-421.337435
 21
486.604317
 31
0.0
  0
LINE
  8
0
 10
-421.337435
 20
486.604317
 30
0.0
 11
-421.337435
 21
490.348638
 31
0.0
  0
LINE
  8
0
 10
-421.337435
 20
490.348638
 30
0.0
 11
-421.337435
 21
494.266291
 31
0.0
  0
LINE
  8
0
 10
-421.337435
 20
494.266291
 30
0.0
 11
-421.337435
 21
498.383945
 31
0.0
  0
LINE
  8
0
 10
-421.337435
 20
498.383945
 30
0.0
 11
-421.337435
 21
502.728266
 31
0.0
  0
LINE
  8
0
 10
-421.337435
 20
502.728266
 30
0.0
 11
-421.337435
 21
507.32592
 31
0.0
  0
LINE
  8
0
 10
-421.337435
 20
507.32592
 30
0.0
 11
-421.337435
 21
512.203574
 31
0.0
  0
LINE
  8
0
 10
-421.337435
 20
512.203574
 30
0.0
 11
-421.337435
 21
517.387894
 31
0.0
  0
LINE
  8
0
 10
-421.337435
 20
517.387894
 30
0.0
 11
-421.337435
 21
522.905548
 31
0.0
  0
LINE
  8
0
 10
-421.337435
 20
522.905548
 30
0.0
 11
-421.337435
 21
528.783202
 31
0.0
  0
LINE
  8
0
 10
-421.337435
 20
528.783202
 30
0.0
 11
-421.337435
 21
531.865362
 31
0.0
  0
LINE
  8
0
 10
-421.337435
 20
531.865362
 30
0.0
 11
-421.337435
 21
531.905356
 31
0.0
  0
LINE
  8
0
 10
-431.337435
 20
432.935574
 30
0.0
 11
-458.87234
 21
433.416197
 31
0.0
  0
LINE
  8
0
 10
-489.537435
 20
530.878269
 30
0.0
 11
-489.537435
 21
552.878269
 31
0.0
  0
LINE
  8
0
 10
-489.537435
 20
404.878269
 30
0.0
 11
-489.537435
 21
382.878269
 31
0.0
  0
LINE
  8
0
 10
-427.995022
 20
402.83018
 30
0.0
 11
-425.0479
 21
402.881622
 31
0.0
  0
LINE
  8
0
 10
-425.0479
 20
402.881622
 30
0.0
 11
-422.319982
 21
402.929238
 31
0.0
  0
ARC
  8
0
 10
-422.390752
 20
403.969731
 30
0.0
 40
1.051165
 50
300.317509
 51
301.83147
  0
LINE
  8
0
 10
-421.860133
 20
403.062322
 30
0.0
 11
-421.872174
 21
403.055389
 31
0.0
  0
ARC
  8
0
 10
-422.38311
 20
403.956457
 30
0.0
 40
1.035847
 50
298.046664
 51
299.554667
  0
LINE
  8
0
 10
-421.896064
 20
403.042255
 30
0.0
 11
-421.908144
 21
403.035923
 31
0.0
  0
ARC
  8
0
 10
-422.375553
 20
403.942028
 30
0.0
 40
1.019557
 50
295.783979
 51
297.286711
  0
LINE
  8
0
 10
-421.932067
 20
403.023977
 30
0.0
 11
-421.944152
 21
403.018238
 31
0.0
  0
ARC
  8
0
 10
-422.368369
 20
403.926902
 30
0.0
 40
1.002811
 50
293.528678
 51
295.02591
  0
LINE
  8
0
 10
-421.968039
 20
403.007464
 30
0.0
 11
-421.980095
 21
403.002309
 31
0.0
  0
ARC
  8
0
 10
-422.361666
 20
403.911193
 30
0.0
 40
0.985732
 50
291.282768
 51
292.773812
  0
LINE
  8
0
 10
-422.003874
 20
402.992688
 30
0.0
 11
-422.015866
 21
402.988108
 31
0.0
  0
ARC
  8
0
 10
-422.355412
 20
403.894787
 30
0.0
 40
0.968172
 50
288.832637
 51
290.530624
  0
LINE
  8
0
 10
-422.042881
 20
402.978445
 30
0.0
 11
-422.056508
 21
402.973911
 31
0.0
  0
ARC
  8
0
 10
-422.349563
 20
403.877164
 30
0.0
 40
0.949603
 50
286.287658
 51
287.975332
  0
LINE
  8
0
 10
-422.083237
 20
402.965672
 30
0.0
 11
-422.096706
 21
402.961845
 31
0.0
  0
ARC
  8
0
 10
-422.344782
 20
403.860202
 30
0.0
 40
0.93198
 50
283.772875
 51
285.437174
  0
LINE
  8
0
 10
-422.122902
 20
402.955019
 30
0.0
 11
-422.136091
 21
402.951889
 31
0.0
  0
ARC
  8
0
 10
-422.341063
 20
403.844663
 30
0.0
 40
0.916001
 50
281.297351
 51
282.930482
  0
LINE
  8
0
 10
-422.161618
 20
402.94641
 30
0.0
 11
-422.174458
 21
402.94394
 31
0.0
  0
ARC
  8
0
 10
-422.338407
 20
403.830798
 30
0.0
 40
0.901885
 50
278.880682
 51
280.473708
  0
LINE
  8
0
 10
-422.199176
 20
402.939725
 30
0.0
 11
-422.211599
 21
402.937872
 31
0.0
  0
ARC
  8
0
 10
-422.33669
 20
403.819181
 30
0.0
 40
0.890142
 50
277.005437
 51
278.078464
  0
ARC
  8
0
 10
-422.336042
 20
403.813834
 30
0.0
 40
0.884756
 50
275.925409
 51
277.006
  0
ARC
  8
0
 10
-422.335474
 20
403.808634
 30
0.0
 40
0.879525
 50
274.835441
 51
275.923594
  0
ARC
  8
0
 10
-422.335154
 20
403.803926
 30
0.0
 40
0.874807
 50
273.745082
 51
274.840569
  0
ARC
  8
0
 10
-422.334806
 20
403.799551
 30
0.0
 40
0.870419
 50
272.638401
 51
273.740993
  0
ARC
  8
0
 10
-422.334667
 20
403.795332
 30
0.0
 40
0.866198
 50
271.532371
 51
272.642067
  0
LINE
  8
0
 10
-422.311503
 20
402.929444
 30
0.0
 11
-422.319901
 21
402.929261
 31
0.0
  0
LINE
  8
0
 10
-422.319972
 20
402.929238
 30
0.0
 11
-422.319982
 21
402.929238
 31
0.0
  0
ARC
  8
0
 10
-422.335943
 20
403.81642
 30
0.0
 40
0.887325
 50
271.0313
 51
273.837736
  0
ARC
  8
0
 10
-422.319979
 20
402.929388
 30
0.0
 40
0.00015
 50
268.851716
 51
271.148284
  0
ARC
  8
0
 10
-422.319998
 20
402.929389
 30
0.0
 40
0.000152
 50
278.317476
 51
280.607168
  0
ARC
  8
0
 10
-422.319967
 20
402.929415
 30
0.0
 40
0.000176
 50
268.862258
 51
271.137742
  0
ARC
  8
0
 10
-422.319985
 20
402.929392
 30
0.0
 40
0.000155
 50
278.335121
 51
280.589523
  0
ARC
  8
0
 10
-422.320005
 20
402.929395
 30
0.0
 40
0.000163
 50
287.321612
 51
289.548285
  0
ARC
  8
0
 10
-422.319974
 20
402.929425
 30
0.0
 40
0.000185
 50
277.03361
 51
279.226596
  0
ARC
  8
0
 10
-422.319994
 20
402.929404
 30
0.0
 40
0.000168
 50
287.358049
 51
289.511848
  0
ARC
  8
0
 10
-422.319989
 20
402.929409
 30
0.0
 40
0.000172
 50
287.380163
 51
289.489734
  0
ARC
  8
0
 10
-422.319985
 20
402.929415
 30
0.0
 40
0.000176
 50
287.40434
 51
289.465557
  0
ARC
  8
0
 10
-422.320008
 20
402.92945
 30
0.0
 40
0.000217
 50
292.193878
 51
294.203304
  0
ARC
  8
0
 10
-422.319975
 20
402.929429
 30
0.0
 40
0.000185
 50
287.457506
 51
289.412391
  0
ARC
  8
0
 10
-422.320001
 20
402.929437
 30
0.0
 40
0.000203
 50
295.616026
 51
297.514077
  0
ARC
  8
0
 10
-422.320029
 20
402.929446
 30
0.0
 40
0.000225
 50
302.77026
 51
304.609874
  0
ARC
  8
0
 10
-422.204382
 20
403.928168
 30
0.0
 40
0.866912
 50
359.057619
 51
359.955783
  0
ARC
  8
0
 10
-422.207131
 20
403.928275
 30
0.0
 40
0.869663
 50
358.159506
 51
359.053545
  0
LINE
  8
0
 10
-421.337917
 20
403.900344
 30
0.0
 11
-421.338117
 21
403.894687
 31
0.0
  0
ARC
  8
0
 10
-421.580066
 20
403.302332
 30
0.0
 40
0.002755
 50
319.630207
 51
320.309275
  0
ARC
  8
0
 10
-421.579971
 20
403.302214
 30
0.0
 40
0.002606
 50
320.988282
 51
321.692101
  0
ARC
  8
0
 10
-421.579801
 20
403.302102
 30
0.0
 40
0.002403
 50
321.267656
 51
321.997373
  0
ARC
  8
0
 10
-421.579789
 20
403.302072
 30
0.0
 40
0.002376
 50
322.386557
 51
323.143775
  0
ARC
  8
0
 10
-421.579628
 20
403.301971
 30
0.0
 40
0.002186
 50
322.73694
 51
323.523265
  0
ARC
  8
0
 10
-421.579474
 20
403.301874
 30
0.0
 40
0.002005
 50
323.122134
 51
323.939397
  0
ARC
  8
0
 10
-421.579463
 20
403.301852
 30
0.0
 40
0.001983
 50
324.263883
 51
325.11369
  0
LINE
  8
0
 10
-421.577836
 20
403.300718
 30
0.0
 11
-421.577828
 21
403.30073
 31
0.0
  0
LINE
  8
0
 10
-421.767497
 20
403.277069
 30
0.0
 11
-421.76857
 21
403.277573
 31
0.0
  0
ARC
  8
0
 10
-422.420368
 20
404.010509
 30
0.0
 40
1.101662
 50
315.50279
 51
316.4775
  0
ARC
  8
0
 10
-422.419899
 20
404.010165
 30
0.0
 40
1.101084
 50
316.473641
 51
317.448809
  0
ARC
  8
0
 10
-422.419091
 20
404.009352
 30
0.0
 40
1.09994
 50
317.451562
 51
318.427647
  0
LINE
  8
0
 10
-421.596206
 20
403.27947
 30
0.0
 11
-421.592761
 21
403.283371
 31
0.0
  0
ARC
  8
0
 10
-422.187378
 20
403.808284
 30
0.0
 40
0.79316
 50
318.562755
 51
319.540215
  0
LINE
  8
0
 10
-421.583893
 20
403.293591
 30
0.0
 11
-421.577828
 21
403.30073
 31
0.0
  0
ARC
  8
0
 10
-421.836507
 20
403.0769
 30
0.0
 40
0.000293
 50
318.496201
 51
320.30121
  0
ARC
  8
0
 10
-421.836509
 20
403.076889
 30
0.0
 40
0.000287
 50
318.477065
 51
320.320345
  0
ARC
  8
0
 10
-421.83648
 20
403.076879
 30
0.0
 40
0.000259
 50
314.0606
 51
315.939401
  0
ARC
  8
0
 10
-421.836483
 20
403.07687
 30
0.0
 40
0.000254
 50
314.044443
 51
315.955557
  0
ARC
  8
0
 10
-421.836487
 20
403.076891
 30
0.0
 40
0.000272
 50
309.631415
 51
311.571174
  0
ARC
  8
0
 10
-421.836462
 20
403.076853
 30
0.0
 40
0.000228
 50
308.823431
 51
310.787711
  0
ARC
  8
0
 10
-421.836496
 20
403.076875
 30
0.0
 40
0.000266
 50
309.608957
 51
311.593633
  0
ARC
  8
0
 10
-421.836473
 20
403.076868
 30
0.0
 40
0.000246
 50
304.537548
 51
306.537808
  0
ARC
  8
0
 10
-421.836479
 20
403.07689
 30
0.0
 40
0.000269
 50
300.999868
 51
303.010898
  0
LINE
  8
0
 10
-421.836341
 20
403.07666
 30
0.0
 11
-421.836344
 21
403.076658
 31
0.0
  0
ARC
  8
0
 10
-422.221945
 20
403.92902
 30
0.0
 40
0.884495
 50
354.02514
 51
355.496475
  0
LINE
  8
0
 10
-421.342255
 20
403.836951
 30
0.0
 11
-421.343519
 21
403.825561
 31
0.0
  0
LINE
  8
0
 10
-421.343519
 20
403.825561
 30
0.0
 11
-421.344929
 21
403.81418
 31
0.0
  0
LINE
  8
0
 10
-421.340162
 20
403.859806
 30
0.0
 11
-421.340181
 21
403.859569
 31
0.0
  0
LINE
  8
0
 10
-421.344929
 20
403.81418
 30
0.0
 11
-421.347034
 21
403.799033
 31
0.0
  0
ARC
  8
0
 10
-422.246939
 20
403.93189
 30
0.0
 40
0.909659
 50
349.672152
 51
351.601829
  0
LINE
  8
0
 10
-421.352018
 20
403.768806
 30
0.0
 11
-421.354901
 21
403.753698
 31
0.0
  0
LINE
  8
0
 10
-421.354901
 20
403.753698
 30
0.0
 11
-421.358041
 21
403.738623
 31
0.0
  0
ARC
  8
0
 10
-422.266976
 20
403.935924
 30
0.0
 40
0.930103
 50
345.196898
 51
347.752871
  0
LINE
  8
0
 10
-421.367744
 20
403.698285
 30
0.0
 11
-421.373275
 21
403.678247
 31
0.0
  0
ARC
  8
0
 10
-422.288657
 20
403.941913
 30
0.0
 40
0.952599
 50
341.377634
 51
343.931545
  0
LINE
  8
0
 10
-421.385933
 20
403.63772
 30
0.0
 11
-421.392943
 21
403.617645
 31
0.0
  0
ARC
  8
0
 10
-422.31263
 20
403.950255
 30
0.0
 40
0.977984
 50
337.549986
 51
340.117188
  0
LINE
  8
0
 10
-421.408764
 20
403.576785
 30
0.0
 11
-421.417363
 21
403.556606
 31
0.0
  0
ARC
  8
0
 10
-422.337162
 20
403.960702
 30
0.0
 40
1.004652
 50
333.839872
 51
336.282642
  0
LINE
  8
0
 10
-421.435422
 20
403.51777
 30
0.0
 11
-421.445073
 21
403.49863
 31
0.0
  0
ARC
  8
0
 10
-422.35901
 20
403.971655
 30
0.0
 40
1.029094
 50
330.77031
 51
332.635361
  0
LINE
  8
0
 10
-421.460952
 20
403.469136
 30
0.0
 11
-421.470117
 21
403.45309
 31
0.0
  0
ARC
  8
0
 10
-422.377882
 20
403.982438
 30
0.0
 40
1.050831
 50
327.735361
 51
329.75212
  0
LINE
  8
0
 10
-421.489308
 20
403.421472
 30
0.0
 11
-421.500092
 21
403.404739
 31
0.0
  0
ARC
  8
0
 10
-422.397881
 20
403.995302
 30
0.0
 40
1.074611
 50
324.538033
 51
326.663187
  0
LINE
  8
0
 10
-421.522609
 20
403.371853
 30
0.0
 11
-421.531413
 21
403.359671
 31
0.0
  0
LINE
  8
0
 10
-421.531413
 20
403.359671
 30
0.0
 11
-421.54039
 21
403.347604
 31
0.0
  0
ARC
  8
0
 10
-422.418191
 20
404.010023
 30
0.0
 40
1.099697
 50
322.019955
 51
322.960517
  0
LINE
  8
0
 10
-421.551382
 20
403.333284
 30
0.0
 11
-421.560079
 21
403.322289
 31
0.0
  0
LINE
  8
0
 10
-421.560079
 20
403.322289
 30
0.0
 11
-421.568915
 21
403.311405
 31
0.0
  0
ARC
  8
0
 10
-422.429612
 20
404.019115
 30
0.0
 40
1.114294
 50
319.59761
 51
320.571174
  0
LINE
  8
0
 10
-421.581064
 20
403.296883
 30
0.0
 11
-421.586954
 21
403.290019
 31
0.0
  0
LINE
  8
0
 10
-421.586954
 20
403.290019
 30
0.0
 11
-421.592895
 21
403.28321
 31
0.0
  0
ARC
  8
0
 10
-422.317275
 20
403.856617
 30
0.0
 40
0.916299
 50
301.663552
 51
304.044679
  0
ARC
  8
0
 10
-422.40281
 20
403.988641
 30
0.0
 40
1.073584
 50
303.882527
 51
306.238676
  0
ARC
  8
0
 10
-422.409137
 20
403.997293
 30
0.0
 40
1.084303
 50
306.238059
 51
308.572896
  0
ARC
  8
0
 10
-422.414344
 20
404.003857
 30
0.0
 40
1.092682
 50
308.57179
 51
310.890357
  0
ARC
  8
0
 10
-422.418037
 20
404.0081
 30
0.0
 40
1.098307
 50
310.89108
 51
313.198876
  0
ARC
  8
0
 10
-422.419972
 20
404.010217
 30
0.0
 40
1.101174
 50
313.196876
 51
315.499172
  0
ARC
  8
0
 10
-421.846205
 20
403.912652
 30
0.0
 40
0.508405
 50
357.085706
 51
357.974932
  0
ARC
  8
0
 10
-422.213398
 20
403.928519
 30
0.0
 40
0.875935
 50
356.385019
 51
357.270349
  0
ARC
  8
0
 10
-422.21685
 20
403.928738
 30
0.0
 40
0.879394
 50
355.504208
 51
356.384955
  0
ARC
  8
0
 10
-421.374273
 20
403.929178
 30
0.0
 40
0.036841
 50
357.388151
 51
358.007632
  0
ARC
  8
0
 10
-421.373951
 20
403.929107
 30
0.0
 40
0.036517
 50
358.101292
 51
358.724439
  0
ARC
  8
0
 10
-421.37365
 20
403.929041
 30
0.0
 40
0.036215
 50
358.818656
 51
359.445241
  0
ARC
  8
0
 10
-421.373358
 20
403.929069
 30
0.0
 40
0.035923
 50
359.394886
 51
0.024909
  0
ARC
  8
0
 10
-421.595833
 20
403.285802
 30
0.0
 40
0.003918
 50
318.580881
 51
319.047268
  0
ARC
  8
0
 10
-421.595725
 20
403.28563
 30
0.0
 40
0.003725
 50
319.954131
 51
320.434727
  0
ARC
  8
0
 10
-421.595504
 20
403.285582
 30
0.0
 40
0.003524
 50
318.743167
 51
319.23866
  0
ARC
  8
0
 10
-421.595401
 20
403.285421
 30
0.0
 40
0.003342
 50
320.184564
 51
320.6961
  0
ARC
  8
0
 10
-421.595299
 20
403.285375
 30
0.0
 40
0.003234
 50
320.176084
 51
320.70458
  0
ARC
  8
0
 10
-421.595094
 20
403.285226
 30
0.0
 40
0.002981
 50
320.437407
 51
320.983779
  0
ARC
  8
0
 10
-421.594998
 20
403.285082
 30
0.0
 40
0.002816
 50
322.022948
 51
322.588571
  0
LINE
  8
0
 10
-422.319982
 20
532.905204
 30
0.0
 11
-425.0479
 21
532.95282
 31
0.0
  0
LINE
  8
0
 10
-425.0479
 20
532.95282
 30
0.0
 11
-427.995022
 21
533.004262
 31
0.0
  0
ARC
  8
0
 10
-422.337921
 20
532.006697
 30
0.0
 40
0.898793
 50
80.320218
 51
81.920578
  0
LINE
  8
0
 10
-422.186796
 20
532.892694
 30
0.0
 11
-422.174458
 21
532.890501
 31
0.0
  0
ARC
  8
0
 10
-422.34028
 20
531.993709
 30
0.0
 40
0.911994
 50
77.881931
 51
79.524
  0
LINE
  8
0
 10
-422.148828
 20
532.885381
 30
0.0
 11
-422.136091
 21
532.882552
 31
0.0
  0
ARC
  8
0
 10
-422.343625
 20
531.978691
 30
0.0
 40
0.927381
 50
75.394384
 51
77.068537
  0
LINE
  8
0
 10
-422.109773
 20
532.876103
 30
0.0
 11
-422.096706
 21
532.872597
 31
0.0
  0
ARC
  8
0
 10
-422.348066
 20
531.962333
 30
0.0
 40
0.944332
 50
72.864619
 51
74.563064
  0
LINE
  8
0
 10
-422.069837
 20
532.864747
 30
0.0
 11
-422.056508
 21
532.860531
 31
0.0
  0
ARC
  8
0
 10
-422.353584
 20
531.944891
 30
0.0
 40
0.962627
 50
70.315516
 51
72.024503
  0
LINE
  8
0
 10
-422.029333
 20
532.851264
 30
0.0
 11
-422.015866
 21
532.846334
 31
0.0
  0
ARC
  8
0
 10
-422.359807
 20
531.927915
 30
0.0
 40
0.980709
 50
67.969911
 51
69.469435
  0
LINE
  8
0
 10
-421.99195
 20
532.837019
 30
0.0
 11
-421.980095
 21
532.832132
 31
0.0
  0
ARC
  8
0
 10
-422.366233
 20
531.91229
 30
0.0
 40
0.997603
 50
65.722261
 51
67.227973
  0
LINE
  8
0
 10
-421.956058
 20
532.821668
 30
0.0
 11
-421.944152
 21
532.816204
 31
0.0
  0
ARC
  8
0
 10
-422.373276
 20
531.897033
 30
0.0
 40
1.014408
 50
63.46301
 51
64.973992
  0
LINE
  8
0
 10
-421.920064
 20
532.804569
 30
0.0
 11
-421.908144
 21
532.798519
 31
0.0
  0
ARC
  8
0
 10
-422.380668
 20
531.882473
 30
0.0
 40
1.030738
 50
61.197925
 51
62.713949
  0
LINE
  8
0
 10
-421.884074
 20
532.785697
 30
0.0
 11
-421.872174
 21
532.779053
 31
0.0
  0
ARC
  8
0
 10
-422.38833
 20
531.868797
 30
0.0
 40
1.046415
 50
58.923538
 51
60.444833
  0
LINE
  8
0
 10
-421.84819
 20
532.765029
 30
0.0
 11
-421.836344
 21
532.757784
 31
0.0
  0
LINE
  8
0
 10
-422.319901
 20
532.905181
 30
0.0
 11
-422.319982
 21
532.905204
 31
0.0
  0
ARC
  8
0
 10
-422.334642
 20
532.040076
 30
0.0
 40
0.865231
 50
87.911796
 51
89.023784
  0
ARC
  8
0
 10
-422.334707
 20
532.036442
 30
0.0
 40
0.868864
 50
86.81093
 51
87.916272
  0
ARC
  8
0
 10
-422.461224
 20
529.981637
 30
0.0
 40
2.92755
 50
86.383363
 51
86.575877
  0
ARC
  8
0
 10
-422.329349
 20
532.106211
 30
0.0
 40
0.798892
 50
85.116204
 51
86.210774
  0
ARC
  8
0
 10
-422.335579
 20
532.025254
 30
0.0
 40
0.880086
 50
84.073334
 51
85.1608
  0
ARC
  8
0
 10
-422.336084
 20
532.020234
 30
0.0
 40
0.885132
 50
82.994229
 51
84.074361
  0
ARC
  8
0
 10
-422.33674
 20
532.014883
 30
0.0
 40
0.890522
 50
81.921765
 51
82.994334
  0
ARC
  8
0
 10
-421.836483
 20
532.757582
 30
0.0
 40
0.000245
 50
53.454745
 51
55.4699
  0
ARC
  8
0
 10
-421.836476
 20
532.757577
 30
0.0
 40
0.000245
 50
53.458297
 51
55.466348
  0
ARC
  8
0
 10
-421.83647
 20
532.757571
 30
0.0
 40
0.000247
 50
53.464255
 51
55.460389
  0
ARC
  8
0
 10
-421.836493
 20
532.757563
 30
0.0
 40
0.000267
 50
48.409117
 51
50.388293
  0
ARC
  8
0
 10
-421.836488
 20
532.757555
 30
0.0
 40
0.00027
 50
48.419774
 51
50.377638
  0
ARC
  8
0
 10
-421.836484
 20
532.757576
 30
0.0
 40
0.000252
 50
44.033901
 51
45.966098
  0
ARC
  8
0
 10
-421.836481
 20
532.757567
 30
0.0
 40
0.000256
 50
44.048683
 51
45.951318
  0
ARC
  8
0
 10
-421.836478
 20
532.757558
 30
0.0
 40
0.00026
 50
44.065297
 51
45.934703
  0
ARC
  8
0
 10
-421.836507
 20
532.757548
 30
0.0
 40
0.000288
 50
39.684697
 51
41.517893
  0
LINE
  8
0
 10
-421.836285
 20
532.757732
 30
0.0
 11
-421.836282
 21
532.757729
 31
0.0
  0
LINE
  8
0
 10
-421.63457
 20
532.596059
 30
0.0
 11
-421.634592
 21
532.596081
 31
0.0
  0
ARC
  8
0
 10
-422.419423
 20
531.824836
 30
0.0
 40
1.100354
 50
44.499767
 51
46.087522
  0
ARC
  8
0
 10
-422.419204
 20
531.825015
 30
0.0
 40
1.100073
 50
46.089282
 51
47.678871
  0
ARC
  8
0
 10
-422.417485
 20
531.826972
 30
0.0
 40
1.097468
 50
47.676455
 51
49.269482
  0
ARC
  8
0
 10
-422.41483
 20
531.830013
 30
0.0
 40
1.093432
 50
49.270933
 51
50.86923
  0
ARC
  8
0
 10
-422.411502
 20
531.834123
 30
0.0
 40
1.088143
 50
50.868553
 51
52.473954
  0
ARC
  8
0
 10
-422.407577
 20
531.839225
 30
0.0
 40
1.081706
 50
52.47422
 51
54.08833
  0
ARC
  8
0
 10
-422.403136
 20
531.845313
 30
0.0
 40
1.074171
 50
54.089725
 51
55.714148
  0
ARC
  8
0
 10
-422.398253
 20
531.852529
 30
0.0
 40
1.065458
 50
55.712529
 51
57.349098
  0
LINE
  8
0
 10
-421.823418
 20
532.749616
 30
0.0
 11
-421.836282
 21
532.757729
 31
0.0
  0
ARC
  8
0
 10
-421.57934
 20
532.532677
 30
0.0
 40
0.001833
 50
34.386522
 51
35.262456
  0
ARC
  8
0
 10
-421.579486
 20
532.53259
 30
0.0
 40
0.002001
 50
34.890206
 51
35.732221
  0
ARC
  8
0
 10
-421.579568
 20
532.532497
 30
0.0
 40
0.002123
 50
36.465047
 51
37.274748
  0
ARC
  8
0
 10
-421.579652
 20
532.532472
 30
0.0
 40
0.002205
 50
36.480173
 51
37.259622
  0
ARC
  8
0
 10
-421.579738
 20
532.532369
 30
0.0
 40
0.002336
 50
37.992085
 51
38.742886
  0
ARC
  8
0
 10
-421.579906
 20
532.53226
 30
0.0
 40
0.002535
 50
38.298044
 51
39.021573
  0
ARC
  8
0
 10
-421.579999
 20
532.532226
 30
0.0
 40
0.002629
 50
38.310878
 51
39.008738
  0
LINE
  8
0
 10
-421.577956
 20
532.533881
 30
0.0
 11
-421.577967
 21
532.533893
 31
0.0
  0
ARC
  8
0
 10
-422.422565
 20
531.821567
 30
0.0
 40
1.104877
 50
37.984461
 51
40.143989
  0
LINE
  8
0
 10
-421.551725
 20
532.501561
 30
0.0
 11
-421.539048
 21
532.485004
 31
0.0
  0
ARC
  8
0
 10
-422.410486
 20
531.830744
 30
0.0
 40
1.089706
 50
34.689528
 51
36.898556
  0
LINE
  8
0
 10
-421.514477
 20
532.450928
 30
0.0
 11
-421.502684
 21
532.433529
 31
0.0
  0
ARC
  8
0
 10
-422.390148
 20
531.844496
 30
0.0
 40
1.065154
 50
31.332396
 51
33.573277
  0
LINE
  8
0
 10
-421.480331
 20
532.398378
 30
0.0
 11
-421.46968
 21
532.380484
 31
0.0
  0
ARC
  8
0
 10
-422.366618
 20
531.858508
 30
0.0
 40
1.037765
 50
27.89235
 51
30.197396
  0
LINE
  8
0
 10
-421.449412
 20
532.343987
 30
0.0
 11
-421.439843
 21
532.325451
 31
0.0
  0
ARC
  8
0
 10
-422.342275
 20
531.871097
 30
0.0
 40
1.010357
 50
24.367379
 51
26.724215
  0
LINE
  8
0
 10
-421.421922
 20
532.287956
 30
0.0
 11
-421.413556
 21
532.268957
 31
0.0
  0
ARC
  8
0
 10
-422.318243
 20
531.881718
 30
0.0
 40
0.984079
 50
20.762208
 51
23.172667
  0
LINE
  8
0
 10
-421.39807
 20
532.230565
 30
0.0
 11
-421.39095
 21
532.211157
 31
0.0
  0
ARC
  8
0
 10
-422.294849
 20
531.890367
 30
0.0
 40
0.959135
 50
17.075516
 51
19.539598
  0
LINE
  8
0
 10
-421.377994
 20
532.171999
 30
0.0
 11
-421.372163
 21
532.152252
 31
0.0
  0
ARC
  8
0
 10
-422.273043
 20
531.896883
 30
0.0
 40
0.936375
 50
13.344987
 51
15.826256
  0
LINE
  8
0
 10
-421.361952
 20
532.113011
 30
0.0
 11
-421.357499
 21
532.093276
 31
0.0
  0
ARC
  8
0
 10
-422.25525
 20
531.900983
 30
0.0
 40
0.918114
 50
10.218979
 51
12.089759
  0
LINE
  8
0
 10
-421.3517
 20
532.063866
 30
0.0
 11
-421.349169
 21
532.049131
 31
0.0
  0
ARC
  8
0
 10
-422.263966
 20
531.900065
 30
0.0
 40
0.926863
 50
7.451156
 51
9.255019
  0
LINE
  8
0
 10
-421.34493
 20
532.020261
 30
0.0
 11
-421.344844
 21
532.019602
 31
0.0
  0
ARC
  8
0
 10
-422.236477
 20
531.904
 30
0.0
 40
0.899096
 50
5.957464
 51
7.387319
  0
LINE
  8
0
 10
-421.342237
 20
531.997317
 30
0.0
 11
-421.341138
 21
531.986098
 31
0.0
  0
LINE
  8
0
 10
-421.341138
 20
531.986098
 30
0.0
 11
-421.340181
 21
531.974872
 31
0.0
  0
ARC
  8
0
 10
-422.187378
 20
532.026157
 30
0.0
 40
0.79316
 50
40.459785
 51
41.437245
  0
LINE
  8
0
 10
-421.583893
 20
532.54085
 30
0.0
 11
-421.577828
 21
532.533712
 31
0.0
  0
LINE
  8
0
 10
-421.340181
 20
531.974872
 30
0.0
 11
-421.340162
 21
531.974636
 31
0.0
  0
ARC
  8
0
 10
-421.37341
 20
531.905372
 30
0.0
 40
0.035975
 50
359.974015
 51
0.604725
  0
ARC
  8
0
 10
-421.373611
 20
531.905402
 30
0.0
 40
0.036175
 50
0.554415
 51
1.181688
  0
ARC
  8
0
 10
-421.37391
 20
531.905336
 30
0.0
 40
0.036476
 50
1.275217
 51
1.899052
  0
ARC
  8
0
 10
-421.374218
 20
531.905266
 30
0.0
 40
0.036787
 50
1.99191
 51
2.612307
  0
ARC
  8
0
 10
-421.594975
 20
532.549377
 30
0.0
 40
0.002787
 50
37.40845
 51
37.980031
  0
ARC
  8
0
 10
-421.595173
 20
532.549236
 30
0.0
 40
0.00303
 50
37.770877
 51
38.323208
  0
ARC
  8
0
 10
-421.595273
 20
532.549088
 30
0.0
 40
0.003201
 50
39.29267
 51
39.826666
  0
ARC
  8
0
 10
-421.595374
 20
532.549043
 30
0.0
 40
0.003307
 50
39.301264
 51
39.818071
  0
ARC
  8
0
 10
-421.595477
 20
532.548883
 30
0.0
 40
0.003489
 50
40.758819
 51
41.259354
  0
ARC
  8
0
 10
-421.595698
 20
532.548834
 30
0.0
 40
0.003689
 50
39.562981
 51
40.048161
  0
ARC
  8
0
 10
-421.595806
 20
532.548664
 30
0.0
 40
0.003882
 50
40.950554
 51
41.421296
  0
ARC
  8
0
 10
-422.418827
 20
531.825287
 30
0.0
 40
1.099612
 50
41.302605
 51
42.10268
  0
ARC
  8
0
 10
-422.419579
 20
531.824583
 30
0.0
 40
1.100642
 50
42.103648
 51
42.903035
  0
ARC
  8
0
 10
-422.420099
 20
531.824145
 30
0.0
 40
1.101321
 50
42.90127
 51
43.700199
  0
ARC
  8
0
 10
-422.420322
 20
531.823912
 30
0.0
 40
1.101643
 50
43.700984
 51
44.499684
  0
ARC
  8
0
 10
-422.048957
 20
531.908454
 30
0.0
 40
0.711528
 50
359.750501
 51
2.512024
  0
ARC
  8
0
 10
-422.200975
 20
531.906834
 30
0.0
 40
0.86348
 50
3.619215
 51
4.503628
  0
ARC
  8
0
 10
-422.212829
 20
531.905966
 30
0.0
 40
0.875364
 50
2.737906
 51
3.626903
  0
ARC
  8
0
 10
-422.209587
 20
531.906097
 30
0.0
 40
0.87212
 50
1.846124
 51
2.739475
  0
ARC
  8
0
 10
-422.206582
 20
531.906197
 30
0.0
 40
0.869113
 50
0.948226
 51
1.845931
  0
ARC
  8
0
 10
-422.203687
 20
531.906267
 30
0.0
 40
0.866217
 50
0.044734
 51
0.946794
  0
LINE
  8
0
 10
-509.537435
 20
551.122736
 30
0.0
 11
-507.781902
 21
552.878269
 31
0.0
  0
LINE
  8
0
 10
-509.537435
 20
544.051669
 30
0.0
 11
-500.710835
 21
552.878269
 31
0.0
  0
LINE
  8
0
 10
-509.537435
 20
536.980601
 30
0.0
 11
-493.639767
 21
552.878269
 31
0.0
  0
LINE
  8
0
 10
-509.537435
 20
529.909533
 30
0.0
 11
-489.537435
 21
549.909533
 31
0.0
  0
LINE
  8
0
 10
-509.537435
 20
522.838465
 30
0.0
 11
-489.537435
 21
542.838465
 31
0.0
  0
LINE
  8
0
 10
-509.537435
 20
515.767397
 30
0.0
 11
-489.537435
 21
535.767397
 31
0.0
  0
LINE
  8
0
 10
-509.537435
 20
508.69633
 30
0.0
 11
-489.537435
 21
528.69633
 31
0.0
  0
LINE
  8
0
 10
-509.537435
 20
501.625262
 30
0.0
 11
-489.537435
 21
521.625262
 31
0.0
  0
LINE
  8
0
 10
-509.537435
 20
494.554194
 30
0.0
 11
-489.537435
 21
514.554194
 31
0.0
  0
LINE
  8
0
 10
-509.537435
 20
487.483126
 30
0.0
 11
-489.537435
 21
507.483126
 31
0.0
  0
LINE
  8
0
 10
-509.537435
 20
480.412058
 30
0.0
 11
-489.537435
 21
500.412058
 31
0.0
  0
LINE
  8
0
 10
-509.537435
 20
473.340991
 30
0.0
 11
-489.537435
 21
493.340991
 31
0.0
  0
LINE
  8
0
 10
-509.537435
 20
466.269923
 30
0.0
 11
-489.537435
 21
486.269923
 31
0.0
  0
LINE
  8
0
 10
-509.537435
 20
459.198855
 30
0.0
 11
-489.537435
 21
479.198855
 31
0.0
  0
LINE
  8
0
 10
-509.537435
 20
452.127787
 30
0.0
 11
-489.537435
 21
472.127787
 31
0.0
  0
LINE
  8
0
 10
-509.537435
 20
445.056719
 30
0.0
 11
-489.537435
 21
465.056719
 31
0.0
  0
LINE
  8
0
 10
-509.537435
 20
437.985651
 30
0.0
 11
-489.537435
 21
457.985651
 31
0.0
  0
LINE
  8
0
 10
-509.537435
 20
430.914584
 30
0.0
 11
-489.537435
 21
450.914584
 31
0.0
  0
LINE
  8
0
 10
-509.537435
 20
423.843516
 30
0.0
 11
-489.537435
 21
443.843516
 31
0.0
  0
LINE
  8
0
 10
-509.537435
 20
416.772448
 30
0.0
 11
-489.537435
 21
436.772448
 31
0.0
  0
LINE
  8
0
 10
-509.537435
 20
409.70138
 30
0.0
 11
-489.537435
 21
429.70138
 31
0.0
  0
LINE
  8
0
 10
-509.537435
 20
402.630312
 30
0.0
 11
-489.537435
 21
422.630312
 31
0.0
  0
LINE
  8
0
 10
-509.537435
 20
395.559245
 30
0.0
 11
-489.537435
 21
415.559245
 31
0.0
  0
LINE
  8
0
 10
-509.537435
 20
388.488177
 30
0.0
 11
-489.537435
 21
408.488177
 31
0.0
  0
LINE
  8
0
 10
-508.076275
 20
382.878269
 30
0.0
 11
-489.537435
 21
401.417109
 31
0.0
  0
LINE
  8
0
 10
-501.005207
 20
382.878269
 30
0.0
 11
-489.537435
 21
394.346041
 31
0.0
  0
LINE
  8
0
 10
-493.934139
 20
382.878269
 30
0.0
 11
-489.537435
 21
387.274973
 31
0.0
  0
ENDSEC
  0
EOF
