  0
SECTION
  2
HEADER
  9
$ACADVER
  1
AC1009
  9
$INSBASE
 10
0.0
 20
0.0
 30
0.0
  9
$EXTMIN
 10
117.55942
 20
252.952541
 30
0.0
  9
$EXTMAX
 10
128.285983
 20
262.281449
 30
0.0
  9
$LIMMIN
 10
117.55942
 20
252.952541
  9
$LIMMAX
 10
128.285983
 20
262.281449
  9
$ORTHOMODE
 70
     0
  9
$REGENMODE
 70
     1
  9
$FILLMODE
 70
     1
  9
$QTEXTMODE
 70
     0
  9
$MIRRTEXT
 70
     1
  9
$DRAGMODE
 70
     2
  9
$LTSCALE
 40
1.0
  9
$OSMODE
 70
     0
  9
$ATTMODE
 70
     1
  9
$TEXTSIZE
 40
3.5
  9
$TRACEWID
 40
0.5
  9
$TEXTSTYLE
  7
STANDARD
  9
$CLAYER
  8
0
  9
$CELTYPE
  6
BYLAYER
  9
$CECOLOR
 62
   256
  9
$DIMSCALE
 40
1.0
  9
$DIMASZ
 40
0.18
  9
$DIMEXO
 40
0.0625
  9
$DIMDLI
 40
0.38
  9
$DIMRND
 40
0.0
  9
$DIMDLE
 40
0.0
  9
$DIMEXE
 40
0.18
  9
$DIMTP
 40
0.0
  9
$DIMTM
 40
0.0
  9
$DIMTXT
 40
0.18
  9
$DIMCEN
 40
0.09
  9
$DIMTSZ
 40
0.0
  9
$DIMTOL
 70
     0
  9
$DIMLIM
 70
     0
  9
$DIMTIH
 70
     1
  9
$DIMTOH
 70
     1
  9
$DIMSE1
 70
     0
  9
$DIMSE2
 70
     0
  9
$DIMTAD
 70
     0
  9
$DIMZIN
 70
     0
  9
$DIMBLK
  1

  9
$DIMASO
 70
     1
  9
$DIMSHO
 70
     1
  9
$DIMPOST
  1

  9
$DIMAPOST
  1

  9
$DIMALT
 70
     0
  9
$DIMALTD
 70
     2
  9
$DIMALTF
 40
25.4
  9
$DIMLFAC
 40
1.0
  9
$DIMTOFL
 70
     0
  9
$DIMTVP
 40
0.0
  9
$DIMTIX
 70
     0
  9
$DIMSOXD
 70
     0
  9
$DIMSAH
 70
     0
  9
$DIMBLK1
  1

  9
$DIMBLK2
  1

  9
$DIMSTYLE
  2
*UNNAMED
  9
$DIMCLRD
 70
     0
  9
$DIMCLRE
 70
     0
  9
$DIMCLRT
 70
     0
  9
$DIMTFAC
 40
1.0
  9
$DIMGAP
 40
0.09
  9
$LUNITS
 70
     2
  9
$LUPREC
 70
     4
  9
$SKETCHINC
 40
0.1
  9
$FILLETRAD
 40
2.0
  9
$AUNITS
 70
     0
  9
$AUPREC
 70
     0
  9
$MENU
  1
ACAD
  9
$ELEVATION
 40
0.0
  9
$PELEVATION
 40
0.0
  9
$THICKNESS
 40
0.0
  9
$LIMCHECK
 70
     0
  9
$BLIPMODE
 70
     1
  9
$CHAMFERA
 40
0.0
  9
$CHAMFERB
 40
0.0
  9
$SKPOLY
 70
     0
  9
$TDCREATE
 40
2451215.718188310
  9
$TDUPDATE
 40
2451215.718473727
  9
$TDINDWG
 40
0.0002047454
  9
$TDUSRTIMER
 40
0.0002047454
  9
$USRTIMER
 70
     1
  9
$ANGBASE
 50
0.0
  9
$ANGDIR
 70
     0
  9
$PDMODE
 70
     0
  9
$PDSIZE
 40
0.0
  9
$PLINEWID
 40
0.0
  9
$COORDS
 70
     2
  9
$SPLFRAME
 70
     0
  9
$SPLINETYPE
 70
     6
  9
$SPLINESEGS
 70
     8
  9
$ATTDIA
 70
     0
  9
$ATTREQ
 70
     1
  9
$HANDLING
 70
     0
  9
$HANDSEED
  5
0
  9
$SURFTAB1
 70
     6
  9
$SURFTAB2
 70
     6
  9
$SURFTYPE
 70
     6
  9
$SURFU
 70
     6
  9
$SURFV
 70
     6
  9
$UCSNAME
  2

  9
$UCSORG
 10
0.0
 20
0.0
 30
0.0
  9
$UCSXDIR
 10
1.0
 20
0.0
 30
0.0
  9
$UCSYDIR
 10
0.0
 20
1.0
 30
0.0
  9
$PUCSNAME
  2

  9
$PUCSORG
 10
0.0
 20
0.0
 30
0.0
  9
$PUCSXDIR
 10
1.0
 20
0.0
 30
0.0
  9
$PUCSYDIR
 10
0.0
 20
1.0
 30
0.0
  9
$USERI1
 70
     0
  9
$USERI2
 70
     0
  9
$USERI3
 70
     0
  9
$USERI4
 70
     0
  9
$USERI5
 70
     0
  9
$USERR1
 40
0.0
  9
$USERR2
 40
0.0
  9
$USERR3
 40
0.0
  9
$USERR4
 40
0.0
  9
$USERR5
 40
0.0
  9
$WORLDVIEW
 70
     1
  9
$SHADEDGE
 70
     3
  9
$SHADEDIF
 70
    70
  9
$TILEMODE
 70
     1
  9
$MAXACTVP
 70
    16
  9
$PINSBASE
 10
0.0
 20
0.0
 30
0.0
  9
$PLIMCHECK
 70
     0
  9
$PEXTMIN
 10
1.000000E+20
 20
1.000000E+20
 30
1.000000E+20
  9
$PEXTMAX
 10
-1.000000E+20
 20
-1.000000E+20
 30
-1.000000E+20
  9
$PLIMMIN
 10
0.0
 20
0.0
  9
$PLIMMAX
 10
420.0
 20
297.0
  9
$UNITMODE
 70
     0
  9
$VISRETAIN
 70
     0
  9
$PLINEGEN
 70
     0
  9
$PSLTSCALE
 70
     1
  9
$TREEDEPTH
 70
  3020
  9
$DWGCODEPAGE
  3
iso8859-1
  0
ENDSEC
  0
SECTION
  2
TABLES
  0
TABLE
  2
VPORT
 70
     2
  0
VPORT
  2
*ACTIVE
 70
     0
 10
0.0
 20
0.0
 11
1.0
 21
1.0
 12
125.997361
 22
257.993167
 13
0.0
 23
0.0
 14
1.0
 24
1.0
 15
0.0
 25
0.0
 16
0.0
 26
0.0
 36
1.0
 17
0.0
 27
0.0
 37
0.0
 40
11.991315
 41
1.658281
 42
50.0
 43
0.0
 44
0.0
 50
0.0
 51
0.0
 71
     0
 72
   100
 73
     1
 74
     0
 75
     0
 76
     0
 77
     0
 78
     0
  0
ENDTAB
  0
TABLE
  2
LTYPE
 70
     1
  0
LTYPE
  2
CONTINUOUS
 70
    64
  3
Solid line
 72
    65
 73
     0
 40
0.0
  0
ENDTAB
  0
TABLE
  2
LAYER
 70
     1
  0
LAYER
  2
0
 70
    64
 62
     7
  6
CONTINUOUS
  0
ENDTAB
  0
TABLE
  2
STYLE
 70
     1
  0
STYLE
  2
STANDARD
 70
     0
 40
0.0
 41
1.0
 50
0.0
 71
     0
 42
3.5
  3
txt
  4

  0
ENDTAB
  0
TABLE
  2
VIEW
 70
     0
  0
ENDTAB
  0
TABLE
  2
UCS
 70
     0
  0
ENDTAB
  0
TABLE
  2
APPID
 70
     1
  0
APPID
  2
ACAD
 70
    64
  0
ENDTAB
  0
TABLE
  2
DIMSTYLE
 70
     0
  0
ENDTAB
  0
ENDSEC
  0
SECTION
  2
BLOCKS
  0
ENDSEC
  0
SECTION
  2
ENTITIES
  0
LINE
  8
0
 62
     7
 10
121.954854
 20
261.535273
 30
0.0
 11
121.860371
 21
261.519972
 31
0.0
  0
LINE
  8
0
 62
     7
 10
121.993986
 20
261.442183
 30
0.0
 11
121.954854
 21
261.535273
 31
0.0
  0
LINE
  8
0
 62
     7
 10
118.946138
 20
259.465099
 30
0.0
 11
119.04062
 21
259.579816
 31
0.0
  0
LINE
  8
0
 62
     7
 10
118.907005
 20
259.318157
 30
0.0
 11
118.946138
 21
259.465099
 31
0.0
  0
LINE
  8
0
 62
     7
 10
121.499423
 20
258.075809
 30
0.0
 11
121.475803
 21
258.04713
 31
0.0
  0
LINE
  8
0
 62
     7
 10
121.509206
 20
258.112544
 30
0.0
 11
121.499423
 21
258.075809
 31
0.0
  0
LINE
  8
0
 62
     7
 10
121.470074
 20
257.94901
 30
0.0
 11
121.375591
 21
257.834292
 31
0.0
  0
LINE
  8
0
 62
     7
 10
121.509206
 20
258.095951
 30
0.0
 11
121.470074
 21
257.94901
 31
0.0
  0
LINE
  8
0
 62
     7
 10
121.954854
 20
257.713472
 30
0.0
 11
121.860371
 21
257.598755
 31
0.0
  0
LINE
  8
0
 62
     7
 10
121.993986
 20
257.860414
 30
0.0
 11
121.954854
 21
257.713472
 31
0.0
  0
LINE
  8
0
 62
     7
 10
121.014643
 20
258.311347
 30
0.0
 11
121.024427
 21
258.348082
 31
0.0
  0
LINE
  8
0
 62
     7
 10
120.991023
 20
258.282667
 30
0.0
 11
121.014643
 21
258.311347
 31
0.0
  0
LINE
  8
0
 62
     7
 10
118.946138
 20
255.643297
 30
0.0
 11
119.04062
 21
255.658599
 31
0.0
  0
LINE
  8
0
 62
     7
 10
118.907005
 20
255.736388
 30
0.0
 11
118.946138
 21
255.643297
 31
0.0
  0
LINE
  8
0
 62
     7
 10
127.657896
 20
259.961575
 30
0.0
 11
127.513121
 21
260.031711
 31
0.0
  0
LINE
  8
0
 62
     7
 10
127.269443
 20
256.241606
 30
0.0
 11
124.570914
 21
254.384858
 31
0.0
  0
LINE
  8
0
 62
     7
 10
127.403079
 20
256.503305
 30
0.0
 11
127.403079
 21
259.955995
 31
0.0
  0
LINE
  8
0
 62
     7
 10
128.031166
 20
261.484756
 30
0.0
 11
127.717122
 21
261.268676
 31
0.0
  0
LINE
  8
0
 62
     7
 10
123.68801
 20
252.979545
 30
0.0
 11
123.68801
 21
258.496408
 31
0.0
  0
LINE
  8
0
 62
     7
 10
123.68801
 20
258.496408
 30
0.0
 11
124.002054
 21
258.712489
 31
0.0
  0
LINE
  8
0
 62
     7
 10
128.086907
 20
261.457752
 30
0.0
 11
126.082374
 21
260.078515
 31
0.0
  0
LINE
  8
0
 62
     7
 10
128.086907
 20
261.457752
 30
0.0
 11
128.031166
 21
261.484756
 31
0.0
  0
LINE
  8
0
 62
     7
 10
126.026632
 20
260.105519
 30
0.0
 11
127.717122
 21
261.268676
 31
0.0
  0
LINE
  8
0
 62
     7
 10
126.082374
 20
260.078515
 30
0.0
 11
126.026632
 21
260.105519
 31
0.0
  0
LINE
  8
0
 62
     7
 10
124.70455
 20
258.099248
 30
0.0
 11
127.52426
 21
260.039375
 31
0.0
  0
LINE
  8
0
 62
     7
 10
128.285983
 20
260.563486
 30
0.0
 11
127.52426
 21
260.039375
 31
0.0
  0
LINE
  8
0
 62
     7
 10
127.657896
 20
256.379858
 30
0.0
 11
127.657896
 21
259.961575
 31
0.0
  0
LINE
  8
0
 62
     7
 10
128.285983
 20
256.642269
 30
0.0
 11
127.52426
 21
256.118159
 31
0.0
  0
LINE
  8
0
 62
     7
 10
128.285983
 20
256.642269
 30
0.0
 11
128.285983
 21
260.563486
 31
0.0
  0
LINE
  8
0
 62
     7
 10
126.082374
 20
260.036077
 30
0.0
 11
126.104373
 21
260.02542
 31
0.0
  0
LINE
  8
0
 62
     7
 10
126.104373
 20
260.02542
 30
0.0
 11
126.082374
 21
260.078515
 31
0.0
  0
LINE
  8
0
 62
     7
 10
126.026632
 20
260.105519
 30
0.0
 11
125.930656
 21
260.152908
 31
0.0
  0
LINE
  8
0
 62
     7
 10
125.930656
 20
260.152908
 30
0.0
 11
126.082374
 21
260.036077
 31
0.0
  0
LINE
  8
0
 62
     7
 10
127.478231
 20
261.386629
 30
0.0
 11
127.717122
 21
261.268676
 31
0.0
  0
LINE
  8
0
 62
     7
 10
126.025185
 20
260.998552
 30
0.0
 11
126.626545
 21
261.412323
 31
0.0
  0
LINE
  8
0
 62
     7
 10
126.025185
 20
260.998552
 30
0.0
 11
126.233026
 21
261.001163
 31
0.0
  0
LINE
  8
0
 62
     7
 10
126.233026
 20
261.001163
 30
0.0
 11
126.834386
 21
261.414935
 31
0.0
  0
LINE
  8
0
 62
     7
 10
126.626545
 20
261.412323
 30
0.0
 11
126.834386
 21
261.414935
 31
0.0
  0
LINE
  8
0
 62
     7
 10
126.319817
 20
260.959117
 30
0.0
 11
126.233026
 21
261.001163
 31
0.0
  0
LINE
  8
0
 62
     7
 10
126.025185
 20
260.998552
 30
0.0
 11
126.319817
 21
260.853076
 31
0.0
  0
LINE
  8
0
 62
     7
 10
126.319817
 20
260.853076
 30
0.0
 11
126.319817
 21
260.959117
 31
0.0
  0
LINE
  8
0
 62
     7
 10
126.319817
 20
260.959117
 30
0.0
 11
126.921177
 21
261.372888
 31
0.0
  0
LINE
  8
0
 62
     7
 10
126.834386
 20
261.414935
 30
0.0
 11
126.921177
 21
261.372888
 31
0.0
  0
LINE
  8
0
 62
     7
 10
126.921177
 20
261.372888
 30
0.0
 11
126.921177
 21
261.266847
 31
0.0
  0
LINE
  8
0
 62
     7
 10
127.478231
 20
261.386629
 30
0.0
 11
126.922636
 21
261.616052
 31
0.0
  0
LINE
  8
0
 62
     7
 10
126.082374
 20
260.036077
 30
0.0
 11
125.762082
 21
259.815698
 31
0.0
  0
LINE
  8
0
 62
     7
 10
125.930656
 20
260.152908
 30
0.0
 11
125.596567
 21
259.923035
 31
0.0
  0
LINE
  8
0
 62
     7
 10
126.082374
 20
254.561651
 30
0.0
 11
126.068179
 21
254.568528
 31
0.0
  0
LINE
  8
0
 62
     7
 10
128.086907
 20
255.940889
 30
0.0
 11
126.082374
 21
254.561651
 31
0.0
  0
LINE
  8
0
 62
     7
 10
126.921177
 20
261.266847
 30
0.0
 11
126.319817
 21
260.853076
 31
0.0
  0
LINE
  8
0
 62
     7
 10
126.104373
 20
260.02542
 30
0.0
 11
125.770284
 21
259.795547
 31
0.0
  0
LINE
  8
0
 62
     7
 10
124.181015
 20
259.729653
 30
0.0
 11
126.025185
 21
260.998552
 31
0.0
  0
LINE
  8
0
 62
     7
 10
126.922636
 20
261.616052
 30
0.0
 11
126.626545
 21
261.412323
 31
0.0
  0
LINE
  8
0
 62
     7
 10
123.283564
 20
259.0103
 30
0.0
 11
123.283564
 21
259.112154
 31
0.0
  0
LINE
  8
0
 62
     7
 10
123.283564
 20
259.112154
 30
0.0
 11
123.579655
 21
259.315882
 31
0.0
  0
LINE
  8
0
 62
     7
 10
124.181015
 20
259.729653
 30
0.0
 11
123.579655
 21
259.315882
 31
0.0
  0
LINE
  8
0
 62
     7
 10
123.874287
 20
259.170406
 30
0.0
 11
124.475647
 21
259.584177
 31
0.0
  0
LINE
  8
0
 62
     7
 10
123.874287
 20
259.170406
 30
0.0
 11
123.579655
 21
259.315882
 31
0.0
  0
LINE
  8
0
 62
     7
 10
123.763163
 20
258.830442
 30
0.0
 11
123.283564
 21
259.112154
 31
0.0
  0
LINE
  8
0
 62
     7
 10
123.763163
 20
258.830442
 30
0.0
 11
124.002054
 21
258.712489
 31
0.0
  0
LINE
  8
0
 62
     7
 10
125.692544
 20
259.875646
 30
0.0
 11
124.002054
 21
258.712489
 31
0.0
  0
LINE
  8
0
 62
     7
 10
125.692544
 20
259.875646
 30
0.0
 11
125.596567
 21
259.923035
 31
0.0
  0
LINE
  8
0
 62
     7
 10
127.657896
 20
256.379858
 30
0.0
 11
127.403079
 21
256.503305
 31
0.0
  0
LINE
  8
0
 62
     7
 10
125.770284
 20
259.795547
 30
0.0
 11
125.748285
 21
259.848642
 31
0.0
  0
LINE
  8
0
 62
     7
 10
123.743752
 20
258.469404
 30
0.0
 11
125.748285
 21
259.848642
 31
0.0
  0
LINE
  8
0
 62
     7
 10
123.942827
 20
257.575138
 30
0.0
 11
124.70455
 21
258.099248
 31
0.0
  0
LINE
  8
0
 62
     7
 10
127.352008
 20
256.549335
 30
0.0
 11
127.352008
 21
259.920856
 31
0.0
  0
LINE
  8
0
 62
     7
 10
127.403079
 20
256.519831
 30
0.0
 11
127.352008
 21
256.549335
 31
0.0
  0
LINE
  8
0
 62
     7
 10
127.52426
 20
256.118159
 30
0.0
 11
127.269443
 21
256.241606
 31
0.0
  0
LINE
  8
0
 62
     7
 10
124.70455
 20
254.178031
 30
0.0
 11
124.571342
 21
254.242565
 31
0.0
  0
LINE
  8
0
 62
     7
 10
124.70455
 20
254.178031
 30
0.0
 11
127.52426
 21
256.118159
 31
0.0
  0
LINE
  8
0
 62
     7
 10
125.795813
 20
255.227661
 30
0.0
 11
125.637642
 21
255.302817
 31
0.0
  0
LINE
  8
0
 62
     7
 10
124.570914
 20
254.568845
 30
0.0
 11
125.637642
 21
255.302817
 31
0.0
  0
LINE
  8
0
 62
     7
 10
125.717823
 20
255.357986
 30
0.0
 11
125.969906
 21
255.390989
 31
0.0
  0
LINE
  8
0
 62
     7
 10
125.969906
 20
255.390989
 30
0.0
 11
126.007338
 21
255.373203
 31
0.0
  0
LINE
  8
0
 62
     7
 10
125.889725
 20
255.335819
 30
0.0
 11
125.969906
 21
255.390989
 31
0.0
  0
LINE
  8
0
 62
     7
 10
125.637642
 20
255.302817
 30
0.0
 11
125.717823
 21
255.357986
 31
0.0
  0
LINE
  8
0
 62
     7
 10
125.637642
 20
255.302817
 30
0.0
 11
125.889725
 21
255.335819
 31
0.0
  0
LINE
  8
0
 62
     7
 10
123.942827
 20
253.653921
 30
0.0
 11
124.70455
 21
254.178031
 31
0.0
  0
LINE
  8
0
 62
     7
 10
123.743752
 20
252.952541
 30
0.0
 11
125.748285
 21
254.331778
 31
0.0
  0
LINE
  8
0
 62
     7
 10
125.770284
 20
254.363558
 30
0.0
 11
125.748285
 21
254.331778
 31
0.0
  0
LINE
  8
0
 62
     7
 10
126.104373
 20
254.593431
 30
0.0
 11
125.770284
 21
254.363558
 31
0.0
  0
LINE
  8
0
 62
     7
 10
126.104373
 20
254.593431
 30
0.0
 11
126.082374
 21
254.561651
 31
0.0
  0
LINE
  8
0
 62
     7
 10
123.68801
 20
253.35177
 30
0.0
 11
123.283564
 21
253.581217
 31
0.0
  0
LINE
  8
0
 62
     7
 10
126.922636
 20
256.186969
 30
0.0
 11
125.717823
 21
255.357986
 31
0.0
  0
LINE
  8
0
 62
     7
 10
123.283564
 20
253.683071
 30
0.0
 11
123.283564
 21
253.581217
 31
0.0
  0
LINE
  8
0
 62
     7
 10
123.283564
 20
253.683071
 30
0.0
 11
123.68801
 21
253.961354
 31
0.0
  0
LINE
  8
0
 62
     7
 10
125.889725
 20
255.335819
 30
0.0
 11
125.927157
 21
255.318033
 31
0.0
  0
LINE
  8
0
 62
     7
 10
127.092419
 20
256.119803
 30
0.0
 11
126.922636
 21
256.186969
 31
0.0
  0
LINE
  8
0
 62
     7
 10
125.748285
 20
259.848642
 30
0.0
 11
125.692544
 21
259.875646
 31
0.0
  0
LINE
  8
0
 62
     7
 10
123.743752
 20
258.469404
 30
0.0
 11
123.68801
 21
258.496408
 31
0.0
  0
LINE
  8
0
 62
     7
 10
123.787495
 20
259.318494
 30
0.0
 11
123.874287
 21
259.276447
 31
0.0
  0
LINE
  8
0
 62
     7
 10
124.475647
 20
259.690218
 30
0.0
 11
123.874287
 21
259.276447
 31
0.0
  0
LINE
  8
0
 62
     7
 10
124.475647
 20
259.690218
 30
0.0
 11
124.388855
 21
259.732265
 31
0.0
  0
LINE
  8
0
 62
     7
 10
124.388855
 20
259.732265
 30
0.0
 11
123.787495
 21
259.318494
 31
0.0
  0
LINE
  8
0
 62
     7
 10
124.646547
 20
254.436898
 30
0.0
 11
124.570914
 21
254.472836
 31
0.0
  0
LINE
  8
0
 62
     7
 10
123.68801
 20
253.453624
 30
0.0
 11
123.283564
 21
253.683071
 31
0.0
  0
LINE
  8
0
 62
     7
 10
123.763163
 20
258.728589
 30
0.0
 11
123.283564
 21
259.0103
 31
0.0
  0
LINE
  8
0
 62
     7
 10
123.763163
 20
258.830442
 30
0.0
 11
123.763163
 21
258.728589
 31
0.0
  0
LINE
  8
0
 62
     7
 10
124.82064
 20
254.600226
 30
0.0
 11
124.858072
 21
254.58244
 31
0.0
  0
LINE
  8
0
 62
     7
 10
124.570914
 20
254.567532
 30
0.0
 11
124.82064
 21
254.600226
 31
0.0
  0
LINE
  8
0
 62
     7
 10
124.740459
 20
254.545056
 30
0.0
 11
124.777891
 21
254.527271
 31
0.0
  0
LINE
  8
0
 62
     7
 10
124.82064
 20
254.600226
 30
0.0
 11
124.740459
 21
254.545056
 31
0.0
  0
LINE
  8
0
 62
     7
 10
123.579655
 20
259.315882
 30
0.0
 11
123.787495
 21
259.318494
 31
0.0
  0
LINE
  8
0
 62
     7
 10
123.874287
 20
259.276447
 30
0.0
 11
123.874287
 21
259.170406
 31
0.0
  0
LINE
  8
0
 62
     7
 10
123.942827
 20
253.653921
 30
0.0
 11
123.942827
 21
257.575138
 31
0.0
  0
LINE
  8
0
 62
     7
 10
124.570914
 20
254.255832
 30
0.0
 11
124.570914
 21
257.837549
 31
0.0
  0
LINE
  8
0
 62
     7
 10
124.181015
 20
259.729653
 30
0.0
 11
124.388855
 21
259.732265
 31
0.0
  0
LINE
  8
0
 62
     7
 10
124.570914
 20
254.52286
 30
0.0
 11
124.740459
 21
254.545056
 31
0.0
  0
LINE
  8
0
 62
     7
 10
124.475647
 20
259.584177
 30
0.0
 11
124.475647
 21
259.690218
 31
0.0
  0
LINE
  8
0
 62
     7
 10
123.743752
 20
252.952541
 30
0.0
 11
123.68801
 21
252.979545
 31
0.0
  0
LINE
  8
0
 62
     7
 10
123.763163
 20
258.728589
 30
0.0
 11
123.91587
 21
258.653189
 31
0.0
  0
LINE
  8
0
 62
     7
 10
117.684659
 20
258.437663
 30
0.0
 11
117.684659
 21
257.814339
 31
0.0
  0
LINE
  8
0
 62
     7
 10
117.55942
 20
259.971843
 30
0.0
 11
117.55942
 21
258.502332
 31
0.0
  0
LINE
  8
0
 62
     7
 10
117.64225
 20
260.028835
 30
0.0
 11
117.55942
 21
259.971843
 31
0.0
  0
LINE
  8
0
 62
     7
 10
117.55942
 20
256.21603
 30
0.0
 11
117.55942
 21
257.685541
 31
0.0
  0
LINE
  8
0
 62
     7
 10
117.684659
 20
257.814339
 30
0.0
 11
117.55942
 21
257.685541
 31
0.0
  0
LINE
  8
0
 62
     7
 10
117.55942
 20
259.971843
 30
0.0
 11
118.187132
 21
259.668657
 31
0.0
  0
LINE
  8
0
 62
     7
 10
120.979292
 20
262.113512
 30
0.0
 11
121.07277
 21
262.071522
 31
0.0
  0
LINE
  8
0
 62
     7
 10
120.525866
 20
261.645389
 30
0.0
 11
120.447085
 21
261.591183
 31
0.0
  0
LINE
  8
0
 62
     7
 10
120.447085
 20
261.591183
 30
0.0
 11
120.604013
 21
261.515386
 31
0.0
  0
LINE
  8
0
 62
     7
 10
120.540161
 20
261.471453
 30
0.0
 11
120.604013
 21
261.515386
 31
0.0
  0
LINE
  8
0
 62
     7
 10
120.079587
 20
261.338323
 30
0.0
 11
120.086365
 21
261.335278
 31
0.0
  0
LINE
  8
0
 62
     7
 10
120.079587
 20
261.338323
 30
0.0
 11
119.678681
 21
261.062475
 31
0.0
  0
LINE
  8
0
 62
     7
 10
119.685263
 20
261.059296
 30
0.0
 11
119.678681
 21
261.062475
 31
0.0
  0
LINE
  8
0
 62
     7
 10
119.317961
 20
260.80657
 30
0.0
 11
119.311183
 21
260.809615
 31
0.0
  0
LINE
  8
0
 62
     7
 10
118.910276
 20
260.533767
 30
0.0
 11
119.311183
 21
260.809615
 31
0.0
  0
LINE
  8
0
 62
     7
 10
118.910276
 20
260.533767
 30
0.0
 11
118.957516
 21
260.51095
 31
0.0
  0
LINE
  8
0
 62
     7
 10
119.004319
 20
260.414702
 30
0.0
 11
118.910505
 21
260.350152
 31
0.0
  0
LINE
  8
0
 62
     7
 10
117.965437
 20
259.883662
 30
0.0
 11
118.120427
 21
259.990304
 31
0.0
  0
LINE
  8
0
 62
     7
 10
117.965437
 20
259.883662
 30
0.0
 11
117.64225
 21
260.028835
 31
0.0
  0
LINE
  8
0
 62
     7
 10
118.311728
 20
259.93045
 30
0.0
 11
118.529449
 21
259.814383
 31
0.0
  0
LINE
  8
0
 62
     7
 10
118.187132
 20
259.844721
 30
0.0
 11
118.311728
 21
259.93045
 31
0.0
  0
LINE
  8
0
 62
     7
 10
118.187132
 20
259.844721
 30
0.0
 11
118.814845
 21
259.541535
 31
0.0
  0
LINE
  8
0
 62
     7
 10
118.814845
 20
259.541535
 30
0.0
 11
118.913687
 21
259.609545
 31
0.0
  0
LINE
  8
0
 62
     7
 10
118.529449
 20
259.814383
 30
0.0
 11
118.913687
 21
259.609545
 31
0.0
  0
LINE
  8
0
 62
     7
 10
118.311728
 20
259.939024
 30
0.0
 11
118.529449
 21
259.814383
 31
0.0
  0
LINE
  8
0
 62
     7
 10
118.311728
 20
259.93045
 30
0.0
 11
118.311728
 21
259.939024
 31
0.0
  0
LINE
  8
0
 62
     7
 10
118.913687
 20
259.594414
 30
0.0
 11
118.913687
 21
259.609545
 31
0.0
  0
LINE
  8
0
 62
     7
 10
118.910276
 20
256.766102
 30
0.0
 11
118.996981
 21
256.72095
 31
0.0
  0
LINE
  8
0
 62
     7
 10
119.765385
 20
257.249658
 30
0.0
 11
119.678681
 21
257.29481
 31
0.0
  0
LINE
  8
0
 62
     7
 10
120.447085
 20
257.823518
 30
0.0
 11
120.53379
 21
257.778365
 31
0.0
  0
LINE
  8
0
 62
     7
 10
120.954203
 20
258.257333
 30
0.0
 11
120.710571
 21
258.384208
 31
0.0
  0
LINE
  8
0
 62
     7
 10
117.55942
 20
256.21603
 30
0.0
 11
117.880766
 21
256.048685
 31
0.0
  0
LINE
  8
0
 62
     7
 10
118.907005
 20
256.659041
 30
0.0
 11
119.067204
 21
256.769268
 31
0.0
  0
LINE
  8
0
 62
     7
 10
118.910276
 20
256.85099
 30
0.0
 11
119.067204
 21
256.769268
 31
0.0
  0
LINE
  8
0
 62
     7
 10
118.910276
 20
256.85099
 30
0.0
 11
118.910276
 21
256.766102
 31
0.0
  0
LINE
  8
0
 62
     7
 10
120.447085
 20
261.591183
 30
0.0
 11
120.447085
 21
261.506295
 31
0.0
  0
LINE
  8
0
 62
     7
 10
120.447085
 20
261.506295
 30
0.0
 11
120.498187
 21
261.481613
 31
0.0
  0
LINE
  8
0
 62
     7
 10
118.910276
 20
260.44888
 30
0.0
 11
118.994716
 21
260.408095
 31
0.0
  0
LINE
  8
0
 62
     7
 10
120.717168
 20
261.594109
 30
0.0
 11
120.717168
 21
261.585535
 31
0.0
  0
LINE
  8
0
 62
     7
 10
120.717168
 20
261.594109
 30
0.0
 11
120.511568
 21
261.775131
 31
0.0
  0
LINE
  8
0
 62
     7
 10
120.511568
 20
261.775131
 30
0.0
 11
120.511568
 21
261.657979
 31
0.0
  0
LINE
  8
0
 62
     7
 10
120.511568
 20
261.657979
 30
0.0
 11
120.647944
 21
261.537905
 31
0.0
  0
LINE
  8
0
 62
     7
 10
120.145268
 20
261.842249
 30
0.0
 11
120.511568
 21
261.657979
 31
0.0
  0
LINE
  8
0
 62
     7
 10
120.861255
 20
262.281449
 30
0.0
 11
120.612993
 21
262.248946
 31
0.0
  0
LINE
  8
0
 62
     7
 10
120.979292
 20
262.224265
 30
0.0
 11
120.861255
 21
262.281449
 31
0.0
  0
LINE
  8
0
 62
     7
 10
120.979292
 20
262.096953
 30
0.0
 11
120.979292
 21
262.224265
 31
0.0
  0
LINE
  8
0
 62
     7
 10
120.612993
 20
262.248946
 30
0.0
 11
120.145268
 21
261.927124
 31
0.0
  0
LINE
  8
0
 62
     7
 10
120.145268
 20
261.927124
 30
0.0
 11
120.393531
 21
261.959626
 31
0.0
  0
LINE
  8
0
 62
     7
 10
120.861255
 20
262.281449
 30
0.0
 11
120.393531
 21
261.959626
 31
0.0
  0
LINE
  8
0
 62
     7
 10
120.393531
 20
261.959626
 30
0.0
 11
120.511568
 21
261.902443
 31
0.0
  0
LINE
  8
0
 62
     7
 10
120.511568
 20
261.902443
 30
0.0
 11
120.979292
 21
262.224265
 31
0.0
  0
LINE
  8
0
 62
     7
 10
120.145268
 20
261.927124
 30
0.0
 11
120.145268
 21
261.842249
 31
0.0
  0
LINE
  8
0
 62
     7
 10
120.511568
 20
261.775131
 30
0.0
 11
120.511568
 21
261.902443
 31
0.0
  0
LINE
  8
0
 62
     7
 10
120.979292
 20
262.096953
 30
0.0
 11
120.511568
 21
261.775131
 31
0.0
  0
LINE
  8
0
 62
     7
 10
119.152837
 20
260.243311
 30
0.0
 11
118.909738
 21
260.35049
 31
0.0
  0
LINE
  8
0
 62
     7
 10
118.909738
 20
260.35049
 30
0.0
 11
118.573852
 21
260.441868
 31
0.0
  0
LINE
  8
0
 62
     7
 10
118.106128
 20
260.120046
 30
0.0
 11
118.573852
 21
260.441868
 31
0.0
  0
LINE
  8
0
 62
     7
 10
118.106128
 20
260.120046
 30
0.0
 11
118.311728
 21
259.939024
 31
0.0
  0
LINE
  8
0
 62
     7
 10
119.581865
 20
260.05416
 30
0.0
 11
118.913687
 21
259.594414
 31
0.0
  0
LINE
  8
0
 62
     7
 10
119.581865
 20
260.05416
 30
0.0
 11
119.152837
 21
260.243311
 31
0.0
  0
LINE
  8
0
 62
     7
 10
119.949362
 20
256.166801
 30
0.0
 11
120.951629
 21
256.85642
 31
0.0
  0
LINE
  8
0
 62
     7
 10
120.951629
 20
256.85642
 30
0.0
 11
120.951629
 21
256.5576
 31
0.0
  0
LINE
  8
0
 62
     7
 10
121.319127
 20
256.81046
 30
0.0
 11
120.951629
 21
256.5576
 31
0.0
  0
LINE
  8
0
 62
     7
 10
121.319127
 20
257.124411
 30
0.0
 11
121.319127
 21
256.81046
 31
0.0
  0
LINE
  8
0
 62
     7
 10
121.319127
 20
257.124411
 30
0.0
 11
121.987304
 21
257.584157
 31
0.0
  0
LINE
  8
0
 62
     7
 10
121.987304
 20
257.584157
 30
0.0
 11
121.987304
 21
257.569026
 31
0.0
  0
LINE
  8
0
 62
     7
 10
122.086147
 20
257.637036
 30
0.0
 11
121.987304
 21
257.569026
 31
0.0
  0
LINE
  8
0
 62
     7
 10
122.086147
 20
257.637036
 30
0.0
 11
122.086147
 21
257.822002
 31
0.0
  0
LINE
  8
0
 62
     7
 10
122.087531
 20
257.822954
 30
0.0
 11
122.086147
 21
257.822002
 31
0.0
  0
LINE
  8
0
 62
     7
 10
122.087531
 20
257.822954
 30
0.0
 11
122.087531
 21
261.608371
 31
0.0
  0
LINE
  8
0
 62
     7
 10
122.087531
 20
261.608371
 30
0.0
 11
122.086147
 21
261.607419
 31
0.0
  0
LINE
  8
0
 62
     7
 10
122.086147
 20
261.792385
 30
0.0
 11
122.086147
 21
261.607419
 31
0.0
  0
LINE
  8
0
 62
     7
 10
122.086147
 20
261.792385
 30
0.0
 11
121.987304
 21
261.724376
 31
0.0
  0
LINE
  8
0
 62
     7
 10
121.987304
 20
261.709245
 30
0.0
 11
121.987304
 21
261.724376
 31
0.0
  0
LINE
  8
0
 62
     7
 10
121.319127
 20
261.249499
 30
0.0
 11
121.987304
 21
261.709245
 31
0.0
  0
LINE
  8
0
 62
     7
 10
121.319127
 20
261.249499
 30
0.0
 11
121.319127
 21
261.56345
 31
0.0
  0
LINE
  8
0
 62
     7
 10
121.319127
 20
261.56345
 30
0.0
 11
120.951629
 21
261.31059
 31
0.0
  0
LINE
  8
0
 62
     7
 10
120.951629
 20
261.011769
 30
0.0
 11
120.951629
 21
261.31059
 31
0.0
  0
LINE
  8
0
 62
     7
 10
119.949362
 20
260.322151
 30
0.0
 11
120.951629
 21
261.011769
 31
0.0
  0
LINE
  8
0
 62
     7
 10
119.949362
 20
260.322151
 30
0.0
 11
119.949362
 21
260.620971
 31
0.0
  0
LINE
  8
0
 62
     7
 10
119.581865
 20
260.368111
 30
0.0
 11
119.949362
 21
260.620971
 31
0.0
  0
LINE
  8
0
 62
     7
 10
119.581865
 20
260.05416
 30
0.0
 11
119.581865
 21
260.368111
 31
0.0
  0
LINE
  8
0
 62
     7
 10
118.814845
 20
259.541535
 30
0.0
 11
118.814845
 21
259.356569
 31
0.0
  0
LINE
  8
0
 62
     7
 10
118.81346
 20
259.355617
 30
0.0
 11
118.814845
 21
259.356569
 31
0.0
  0
LINE
  8
0
 62
     7
 10
118.81346
 20
255.5702
 30
0.0
 11
118.81346
 21
259.355617
 31
0.0
  0
LINE
  8
0
 62
     7
 10
118.81346
 20
255.5702
 30
0.0
 11
118.814845
 21
255.571152
 31
0.0
  0
LINE
  8
0
 62
     7
 10
118.814845
 20
255.386186
 30
0.0
 11
118.814845
 21
255.571152
 31
0.0
  0
LINE
  8
0
 62
     7
 10
118.814845
 20
255.386186
 30
0.0
 11
118.913687
 21
255.454195
 31
0.0
  0
LINE
  8
0
 62
     7
 10
118.913687
 20
255.469326
 30
0.0
 11
118.913687
 21
255.454195
 31
0.0
  0
LINE
  8
0
 62
     7
 10
119.581865
 20
255.929072
 30
0.0
 11
118.913687
 21
255.469326
 31
0.0
  0
LINE
  8
0
 62
     7
 10
119.581865
 20
255.929072
 30
0.0
 11
119.581865
 21
255.615121
 31
0.0
  0
LINE
  8
0
 62
     7
 10
119.581865
 20
255.615121
 30
0.0
 11
119.949362
 21
255.867981
 31
0.0
  0
LINE
  8
0
 62
     7
 10
119.949362
 20
256.166801
 30
0.0
 11
119.949362
 21
255.867981
 31
0.0
  0
LINE
  8
0
 62
     7
 10
119.04062
 20
255.658599
 30
0.0
 11
121.860371
 21
257.598755
 31
0.0
  0
LINE
  8
0
 62
     7
 10
118.907005
 20
259.318157
 30
0.0
 11
118.907005
 21
255.736388
 31
0.0
  0
LINE
  8
0
 62
     7
 10
119.04062
 20
259.579816
 30
0.0
 11
121.860371
 21
261.519972
 31
0.0
  0
LINE
  8
0
 62
     7
 10
121.993986
 20
261.442183
 30
0.0
 11
121.993986
 21
257.860414
 31
0.0
  0
LINE
  8
0
 62
     7
 10
119.413833
 20
260.43923
 30
0.0
 11
119.790102
 21
260.698126
 31
0.0
  0
LINE
  8
0
 62
     7
 10
119.413833
 20
260.43923
 30
0.0
 11
119.581865
 21
260.368111
 31
0.0
  0
LINE
  8
0
 62
     7
 10
119.949362
 20
260.620971
 30
0.0
 11
119.790102
 21
260.698126
 31
0.0
  0
LINE
  8
0
 62
     7
 10
119.413833
 20
260.43923
 30
0.0
 11
119.413833
 21
260.137447
 31
0.0
  0
LINE
  8
0
 62
     7
 10
118.917332
 20
260.347142
 30
0.0
 11
119.078458
 21
260.458006
 31
0.0
  0
LINE
  8
0
 62
     7
 10
119.152837
 20
260.243311
 30
0.0
 11
119.413833
 21
260.137447
 31
0.0
  0
LINE
  8
0
 62
     7
 10
120.951629
 20
261.011769
 30
0.0
 11
120.792368
 21
261.085961
 31
0.0
  0
LINE
  8
0
 62
     7
 10
120.717168
 20
261.585535
 30
0.0
 11
120.921509
 21
261.476601
 31
0.0
  0
LINE
  8
0
 62
     7
 10
120.717168
 20
261.585535
 30
0.0
 11
120.548449
 21
261.469447
 31
0.0
  0
LINE
  8
0
 62
     7
 10
120.350868
 20
261.517272
 30
0.0
 11
120.548449
 21
261.469447
 31
0.0
  0
LINE
  8
0
 62
     7
 10
118.957516
 20
260.558563
 30
0.0
 11
120.350868
 21
261.517272
 31
0.0
  0
LINE
  8
0
 62
     7
 10
118.957516
 20
260.558563
 30
0.0
 11
119.078458
 21
260.458006
 31
0.0
  0
LINE
  8
0
 62
     7
 10
118.187132
 20
259.668657
 30
0.0
 11
118.187132
 21
259.844721
 31
0.0
  0
LINE
  8
0
 62
     7
 10
121.439774
 20
262.082731
 30
0.0
 11
121.322772
 21
262.002227
 31
0.0
  0
LINE
  8
0
 62
     7
 10
118.957516
 20
260.558563
 30
0.0
 11
118.957516
 21
260.45591
 31
0.0
  0
LINE
  8
0
 62
     7
 10
119.009234
 20
260.410376
 30
0.0
 11
118.957516
 21
260.45591
 31
0.0
  0
LINE
  8
0
 62
     7
 10
118.300892
 20
259.329726
 30
0.0
 11
118.563672
 21
259.202421
 31
0.0
  0
LINE
  8
0
 62
     7
 10
118.631672
 20
259.249209
 30
0.0
 11
118.563672
 21
259.202421
 31
0.0
  0
LINE
  8
0
 62
     7
 10
118.631672
 20
259.249209
 30
0.0
 11
118.520564
 21
259.340822
 31
0.0
  0
LINE
  8
0
 62
     7
 10
118.6542
 20
259.432771
 30
0.0
 11
118.520564
 21
259.340822
 31
0.0
  0
LINE
  8
0
 62
     7
 10
118.6542
 20
259.432771
 30
0.0
 11
118.81346
 21
259.355617
 31
0.0
  0
LINE
  8
0
 62
     7
 10
118.814845
 20
259.356569
 30
0.0
 11
118.540221
 21
259.494398
 31
0.0
  0
LINE
  8
0
 62
     7
 10
118.300892
 20
259.329726
 30
0.0
 11
118.540221
 21
259.494398
 31
0.0
  0
LINE
  8
0
 62
     7
 10
120.951629
 20
256.5576
 30
0.0
 11
120.792368
 21
256.634754
 31
0.0
  0
LINE
  8
0
 62
     7
 10
120.792368
 20
256.74684
 30
0.0
 11
120.792368
 21
256.634754
 31
0.0
  0
LINE
  8
0
 62
     7
 10
120.921927
 20
261.476888
 30
0.0
 11
120.717168
 21
261.594109
 31
0.0
  0
LINE
  8
0
 62
     7
 10
121.558277
 20
261.898397
 30
0.0
 11
121.987304
 21
261.709245
 31
0.0
  0
LINE
  8
0
 62
     7
 10
121.315178
 20
262.005575
 30
0.0
 11
121.558277
 21
261.898397
 31
0.0
  0
LINE
  8
0
 62
     7
 10
120.979292
 20
262.096953
 30
0.0
 11
121.315178
 21
262.005575
 31
0.0
  0
LINE
  8
0
 62
     7
 10
120.792368
 20
261.085961
 30
0.0
 11
120.792368
 21
261.387744
 31
0.0
  0
LINE
  8
0
 62
     7
 10
121.168637
 20
261.646639
 30
0.0
 11
120.792368
 21
261.387744
 31
0.0
  0
LINE
  8
0
 62
     7
 10
121.168637
 20
261.646639
 30
0.0
 11
121.319127
 21
261.56345
 31
0.0
  0
LINE
  8
0
 62
     7
 10
120.951629
 20
261.31059
 30
0.0
 11
120.792368
 21
261.387744
 31
0.0
  0
LINE
  8
0
 62
     7
 10
121.558277
 20
261.898397
 30
0.0
 11
121.987304
 21
261.724376
 31
0.0
  0
LINE
  8
0
 62
     7
 10
121.439774
 20
262.082731
 30
0.0
 11
122.086147
 21
261.792385
 31
0.0
  0
LINE
  8
0
 62
     7
 10
122.086147
 20
261.609042
 30
0.0
 11
122.087531
 21
261.608371
 31
0.0
  0
LINE
  8
0
 62
     7
 10
122.462813
 20
261.535586
 30
0.0
 11
122.305467
 21
261.611813
 31
0.0
  0
LINE
  8
0
 62
     7
 10
122.462813
 20
261.535586
 30
0.0
 11
122.462813
 21
258.785642
 31
0.0
  0
LINE
  8
0
 62
     7
 10
122.305467
 20
261.427323
 30
0.0
 11
122.462813
 21
261.535586
 31
0.0
  0
LINE
  8
0
 62
     7
 10
122.237467
 20
260.728687
 30
0.0
 11
122.087531
 21
260.769053
 31
0.0
  0
LINE
  8
0
 62
     7
 10
122.237467
 20
261.73021
 30
0.0
 11
122.237467
 21
260.728687
 31
0.0
  0
LINE
  8
0
 62
     7
 10
122.237467
 20
261.73021
 30
0.0
 11
122.086147
 21
261.770949
 31
0.0
  0
LINE
  8
0
 62
     7
 10
122.305467
 20
260.775475
 30
0.0
 11
122.305467
 21
261.776998
 31
0.0
  0
LINE
  8
0
 62
     7
 10
122.237467
 20
261.73021
 30
0.0
 11
122.305467
 21
261.776998
 31
0.0
  0
LINE
  8
0
 62
     7
 10
122.305467
 20
260.775475
 30
0.0
 11
122.237467
 21
260.728687
 31
0.0
  0
LINE
  8
0
 62
     7
 10
122.042687
 20
261.904303
 30
0.0
 11
122.305467
 21
261.776998
 31
0.0
  0
LINE
  8
0
 62
     7
 10
122.087531
 20
259.011212
 30
0.0
 11
122.162133
 21
259.062543
 31
0.0
  0
LINE
  8
0
 62
     7
 10
122.305467
 20
258.677379
 30
0.0
 11
122.462813
 21
258.785642
 31
0.0
  0
LINE
  8
0
 62
     7
 10
117.988091
 20
260.304541
 30
0.0
 11
117.739828
 21
260.272039
 31
0.0
  0
LINE
  8
0
 62
     7
 10
117.988091
 20
260.304541
 30
0.0
 11
118.455816
 21
260.626363
 31
0.0
  0
LINE
  8
0
 62
     7
 10
118.207553
 20
260.593861
 30
0.0
 11
118.455816
 21
260.626363
 31
0.0
  0
LINE
  8
0
 62
     7
 10
117.739828
 20
260.272039
 30
0.0
 11
118.207553
 21
260.593861
 31
0.0
  0
LINE
  8
0
 62
     7
 10
119.835609
 20
257.297975
 30
0.0
 11
119.472776
 21
257.048325
 31
0.0
  0
LINE
  8
0
 62
     7
 10
119.472776
 20
257.048325
 30
0.0
 11
119.311183
 21
257.126838
 31
0.0
  0
LINE
  8
0
 62
     7
 10
119.311183
 20
257.126838
 30
0.0
 11
118.910276
 21
256.85099
 31
0.0
  0
LINE
  8
0
 62
     7
 10
118.907005
 20
256.279645
 30
0.0
 11
121.475803
 21
258.04713
 31
0.0
  0
LINE
  8
0
 62
     7
 10
121.475803
 20
258.04713
 30
0.0
 11
120.991023
 21
258.282667
 31
0.0
  0
LINE
  8
0
 62
     7
 10
120.991023
 20
258.282667
 30
0.0
 11
120.447085
 21
257.908406
 31
0.0
  0
LINE
  8
0
 62
     7
 10
120.447085
 20
257.908406
 30
0.0
 11
120.604013
 21
257.826683
 31
0.0
  0
LINE
  8
0
 62
     7
 10
120.604013
 20
257.826683
 30
0.0
 11
120.24118
 21
257.577033
 31
0.0
  0
LINE
  8
0
 62
     7
 10
120.079587
 20
257.655545
 30
0.0
 11
120.24118
 21
257.577033
 31
0.0
  0
LINE
  8
0
 62
     7
 10
119.678681
 20
257.379698
 30
0.0
 11
120.079587
 21
257.655545
 31
0.0
  0
LINE
  8
0
 62
     7
 10
119.835609
 20
257.297975
 30
0.0
 11
119.678681
 21
257.379698
 31
0.0
  0
LINE
  8
0
 62
     7
 10
121.375591
 20
257.834292
 30
0.0
 11
118.907005
 21
256.135759
 31
0.0
  0
LINE
  8
0
 62
     7
 10
118.907169
 20
255.728096
 30
0.0
 11
119.04062
 21
255.658599
 31
0.0
  0
LINE
  8
0
 62
     7
 10
121.375591
 20
257.834292
 30
0.0
 11
121.860371
 21
257.598755
 31
0.0
  0
LINE
  8
0
 62
     7
 10
121.509206
 20
258.095951
 30
0.0
 11
121.509206
 21
258.112544
 31
0.0
  0
LINE
  8
0
 62
     7
 10
118.106128
 20
260.120046
 30
0.0
 11
118.106128
 21
260.002894
 31
0.0
  0
LINE
  8
0
 62
     7
 10
118.242504
 20
259.88282
 30
0.0
 11
118.106128
 21
260.002894
 31
0.0
  0
LINE
  8
0
 62
     7
 10
119.678681
 20
257.29481
 30
0.0
 11
119.678681
 21
257.379698
 31
0.0
  0
LINE
  8
0
 62
     7
 10
121.973902
 20
257.574935
 30
0.0
 11
121.987304
 21
257.569026
 31
0.0
  0
LINE
  8
0
 62
     7
 10
120.447085
 20
257.823518
 30
0.0
 11
120.447085
 21
257.908406
 31
0.0
  0
LINE
  8
0
 62
     7
 10
121.509206
 20
258.112544
 30
0.0
 11
121.024427
 21
258.348082
 31
0.0
  0
LINE
  8
0
 62
     7
 10
118.573852
 20
260.441868
 30
0.0
 11
118.573852
 21
260.56918
 31
0.0
  0
LINE
  8
0
 62
     7
 10
118.573852
 20
260.56918
 30
0.0
 11
118.106128
 21
260.247358
 31
0.0
  0
LINE
  8
0
 62
     7
 10
118.106128
 20
260.120046
 30
0.0
 11
118.106128
 21
260.247358
 31
0.0
  0
LINE
  8
0
 62
     7
 10
120.731195
 20
260.743031
 30
0.0
 11
121.024427
 21
260.600112
 31
0.0
  0
LINE
  8
0
 62
     7
 10
121.024427
 20
260.944792
 30
0.0
 11
121.024427
 21
260.600112
 31
0.0
  0
LINE
  8
0
 62
     7
 10
120.710571
 20
258.384208
 30
0.0
 11
120.710571
 21
259.661722
 31
0.0
  0
LINE
  8
0
 62
     7
 10
120.583933
 20
260.622847
 30
0.0
 11
120.583933
 21
259.727114
 31
0.0
  0
LINE
  8
0
 62
     7
 10
120.583933
 20
260.622847
 30
0.0
 11
120.639344
 21
260.679833
 31
0.0
  0
LINE
  8
0
 62
     7
 10
120.897789
 20
259.565048
 30
0.0
 11
120.583933
 21
259.727114
 31
0.0
  0
LINE
  8
0
 62
     7
 10
121.382569
 20
259.34522
 30
0.0
 11
121.509206
 21
259.389252
 31
0.0
  0
LINE
  8
0
 62
     7
 10
121.382569
 20
259.34522
 30
0.0
 11
120.897789
 21
259.565048
 31
0.0
  0
LINE
  8
0
 62
     7
 10
121.382569
 20
260.236406
 30
0.0
 11
120.897789
 21
260.469875
 31
0.0
  0
LINE
  8
0
 62
     7
 10
120.897789
 20
259.565048
 30
0.0
 11
120.897789
 21
260.469875
 31
0.0
  0
LINE
  8
0
 62
     7
 10
121.382569
 20
260.236406
 30
0.0
 11
121.382569
 21
259.34522
 31
0.0
  0
LINE
  8
0
 62
     7
 10
121.382569
 20
260.236406
 30
0.0
 11
121.509206
 21
260.366642
 31
0.0
  0
LINE
  8
0
 62
     7
 10
121.509206
 20
259.389252
 30
0.0
 11
121.509206
 21
260.366642
 31
0.0
  0
LINE
  8
0
 62
     7
 10
121.844746
 20
261.509221
 30
0.0
 11
121.993986
 21
261.442183
 31
0.0
  0
LINE
  8
0
 62
     7
 10
121.509206
 20
260.366642
 30
0.0
 11
121.024427
 21
260.600112
 31
0.0
  0
LINE
  8
0
 62
     7
 10
121.024427
 20
258.348082
 30
0.0
 11
121.024427
 21
259.507623
 31
0.0
  0
LINE
  8
0
 62
     7
 10
121.509206
 20
258.095951
 30
0.0
 11
121.993986
 21
257.860414
 31
0.0
  0
LINE
  8
0
 62
     7
 10
120.897789
 20
260.469875
 30
0.0
 11
120.583933
 21
260.622847
 31
0.0
  0
LINE
  8
0
 62
     7
 10
120.897789
 20
260.469875
 30
0.0
 11
121.024427
 21
260.600112
 31
0.0
  0
LINE
  8
0
 62
     7
 10
118.455816
 20
260.626363
 30
0.0
 11
118.573852
 21
260.56918
 31
0.0
  0
LINE
  8
0
 62
     7
 10
122.042687
 20
261.904303
 30
0.0
 11
121.961442
 21
261.848401
 31
0.0
  0
LINE
  8
0
 62
     7
 10
122.237467
 20
257.944793
 30
0.0
 11
122.305467
 21
257.991581
 31
0.0
  0
LINE
  8
0
 62
     7
 10
122.237467
 20
257.944793
 30
0.0
 11
122.087531
 21
257.985159
 31
0.0
  0
LINE
  8
0
 62
     7
 10
122.305467
 20
258.993104
 30
0.0
 11
122.237467
 21
258.946316
 31
0.0
  0
LINE
  8
0
 62
     7
 10
122.305467
 20
258.993104
 30
0.0
 11
122.162133
 21
259.062543
 31
0.0
  0
LINE
  8
0
 62
     7
 10
122.237467
 20
258.946316
 30
0.0
 11
122.087531
 21
258.986682
 31
0.0
  0
LINE
  8
0
 62
     7
 10
122.237467
 20
257.944793
 30
0.0
 11
122.237467
 21
258.946316
 31
0.0
  0
LINE
  8
0
 62
     7
 10
122.305467
 20
258.993104
 30
0.0
 11
122.305467
 21
257.991581
 31
0.0
  0
LINE
  8
0
 62
     7
 10
118.106128
 20
260.002894
 30
0.0
 11
117.739828
 21
260.187164
 31
0.0
  0
LINE
  8
0
 62
     7
 10
118.119657
 20
258.547238
 30
0.0
 11
118.119657
 21
255.797294
 31
0.0
  0
LINE
  8
0
 62
     7
 10
118.119657
 20
258.547238
 30
0.0
 11
117.880766
 21
258.66297
 31
0.0
  0
LINE
  8
0
 62
     7
 10
117.880766
 20
258.66297
 30
0.0
 11
117.880766
 21
255.913026
 31
0.0
  0
LINE
  8
0
 62
     7
 10
118.119657
 20
255.797294
 30
0.0
 11
117.880766
 21
255.913026
 31
0.0
  0
LINE
  8
0
 62
     7
 10
118.420337
 20
256.004179
 30
0.0
 11
118.119657
 21
255.797294
 31
0.0
  0
LINE
  8
0
 62
     7
 10
118.631672
 20
256.465315
 30
0.0
 11
118.520564
 21
256.556928
 31
0.0
  0
LINE
  8
0
 62
     7
 10
118.631672
 20
255.463792
 30
0.0
 11
118.631672
 21
256.465315
 31
0.0
  0
LINE
  8
0
 62
     7
 10
119.413833
 20
255.68624
 30
0.0
 11
119.413833
 21
255.813456
 31
0.0
  0
LINE
  8
0
 62
     7
 10
119.413833
 20
255.68624
 30
0.0
 11
119.581865
 21
255.615121
 31
0.0
  0
LINE
  8
0
 62
     7
 10
118.187132
 20
255.843721
 30
0.0
 11
118.187132
 21
255.713076
 31
0.0
  0
LINE
  8
0
 62
     7
 10
117.739828
 20
260.187164
 30
0.0
 11
117.739828
 21
260.272039
 31
0.0
  0
LINE
  8
0
 62
     7
 10
118.631672
 20
255.481576
 30
0.0
 11
118.814845
 21
255.386186
 31
0.0
  0
LINE
  8
0
 62
     7
 10
118.187132
 20
255.713076
 30
0.0
 11
118.300892
 21
255.653834
 31
0.0
  0
LINE
  8
0
 62
     7
 10
118.6542
 20
255.647354
 30
0.0
 11
118.81346
 21
255.5702
 31
0.0
  0
LINE
  8
0
 62
     7
 10
118.6542
 20
255.647354
 30
0.0
 11
118.631672
 21
255.631854
 31
0.0
  0
LINE
  8
0
 62
     7
 10
118.631672
 20
255.463792
 30
0.0
 11
118.563672
 21
255.417004
 31
0.0
  0
LINE
  8
0
 62
     7
 10
118.300892
 20
255.544309
 30
0.0
 11
118.563672
 21
255.417004
 31
0.0
  0
LINE
  8
0
 62
     7
 10
118.6542
 20
259.432771
 30
0.0
 11
118.6542
 21
255.647354
 31
0.0
  0
LINE
  8
0
 62
     7
 10
118.520564
 20
256.556928
 30
0.0
 11
118.420337
 21
256.487966
 31
0.0
  0
LINE
  8
0
 62
     7
 10
118.563672
 20
256.418527
 30
0.0
 11
118.420337
 21
256.487966
 31
0.0
  0
LINE
  8
0
 62
     7
 10
118.563672
 20
256.418527
 30
0.0
 11
118.631672
 21
256.465315
 31
0.0
  0
LINE
  8
0
 62
     7
 10
118.563672
 20
256.418527
 30
0.0
 11
118.563672
 21
255.417004
 31
0.0
  0
LINE
  8
0
 62
     7
 10
118.420337
 20
256.487966
 30
0.0
 11
118.420337
 21
256.004179
 31
0.0
  0
LINE
  8
0
 62
     7
 10
118.300892
 20
255.544309
 30
0.0
 11
118.300892
 21
255.921994
 31
0.0
  0
LINE
  8
0
 62
     7
 10
118.420337
 20
258.270337
 30
0.0
 11
118.420337
 21
258.754124
 31
0.0
  0
LINE
  8
0
 62
     7
 10
118.420337
 20
258.754124
 30
0.0
 11
118.119657
 21
258.547238
 31
0.0
  0
LINE
  8
0
 62
     7
 10
117.980993
 20
258.731932
 30
0.0
 11
118.100439
 21
258.674066
 31
0.0
  0
LINE
  8
0
 62
     7
 10
118.100439
 20
258.674066
 30
0.0
 11
118.300892
 21
258.81199
 31
0.0
  0
LINE
  8
0
 62
     7
 10
118.300892
 20
259.329726
 30
0.0
 11
118.300892
 21
258.81199
 31
0.0
  0
LINE
  8
0
 62
     7
 10
117.880766
 20
258.66297
 30
0.0
 11
117.980993
 21
258.731932
 31
0.0
  0
LINE
  8
0
 62
     7
 10
118.300892
 20
258.81199
 30
0.0
 11
118.420337
 21
258.754124
 31
0.0
  0
LINE
  8
0
 62
     7
 10
118.563672
 20
258.200898
 30
0.0
 11
118.631672
 21
258.247686
 31
0.0
  0
LINE
  8
0
 62
     7
 10
118.563672
 20
258.200898
 30
0.0
 11
118.420337
 21
258.270337
 31
0.0
  0
LINE
  8
0
 62
     7
 10
118.631672
 20
259.249209
 30
0.0
 11
118.631672
 21
258.247686
 31
0.0
  0
LINE
  8
0
 62
     7
 10
118.563672
 20
258.200898
 30
0.0
 11
118.563672
 21
259.202421
 31
0.0
  0
LINE
  8
0
 62
     7
 10
117.880766
 20
257.528918
 30
0.0
 11
117.55942
 21
257.685541
 31
0.0
  0
LINE
  8
0
 62
     7
 10
117.880766
 20
258.336399
 30
0.0
 11
117.55942
 21
258.502332
 31
0.0
  0
LINE
  8
0
 62
     7
 10
117.880766
 20
256.00909
 30
0.0
 11
117.812389
 21
256.084293
 31
0.0
  0
LINE
  8
0
 62
     7
 10
118.106128
 20
260.247358
 30
0.0
 11
117.988091
 21
260.304541
 31
0.0
  0
LINE
  8
0
 62
     7
 10
119.678681
 20
261.062475
 30
0.0
 11
119.678681
 21
261.054767
 31
0.0
  0
LINE
  8
0
 62
     7
 10
118.910276
 20
260.44888
 30
0.0
 11
118.910276
 21
260.533767
 31
0.0
  0
LINE
  8
0
 62
     7
 10
117.684659
 20
257.814339
 30
0.0
 11
117.880766
 21
257.718758
 31
0.0
  0
LINE
  8
0
 62
     7
 10
120.789193
 20
258.143796
 30
0.0
 11
120.612993
 21
258.225879
 31
0.0
  0
LINE
  8
0
 62
     7
 10
120.145268
 20
257.819182
 30
0.0
 11
120.317618
 21
257.629627
 31
0.0
  0
LINE
  8
0
 62
     7
 10
120.145268
 20
257.904057
 30
0.0
 11
120.485865
 21
257.74539
 31
0.0
  0
LINE
  8
0
 62
     7
 10
120.145268
 20
257.819182
 30
0.0
 11
120.145268
 21
257.904057
 31
0.0
  0
LINE
  8
0
 62
     7
 10
120.612993
 20
258.225879
 30
0.0
 11
120.145268
 21
257.904057
 31
0.0
  0
LINE
  8
0
 62
     7
 10
124.570914
 20
257.837549
 30
0.0
 11
124.572945
 21
257.868423
 31
0.0
  0
LINE
  8
0
 62
     7
 10
124.572945
 20
257.868423
 30
0.0
 11
124.578974
 21
257.901152
 31
0.0
  0
LINE
  8
0
 62
     7
 10
124.578974
 20
257.901152
 30
0.0
 11
124.588818
 21
257.934743
 31
0.0
  0
LINE
  8
0
 62
     7
 10
124.588818
 20
257.934743
 30
0.0
 11
124.602179
 21
257.968174
 31
0.0
  0
LINE
  8
0
 62
     7
 10
124.602179
 20
257.968174
 30
0.0
 11
124.618651
 21
258.00043
 31
0.0
  0
LINE
  8
0
 62
     7
 10
124.618651
 20
258.00043
 30
0.0
 11
124.637732
 21
258.030531
 31
0.0
  0
LINE
  8
0
 62
     7
 10
124.637732
 20
258.030531
 30
0.0
 11
124.658844
 21
258.057562
 31
0.0
  0
LINE
  8
0
 62
     7
 10
124.658844
 20
258.057562
 30
0.0
 11
124.681344
 21
258.080702
 31
0.0
  0
LINE
  8
0
 62
     7
 10
124.681344
 20
258.080702
 30
0.0
 11
124.70455
 21
258.099248
 31
0.0
  0
LINE
  8
0
 62
     7
 10
123.743752
 20
258.469404
 30
0.0
 11
123.853232
 21
258.164085
 31
0.0
  0
LINE
  8
0
 62
     7
 10
123.853232
 20
258.164085
 30
0.0
 11
123.920259
 21
257.862989
 31
0.0
  0
LINE
  8
0
 62
     7
 10
123.920259
 20
257.862989
 30
0.0
 11
123.942827
 21
257.575138
 31
0.0
  0
LINE
  8
0
 62
     7
 10
128.086907
 20
261.457752
 30
0.0
 11
128.196387
 21
261.152433
 31
0.0
  0
LINE
  8
0
 62
     7
 10
128.196387
 20
261.152433
 30
0.0
 11
128.263415
 21
260.851337
 31
0.0
  0
LINE
  8
0
 62
     7
 10
128.263415
 20
260.851337
 30
0.0
 11
128.285983
 21
260.563486
 31
0.0
  0
LINE
  8
0
 62
     7
 10
127.657896
 20
256.379858
 30
0.0
 11
127.655328
 21
256.344974
 31
0.0
  0
LINE
  8
0
 62
     7
 10
127.655328
 20
256.344974
 30
0.0
 11
127.647723
 21
256.307898
 31
0.0
  0
LINE
  8
0
 62
     7
 10
127.647723
 20
256.307898
 30
0.0
 11
127.635374
 21
256.270053
 31
0.0
  0
LINE
  8
0
 62
     7
 10
127.635374
 20
256.270053
 30
0.0
 11
127.618755
 21
256.232895
 31
0.0
  0
LINE
  8
0
 62
     7
 10
127.618755
 20
256.232895
 30
0.0
 11
127.598504
 21
256.197851
 31
0.0
  0
LINE
  8
0
 62
     7
 10
127.598504
 20
256.197851
 30
0.0
 11
127.5754
 21
256.166268
 31
0.0
  0
LINE
  8
0
 62
     7
 10
127.5754
 20
256.166268
 30
0.0
 11
127.550331
 21
256.139359
 31
0.0
  0
LINE
  8
0
 62
     7
 10
127.550331
 20
256.139359
 30
0.0
 11
127.52426
 21
256.118159
 31
0.0
  0
LINE
  8
0
 62
     7
 10
127.403079
 20
256.503305
 30
0.0
 11
127.401048
 21
256.472431
 31
0.0
  0
LINE
  8
0
 62
     7
 10
127.401048
 20
256.472431
 30
0.0
 11
127.395019
 21
256.439702
 31
0.0
  0
LINE
  8
0
 62
     7
 10
127.395019
 20
256.439702
 30
0.0
 11
127.385175
 21
256.406111
 31
0.0
  0
LINE
  8
0
 62
     7
 10
127.385175
 20
256.406111
 30
0.0
 11
127.371814
 21
256.37268
 31
0.0
  0
LINE
  8
0
 62
     7
 10
127.371814
 20
256.37268
 30
0.0
 11
127.355342
 21
256.340424
 31
0.0
  0
LINE
  8
0
 62
     7
 10
127.355342
 20
256.340424
 30
0.0
 11
127.336261
 21
256.310323
 31
0.0
  0
LINE
  8
0
 62
     7
 10
127.336261
 20
256.310323
 30
0.0
 11
127.315149
 21
256.283292
 31
0.0
  0
LINE
  8
0
 62
     7
 10
127.315149
 20
256.283292
 30
0.0
 11
127.292649
 21
256.260152
 31
0.0
  0
LINE
  8
0
 62
     7
 10
127.292649
 20
256.260152
 30
0.0
 11
127.269443
 21
256.241606
 31
0.0
  0
LINE
  8
0
 62
     7
 10
128.285983
 20
256.642269
 30
0.0
 11
128.228136
 21
256.323115
 31
0.0
  0
LINE
  8
0
 62
     7
 10
128.228136
 20
256.323115
 30
0.0
 11
128.135635
 21
256.028845
 31
0.0
  0
LINE
  8
0
 62
     7
 10
128.135635
 20
256.028845
 30
0.0
 11
128.086907
 21
255.940889
 31
0.0
  0
ENDSEC
  0
EOF
