  0
SECTION
  2
HEADER
  9
$ACADVER
  1
AC1009
  9
$INSBASE
 10
0.0
 20
0.0
 30
0.0
  9
$EXTMIN
 10
110.753178
 20
254.069328
 30
0.0
  9
$EXTMAX
 10
115.131704
 20
261.287606
 30
0.0
  9
$LIMMIN
 10
110.753178
 20
254.069328
  9
$LIMMAX
 10
115.131704
 20
261.287606
  9
$ORTHOMODE
 70
     0
  9
$REGENMODE
 70
     1
  9
$FILLMODE
 70
     1
  9
$QTEXTMODE
 70
     0
  9
$MIRRTEXT
 70
     1
  9
$DRAGMODE
 70
     2
  9
$LTSCALE
 40
1.0
  9
$OSMODE
 70
     0
  9
$ATTMODE
 70
     1
  9
$TEXTSIZE
 40
3.5
  9
$TRACEWID
 40
0.5
  9
$TEXTSTYLE
  7
STANDARD
  9
$CLAYER
  8
0
  9
$CELTYPE
  6
BYLAYER
  9
$CECOLOR
 62
   256
  9
$DIMSCALE
 40
1.0
  9
$DIMASZ
 40
0.18
  9
$DIMEXO
 40
0.0625
  9
$DIMDLI
 40
0.38
  9
$DIMRND
 40
0.0
  9
$DIMDLE
 40
0.0
  9
$DIMEXE
 40
0.18
  9
$DIMTP
 40
0.0
  9
$DIMTM
 40
0.0
  9
$DIMTXT
 40
0.18
  9
$DIMCEN
 40
0.09
  9
$DIMTSZ
 40
0.0
  9
$DIMTOL
 70
     0
  9
$DIMLIM
 70
     0
  9
$DIMTIH
 70
     1
  9
$DIMTOH
 70
     1
  9
$DIMSE1
 70
     0
  9
$DIMSE2
 70
     0
  9
$DIMTAD
 70
     0
  9
$DIMZIN
 70
     0
  9
$DIMBLK
  1

  9
$DIMASO
 70
     1
  9
$DIMSHO
 70
     1
  9
$DIMPOST
  1

  9
$DIMAPOST
  1

  9
$DIMALT
 70
     0
  9
$DIMALTD
 70
     2
  9
$DIMALTF
 40
25.4
  9
$DIMLFAC
 40
1.0
  9
$DIMTOFL
 70
     0
  9
$DIMTVP
 40
0.0
  9
$DIMTIX
 70
     0
  9
$DIMSOXD
 70
     0
  9
$DIMSAH
 70
     0
  9
$DIMBLK1
  1

  9
$DIMBLK2
  1

  9
$DIMSTYLE
  2
*UNNAMED
  9
$DIMCLRD
 70
     0
  9
$DIMCLRE
 70
     0
  9
$DIMCLRT
 70
     0
  9
$DIMTFAC
 40
1.0
  9
$DIMGAP
 40
0.09
  9
$LUNITS
 70
     2
  9
$LUPREC
 70
     4
  9
$SKETCHINC
 40
0.1
  9
$FILLETRAD
 40
2.0
  9
$AUNITS
 70
     0
  9
$AUPREC
 70
     0
  9
$MENU
  1
ACAD
  9
$ELEVATION
 40
0.0
  9
$PELEVATION
 40
0.0
  9
$THICKNESS
 40
0.0
  9
$LIMCHECK
 70
     0
  9
$BLIPMODE
 70
     1
  9
$CHAMFERA
 40
0.0
  9
$CHAMFERB
 40
0.0
  9
$SKPOLY
 70
     0
  9
$TDCREATE
 40
2451215.716740741
  9
$TDUPDATE
 40
2451215.717017940
  9
$TDINDWG
 40
0.0002078704
  9
$TDUSRTIMER
 40
0.0002078704
  9
$USRTIMER
 70
     1
  9
$ANGBASE
 50
0.0
  9
$ANGDIR
 70
     0
  9
$PDMODE
 70
     0
  9
$PDSIZE
 40
0.0
  9
$PLINEWID
 40
0.0
  9
$COORDS
 70
     2
  9
$SPLFRAME
 70
     0
  9
$SPLINETYPE
 70
     6
  9
$SPLINESEGS
 70
     8
  9
$ATTDIA
 70
     0
  9
$ATTREQ
 70
     1
  9
$HANDLING
 70
     0
  9
$HANDSEED
  5
0
  9
$SURFTAB1
 70
     6
  9
$SURFTAB2
 70
     6
  9
$SURFTYPE
 70
     6
  9
$SURFU
 70
     6
  9
$SURFV
 70
     6
  9
$UCSNAME
  2

  9
$UCSORG
 10
0.0
 20
0.0
 30
0.0
  9
$UCSXDIR
 10
1.0
 20
0.0
 30
0.0
  9
$UCSYDIR
 10
0.0
 20
1.0
 30
0.0
  9
$PUCSNAME
  2

  9
$PUCSORG
 10
0.0
 20
0.0
 30
0.0
  9
$PUCSXDIR
 10
1.0
 20
0.0
 30
0.0
  9
$PUCSYDIR
 10
0.0
 20
1.0
 30
0.0
  9
$USERI1
 70
     0
  9
$USERI2
 70
     0
  9
$USERI3
 70
     0
  9
$USERI4
 70
     0
  9
$USERI5
 70
     0
  9
$USERR1
 40
0.0
  9
$USERR2
 40
0.0
  9
$USERR3
 40
0.0
  9
$USERR4
 40
0.0
  9
$USERR5
 40
0.0
  9
$WORLDVIEW
 70
     1
  9
$SHADEDGE
 70
     3
  9
$SHADEDIF
 70
    70
  9
$TILEMODE
 70
     1
  9
$MAXACTVP
 70
    16
  9
$PINSBASE
 10
0.0
 20
0.0
 30
0.0
  9
$PLIMCHECK
 70
     0
  9
$PEXTMIN
 10
1.000000E+20
 20
1.000000E+20
 30
1.000000E+20
  9
$PEXTMAX
 10
-1.000000E+20
 20
-1.000000E+20
 30
-1.000000E+20
  9
$PLIMMIN
 10
0.0
 20
0.0
  9
$PLIMMAX
 10
420.0
 20
297.0
  9
$UNITMODE
 70
     0
  9
$VISRETAIN
 70
     0
  9
$PLINEGEN
 70
     0
  9
$PSLTSCALE
 70
     1
  9
$TREEDEPTH
 70
  3020
  9
$DWGCODEPAGE
  3
iso8859-1
  0
ENDSEC
  0
SECTION
  2
TABLES
  0
TABLE
  2
VPORT
 70
     2
  0
VPORT
  2
*ACTIVE
 70
     0
 10
0.0
 20
0.0
 11
1.0
 21
1.0
 12
116.937676
 22
257.648729
 13
0.0
 23
0.0
 14
1.0
 24
1.0
 15
0.0
 25
0.0
 16
0.0
 26
0.0
 36
1.0
 17
0.0
 27
0.0
 37
0.0
 40
7.880629
 41
1.658281
 42
50.0
 43
0.0
 44
0.0
 50
0.0
 51
0.0
 71
     0
 72
   100
 73
     1
 74
     0
 75
     0
 76
     0
 77
     0
 78
     0
  0
ENDTAB
  0
TABLE
  2
LTYPE
 70
     1
  0
LTYPE
  2
CONTINUOUS
 70
    64
  3
Solid line
 72
    65
 73
     0
 40
0.0
  0
ENDTAB
  0
TABLE
  2
LAYER
 70
     1
  0
LAYER
  2
0
 70
    64
 62
     7
  6
CONTINUOUS
  0
ENDTAB
  0
TABLE
  2
STYLE
 70
     1
  0
STYLE
  2
STANDARD
 70
     0
 40
0.0
 41
1.0
 50
0.0
 71
     0
 42
3.5
  3
txt
  4

  0
ENDTAB
  0
TABLE
  2
VIEW
 70
     0
  0
ENDTAB
  0
TABLE
  2
UCS
 70
     0
  0
ENDTAB
  0
TABLE
  2
APPID
 70
     1
  0
APPID
  2
ACAD
 70
    64
  0
ENDTAB
  0
TABLE
  2
DIMSTYLE
 70
     0
  0
ENDTAB
  0
ENDSEC
  0
SECTION
  2
BLOCKS
  0
ENDSEC
  0
SECTION
  2
ENTITIES
  0
LINE
  8
0
 62
     7
 10
112.848842
 20
255.400971
 30
0.0
 11
112.871187
 21
255.41414
 31
0.0
  0
LINE
  8
0
 62
     7
 10
112.827033
 20
255.39253
 30
0.0
 11
112.848842
 21
255.400971
 31
0.0
  0
LINE
  8
0
 62
     7
 10
113.761908
 20
256.029215
 30
0.0
 11
113.739563
 21
256.011634
 31
0.0
  0
LINE
  8
0
 62
     7
 10
113.783717
 20
256.050786
 30
0.0
 11
113.761908
 21
256.029215
 31
0.0
  0
LINE
  8
0
 62
     7
 10
112.490567
 20
255.356299
 30
0.0
 11
112.697653
 21
255.3643
 31
0.0
  0
LINE
  8
0
 62
     7
 10
112.301436
 20
255.398112
 30
0.0
 11
112.490567
 21
255.356299
 31
0.0
  0
LINE
  8
0
 62
     7
 10
112.966581
 20
255.525404
 30
0.0
 11
112.984507
 21
255.561672
 31
0.0
  0
LINE
  8
0
 62
     7
 10
112.94557
 20
255.491478
 30
0.0
 11
112.966581
 21
255.525404
 31
0.0
  0
LINE
  8
0
 62
     7
 10
112.922153
 20
255.460993
 30
0.0
 11
112.94557
 21
255.491478
 31
0.0
  0
LINE
  8
0
 62
     7
 10
112.897089
 20
255.434932
 30
0.0
 11
112.922153
 21
255.460993
 31
0.0
  0
LINE
  8
0
 62
     7
 10
112.871187
 20
255.41414
 30
0.0
 11
112.897089
 21
255.434932
 31
0.0
  0
LINE
  8
0
 62
     7
 10
111.963445
 20
257.026421
 30
0.0
 11
111.97271
 21
257.023213
 31
0.0
  0
LINE
  8
0
 62
     7
 10
111.953319
 20
257.027508
 30
0.0
 11
111.963445
 21
257.026421
 31
0.0
  0
LINE
  8
0
 62
     7
 10
113.355444
 20
259.345082
 30
0.0
 11
113.362828
 21
259.349586
 31
0.0
  0
LINE
  8
0
 62
     7
 10
113.348171
 20
259.341799
 30
0.0
 11
113.355444
 21
259.345082
 31
0.0
  0
LINE
  8
0
 62
     7
 10
113.422533
 20
259.477592
 30
0.0
 11
113.419922
 21
259.489906
 31
0.0
  0
LINE
  8
0
 62
     7
 10
113.423003
 20
259.463433
 30
0.0
 11
113.422533
 21
259.477592
 31
0.0
  0
LINE
  8
0
 62
     7
 10
113.421315
 20
259.447936
 30
0.0
 11
113.423003
 21
259.463433
 31
0.0
  0
LINE
  8
0
 62
     7
 10
113.41753
 20
259.431657
 30
0.0
 11
113.421315
 21
259.447936
 31
0.0
  0
LINE
  8
0
 62
     7
 10
113.411784
 20
259.41518
 30
0.0
 11
113.41753
 21
259.431657
 31
0.0
  0
LINE
  8
0
 62
     7
 10
113.404282
 20
259.399096
 30
0.0
 11
113.411784
 21
259.41518
 31
0.0
  0
LINE
  8
0
 62
     7
 10
113.395293
 20
259.383981
 30
0.0
 11
113.404282
 21
259.399096
 31
0.0
  0
LINE
  8
0
 62
     7
 10
113.385141
 20
259.370378
 30
0.0
 11
113.395293
 21
259.383981
 31
0.0
  0
LINE
  8
0
 62
     7
 10
113.374188
 20
259.358774
 30
0.0
 11
113.385141
 21
259.370378
 31
0.0
  0
LINE
  8
0
 62
     7
 10
113.362828
 20
259.349586
 30
0.0
 11
113.374188
 21
259.358774
 31
0.0
  0
LINE
  8
0
 62
     7
 10
111.927916
 20
256.526536
 30
0.0
 11
111.916556
 21
256.517347
 31
0.0
  0
LINE
  8
0
 62
     7
 10
111.938869
 20
256.53814
 30
0.0
 11
111.927916
 21
256.526536
 31
0.0
  0
LINE
  8
0
 62
     7
 10
111.949021
 20
256.551743
 30
0.0
 11
111.938869
 21
256.53814
 31
0.0
  0
LINE
  8
0
 62
     7
 10
111.95801
 20
256.566858
 30
0.0
 11
111.949021
 21
256.551743
 31
0.0
  0
LINE
  8
0
 62
     7
 10
111.965512
 20
256.582942
 30
0.0
 11
111.95801
 21
256.566858
 31
0.0
  0
LINE
  8
0
 62
     7
 10
111.971258
 20
256.599419
 30
0.0
 11
111.965512
 21
256.582942
 31
0.0
  0
LINE
  8
0
 62
     7
 10
111.975043
 20
256.615697
 30
0.0
 11
111.971258
 21
256.599419
 31
0.0
  0
LINE
  8
0
 62
     7
 10
111.976731
 20
256.631194
 30
0.0
 11
111.975043
 21
256.615697
 31
0.0
  0
LINE
  8
0
 62
     7
 10
111.976261
 20
256.645354
 30
0.0
 11
111.976731
 21
256.631194
 31
0.0
  0
LINE
  8
0
 62
     7
 10
111.97365
 20
256.657668
 30
0.0
 11
111.976261
 21
256.645354
 31
0.0
  0
LINE
  8
0
 62
     7
 10
111.909172
 20
256.512843
 30
0.0
 11
111.901899
 21
256.509561
 31
0.0
  0
LINE
  8
0
 62
     7
 10
111.916556
 20
256.517347
 30
0.0
 11
111.909172
 21
256.512843
 31
0.0
  0
LINE
  8
0
 62
     7
 10
111.92968
 20
256.512594
 30
0.0
 11
111.916556
 21
256.502038
 31
0.0
  0
LINE
  8
0
 62
     7
 10
111.942369
 20
256.52585
 30
0.0
 11
111.92968
 21
256.512594
 31
0.0
  0
LINE
  8
0
 62
     7
 10
111.9542
 20
256.541366
 30
0.0
 11
111.942369
 21
256.52585
 31
0.0
  0
LINE
  8
0
 62
     7
 10
111.96478
 20
256.558626
 30
0.0
 11
111.9542
 21
256.541366
 31
0.0
  0
LINE
  8
0
 62
     7
 10
111.973759
 20
256.577058
 30
0.0
 11
111.96478
 21
256.558626
 31
0.0
  0
LINE
  8
0
 62
     7
 10
111.980838
 20
256.59605
 30
0.0
 11
111.973759
 21
256.577058
 31
0.0
  0
LINE
  8
0
 62
     7
 10
111.985782
 20
256.614969
 30
0.0
 11
111.980838
 21
256.59605
 31
0.0
  0
LINE
  8
0
 62
     7
 10
111.988427
 20
256.633189
 30
0.0
 11
111.985782
 21
256.614969
 31
0.0
  0
LINE
  8
0
 62
     7
 10
111.988684
 20
256.650103
 30
0.0
 11
111.988427
 21
256.633189
 31
0.0
  0
LINE
  8
0
 62
     7
 10
111.986546
 20
256.665151
 30
0.0
 11
111.988684
 21
256.650103
 31
0.0
  0
LINE
  8
0
 62
     7
 10
113.161404
 20
259.082279
 30
0.0
 11
113.151865
 21
259.093935
 31
0.0
  0
LINE
  8
0
 62
     7
 10
113.173343
 20
259.07472
 30
0.0
 11
113.161404
 21
259.082279
 31
0.0
  0
LINE
  8
0
 62
     7
 10
113.187301
 20
259.071502
 30
0.0
 11
113.173343
 21
259.07472
 31
0.0
  0
LINE
  8
0
 62
     7
 10
113.202833
 20
259.072725
 30
0.0
 11
113.187301
 21
259.071502
 31
0.0
  0
LINE
  8
0
 62
     7
 10
113.219442
 20
259.078352
 30
0.0
 11
113.202833
 21
259.072725
 31
0.0
  0
LINE
  8
0
 62
     7
 10
113.236599
 20
259.088202
 30
0.0
 11
113.219442
 21
259.078352
 31
0.0
  0
LINE
  8
0
 62
     7
 10
113.098887
 20
259.175281
 30
0.0
 11
113.113195
 21
259.157797
 31
0.0
  0
LINE
  8
0
 62
     7
 10
113.080978
 20
259.186619
 30
0.0
 11
113.098887
 21
259.175281
 31
0.0
  0
LINE
  8
0
 62
     7
 10
113.060041
 20
259.191447
 30
0.0
 11
113.080978
 21
259.186619
 31
0.0
  0
LINE
  8
0
 62
     7
 10
113.036744
 20
259.189612
 30
0.0
 11
113.060041
 21
259.191447
 31
0.0
  0
LINE
  8
0
 62
     7
 10
113.01183
 20
259.181171
 30
0.0
 11
113.036744
 21
259.189612
 31
0.0
  0
LINE
  8
0
 62
     7
 10
112.986094
 20
259.166396
 30
0.0
 11
113.01183
 21
259.181171
 31
0.0
  0
LINE
  8
0
 62
     7
 10
112.963748
 20
259.148815
 30
0.0
 11
112.986094
 21
259.166396
 31
0.0
  0
LINE
  8
0
 62
     7
 10
112.941939
 20
259.127244
 30
0.0
 11
112.963748
 21
259.148815
 31
0.0
  0
LINE
  8
0
 62
     7
 10
112.668692
 20
258.79032
 30
0.0
 11
112.941939
 21
259.127244
 31
0.0
  0
LINE
  8
0
 62
     7
 10
112.422513
 20
258.409131
 30
0.0
 11
112.668692
 21
258.79032
 31
0.0
  0
LINE
  8
0
 62
     7
 10
112.212266
 20
257.997404
 30
0.0
 11
112.422513
 21
258.409131
 31
0.0
  0
LINE
  8
0
 62
     7
 10
112.045524
 20
257.569968
 30
0.0
 11
112.212266
 21
257.997404
 31
0.0
  0
LINE
  8
0
 62
     7
 10
111.928292
 20
257.142215
 30
0.0
 11
112.045524
 21
257.569968
 31
0.0
  0
LINE
  8
0
 62
     7
 10
111.922748
 20
257.107457
 30
0.0
 11
111.928292
 21
257.142215
 31
0.0
  0
LINE
  8
0
 62
     7
 10
111.921478
 20
257.074891
 30
0.0
 11
111.922748
 21
257.107457
 31
0.0
  0
LINE
  8
0
 62
     7
 10
111.924522
 20
257.045487
 30
0.0
 11
111.921478
 21
257.074891
 31
0.0
  0
LINE
  8
0
 62
     7
 10
111.931788
 20
257.020124
 30
0.0
 11
111.924522
 21
257.045487
 31
0.0
  0
LINE
  8
0
 62
     7
 10
111.943058
 20
256.999558
 30
0.0
 11
111.931788
 21
257.020124
 31
0.0
  0
LINE
  8
0
 62
     7
 10
111.957998
 20
256.984402
 30
0.0
 11
111.943058
 21
256.999558
 31
0.0
  0
LINE
  8
0
 62
     7
 10
111.97616
 20
256.975109
 30
0.0
 11
111.957998
 21
256.984402
 31
0.0
  0
LINE
  8
0
 62
     7
 10
111.997004
 20
256.971956
 30
0.0
 11
111.97616
 21
256.975109
 31
0.0
  0
LINE
  8
0
 62
     7
 10
112.117098
 20
256.919629
 30
0.0
 11
112.118637
 21
256.898894
 31
0.0
  0
LINE
  8
0
 62
     7
 10
112.112531
 20
256.937584
 30
0.0
 11
112.117098
 21
256.919629
 31
0.0
  0
LINE
  8
0
 62
     7
 10
112.105081
 20
256.952187
 30
0.0
 11
112.112531
 21
256.937584
 31
0.0
  0
LINE
  8
0
 62
     7
 10
112.094986
 20
256.962972
 30
0.0
 11
112.105081
 21
256.952187
 31
0.0
  0
LINE
  8
0
 62
     7
 10
112.082569
 20
256.969593
 30
0.0
 11
112.094986
 21
256.962972
 31
0.0
  0
LINE
  8
0
 62
     7
 10
112.068225
 20
256.971841
 30
0.0
 11
112.082569
 21
256.969593
 31
0.0
  0
LINE
  8
0
 62
     7
 10
111.922748
 20
255.954121
 30
0.0
 11
111.928292
 21
255.926993
 31
0.0
  0
LINE
  8
0
 62
     7
 10
111.921478
 20
255.984941
 30
0.0
 11
111.922748
 21
255.954121
 31
0.0
  0
LINE
  8
0
 62
     7
 10
111.924522
 20
256.018532
 30
0.0
 11
111.921478
 21
255.984941
 31
0.0
  0
LINE
  8
0
 62
     7
 10
111.931788
 20
256.053894
 30
0.0
 11
111.924522
 21
256.018532
 31
0.0
  0
LINE
  8
0
 62
     7
 10
111.943058
 20
256.08997
 30
0.0
 11
111.931788
 21
256.053894
 31
0.0
  0
LINE
  8
0
 62
     7
 10
111.957998
 20
256.125684
 30
0.0
 11
111.943058
 21
256.08997
 31
0.0
  0
LINE
  8
0
 62
     7
 10
111.97616
 20
256.159971
 30
0.0
 11
111.957998
 21
256.125684
 31
0.0
  0
LINE
  8
0
 62
     7
 10
111.997004
 20
256.191807
 30
0.0
 11
111.97616
 21
256.159971
 31
0.0
  0
LINE
  8
0
 62
     7
 10
112.668692
 20
255.297766
 30
0.0
 11
112.941939
 21
255.336863
 31
0.0
  0
LINE
  8
0
 62
     7
 10
112.422513
 20
255.340183
 30
0.0
 11
112.668692
 21
255.297766
 31
0.0
  0
LINE
  8
0
 62
     7
 10
112.212266
 20
255.462585
 30
0.0
 11
112.422513
 21
255.340183
 31
0.0
  0
LINE
  8
0
 62
     7
 10
112.045524
 20
255.660565
 30
0.0
 11
112.212266
 21
255.462585
 31
0.0
  0
LINE
  8
0
 62
     7
 10
111.928292
 20
255.926993
 30
0.0
 11
112.045524
 21
255.660565
 31
0.0
  0
LINE
  8
0
 62
     7
 10
112.963748
 20
255.345304
 30
0.0
 11
112.986094
 21
255.358473
 31
0.0
  0
LINE
  8
0
 62
     7
 10
112.941939
 20
255.336863
 30
0.0
 11
112.963748
 21
255.345304
 31
0.0
  0
LINE
  8
0
 62
     7
 10
113.098887
 20
255.504803
 30
0.0
 11
113.113195
 21
255.541978
 31
0.0
  0
LINE
  8
0
 62
     7
 10
113.080978
 20
255.468822
 30
0.0
 11
113.098887
 21
255.504803
 31
0.0
  0
LINE
  8
0
 62
     7
 10
113.060041
 20
255.435182
 30
0.0
 11
113.080978
 21
255.468822
 31
0.0
  0
LINE
  8
0
 62
     7
 10
113.036744
 20
255.404957
 30
0.0
 11
113.060041
 21
255.435182
 31
0.0
  0
LINE
  8
0
 62
     7
 10
113.01183
 20
255.379112
 30
0.0
 11
113.036744
 21
255.404957
 31
0.0
  0
LINE
  8
0
 62
     7
 10
112.986094
 20
255.358473
 30
0.0
 11
113.01183
 21
255.379112
 31
0.0
  0
LINE
  8
0
 62
     7
 10
113.876815
 20
255.973548
 30
0.0
 11
113.854469
 21
255.955967
 31
0.0
  0
LINE
  8
0
 62
     7
 10
113.898624
 20
255.995119
 30
0.0
 11
113.876815
 21
255.973548
 31
0.0
  0
LINE
  8
0
 62
     7
 10
113.876815
 20
259.777059
 30
0.0
 11
113.854469
 21
259.763889
 31
0.0
  0
LINE
  8
0
 62
     7
 10
113.898624
 20
259.785499
 30
0.0
 11
113.876815
 21
259.777059
 31
0.0
  0
LINE
  8
0
 62
     7
 10
113.406994
 20
259.298864
 30
0.0
 11
113.420282
 21
259.306443
 31
0.0
  0
LINE
  8
0
 62
     7
 10
113.394159
 20
259.294672
 30
0.0
 11
113.406994
 21
259.298864
 31
0.0
  0
LINE
  8
0
 62
     7
 10
113.382214
 20
259.294008
 30
0.0
 11
113.394159
 21
259.294672
 31
0.0
  0
LINE
  8
0
 62
     7
 10
113.371564
 20
259.296896
 30
0.0
 11
113.382214
 21
259.294008
 31
0.0
  0
LINE
  8
0
 62
     7
 10
113.362574
 20
259.303237
 30
0.0
 11
113.371564
 21
259.296896
 31
0.0
  0
LINE
  8
0
 62
     7
 10
113.355549
 20
259.312815
 30
0.0
 11
113.362574
 21
259.303237
 31
0.0
  0
LINE
  8
0
 62
     7
 10
113.350729
 20
259.325304
 30
0.0
 11
113.355549
 21
259.312815
 31
0.0
  0
LINE
  8
0
 62
     7
 10
113.348277
 20
259.340279
 30
0.0
 11
113.350729
 21
259.325304
 31
0.0
  0
LINE
  8
0
 62
     7
 10
113.348277
 20
259.35723
 30
0.0
 11
113.348277
 21
259.340279
 31
0.0
  0
LINE
  8
0
 62
     7
 10
113.350729
 20
259.375579
 30
0.0
 11
113.348277
 21
259.35723
 31
0.0
  0
LINE
  8
0
 62
     7
 10
113.355549
 20
259.394702
 30
0.0
 11
113.350729
 21
259.375579
 31
0.0
  0
LINE
  8
0
 62
     7
 10
113.362574
 20
259.413948
 30
0.0
 11
113.355549
 21
259.394702
 31
0.0
  0
LINE
  8
0
 62
     7
 10
113.371564
 20
259.43266
 30
0.0
 11
113.362574
 21
259.413948
 31
0.0
  0
LINE
  8
0
 62
     7
 10
113.382214
 20
259.450203
 30
0.0
 11
113.371564
 21
259.43266
 31
0.0
  0
LINE
  8
0
 62
     7
 10
113.394159
 20
259.465978
 30
0.0
 11
113.382214
 21
259.450203
 31
0.0
  0
LINE
  8
0
 62
     7
 10
113.406994
 20
259.479448
 30
0.0
 11
113.394159
 21
259.465978
 31
0.0
  0
LINE
  8
0
 62
     7
 10
113.420282
 20
259.490154
 30
0.0
 11
113.406994
 21
259.479448
 31
0.0
  0
LINE
  8
0
 62
     7
 10
114.853266
 20
258.456868
 30
0.0
 11
114.866554
 21
258.464446
 31
0.0
  0
LINE
  8
0
 62
     7
 10
114.840431
 20
258.452675
 30
0.0
 11
114.853266
 21
258.456868
 31
0.0
  0
LINE
  8
0
 62
     7
 10
114.828486
 20
258.452012
 30
0.0
 11
114.840431
 21
258.452675
 31
0.0
  0
LINE
  8
0
 62
     7
 10
114.817837
 20
258.454899
 30
0.0
 11
114.828486
 21
258.452012
 31
0.0
  0
LINE
  8
0
 62
     7
 10
114.808846
 20
258.46124
 30
0.0
 11
114.817837
 21
258.454899
 31
0.0
  0
LINE
  8
0
 62
     7
 10
114.801821
 20
258.470819
 30
0.0
 11
114.808846
 21
258.46124
 31
0.0
  0
LINE
  8
0
 62
     7
 10
114.797001
 20
258.483308
 30
0.0
 11
114.801821
 21
258.470819
 31
0.0
  0
LINE
  8
0
 62
     7
 10
114.794549
 20
258.498283
 30
0.0
 11
114.797001
 21
258.483308
 31
0.0
  0
LINE
  8
0
 62
     7
 10
114.794549
 20
258.515234
 30
0.0
 11
114.794549
 21
258.498283
 31
0.0
  0
LINE
  8
0
 62
     7
 10
114.797001
 20
258.533583
 30
0.0
 11
114.794549
 21
258.515234
 31
0.0
  0
LINE
  8
0
 62
     7
 10
114.801821
 20
258.552706
 30
0.0
 11
114.797001
 21
258.533583
 31
0.0
  0
LINE
  8
0
 62
     7
 10
114.808846
 20
258.571952
 30
0.0
 11
114.801821
 21
258.552706
 31
0.0
  0
LINE
  8
0
 62
     7
 10
114.817837
 20
258.590664
 30
0.0
 11
114.808846
 21
258.571952
 31
0.0
  0
LINE
  8
0
 62
     7
 10
114.828486
 20
258.608206
 30
0.0
 11
114.817837
 21
258.590664
 31
0.0
  0
LINE
  8
0
 62
     7
 10
114.840431
 20
258.623981
 30
0.0
 11
114.828486
 21
258.608206
 31
0.0
  0
LINE
  8
0
 62
     7
 10
114.853266
 20
258.637451
 30
0.0
 11
114.840431
 21
258.623981
 31
0.0
  0
LINE
  8
0
 62
     7
 10
114.866554
 20
258.648158
 30
0.0
 11
114.853266
 21
258.637451
 31
0.0
  0
LINE
  8
0
 62
     7
 10
111.987297
 20
256.484911
 30
0.0
 11
111.97401
 21
256.474204
 31
0.0
  0
LINE
  8
0
 62
     7
 10
112.000132
 20
256.498381
 30
0.0
 11
111.987297
 21
256.484911
 31
0.0
  0
LINE
  8
0
 62
     7
 10
112.012078
 20
256.514156
 30
0.0
 11
112.000132
 21
256.498381
 31
0.0
  0
LINE
  8
0
 62
     7
 10
112.022727
 20
256.531698
 30
0.0
 11
112.012078
 21
256.514156
 31
0.0
  0
LINE
  8
0
 62
     7
 10
112.031717
 20
256.550411
 30
0.0
 11
112.022727
 21
256.531698
 31
0.0
  0
LINE
  8
0
 62
     7
 10
112.038742
 20
256.569656
 30
0.0
 11
112.031717
 21
256.550411
 31
0.0
  0
LINE
  8
0
 62
     7
 10
112.043563
 20
256.588779
 30
0.0
 11
112.038742
 21
256.569656
 31
0.0
  0
LINE
  8
0
 62
     7
 10
112.046015
 20
256.607129
 30
0.0
 11
112.043563
 21
256.588779
 31
0.0
  0
LINE
  8
0
 62
     7
 10
112.046015
 20
256.62408
 30
0.0
 11
112.046015
 21
256.607129
 31
0.0
  0
LINE
  8
0
 62
     7
 10
112.043563
 20
256.639055
 30
0.0
 11
112.046015
 21
256.62408
 31
0.0
  0
LINE
  8
0
 62
     7
 10
112.038742
 20
256.651544
 30
0.0
 11
112.043563
 21
256.639055
 31
0.0
  0
LINE
  8
0
 62
     7
 10
112.031717
 20
256.661122
 30
0.0
 11
112.038742
 21
256.651544
 31
0.0
  0
LINE
  8
0
 62
     7
 10
112.022727
 20
256.667463
 30
0.0
 11
112.031717
 21
256.661122
 31
0.0
  0
LINE
  8
0
 62
     7
 10
112.012078
 20
256.670351
 30
0.0
 11
112.022727
 21
256.667463
 31
0.0
  0
LINE
  8
0
 62
     7
 10
112.000132
 20
256.669687
 30
0.0
 11
112.012078
 21
256.670351
 31
0.0
  0
LINE
  8
0
 62
     7
 10
111.987297
 20
256.665495
 30
0.0
 11
112.000132
 21
256.669687
 31
0.0
  0
LINE
  8
0
 62
     7
 10
111.97401
 20
256.657916
 30
0.0
 11
111.987297
 21
256.665495
 31
0.0
  0
LINE
  8
0
 62
     7
 10
111.961453
 20
256.647881
 30
0.0
 11
111.97401
 21
256.657916
 31
0.0
  0
LINE
  8
0
 62
     7
 10
111.949277
 20
256.635359
 30
0.0
 11
111.961453
 21
256.647881
 31
0.0
  0
LINE
  8
0
 62
     7
 10
111.937853
 20
256.620732
 30
0.0
 11
111.949277
 21
256.635359
 31
0.0
  0
LINE
  8
0
 62
     7
 10
111.927527
 20
256.604443
 30
0.0
 11
111.937853
 21
256.620732
 31
0.0
  0
LINE
  8
0
 62
     7
 10
111.918614
 20
256.586989
 30
0.0
 11
111.927527
 21
256.604443
 31
0.0
  0
LINE
  8
0
 62
     7
 10
111.911384
 20
256.568898
 30
0.0
 11
111.918614
 21
256.586989
 31
0.0
  0
LINE
  8
0
 62
     7
 10
111.906057
 20
256.550721
 30
0.0
 11
111.911384
 21
256.568898
 31
0.0
  0
LINE
  8
0
 62
     7
 10
111.902795
 20
256.533011
 30
0.0
 11
111.906057
 21
256.550721
 31
0.0
  0
LINE
  8
0
 62
     7
 10
111.901696
 20
256.516304
 30
0.0
 11
111.902795
 21
256.533011
 31
0.0
  0
LINE
  8
0
 62
     7
 10
111.903086
 20
256.49934
 30
0.0
 11
111.901696
 21
256.516304
 31
0.0
  0
LINE
  8
0
 62
     7
 10
111.907201
 20
256.48494
 30
0.0
 11
111.903086
 21
256.49934
 31
0.0
  0
LINE
  8
0
 62
     7
 10
111.913883
 20
256.473657
 30
0.0
 11
111.907201
 21
256.48494
 31
0.0
  0
LINE
  8
0
 62
     7
 10
111.922876
 20
256.465926
 30
0.0
 11
111.913883
 21
256.473657
 31
0.0
  0
LINE
  8
0
 62
     7
 10
111.933834
 20
256.462042
 30
0.0
 11
111.922876
 21
256.465926
 31
0.0
  0
LINE
  8
0
 62
     7
 10
111.946336
 20
256.462156
 30
0.0
 11
111.933834
 21
256.462042
 31
0.0
  0
LINE
  8
0
 62
     7
 10
111.959902
 20
256.466263
 30
0.0
 11
111.946336
 21
256.462156
 31
0.0
  0
LINE
  8
0
 62
     7
 10
111.97401
 20
256.474204
 30
0.0
 11
111.959902
 21
256.466263
 31
0.0
  0
LINE
  8
0
 62
     7
 10
113.406994
 20
255.805213
 30
0.0
 11
113.420282
 21
255.81592
 31
0.0
  0
LINE
  8
0
 62
     7
 10
113.394159
 20
255.791743
 30
0.0
 11
113.406994
 21
255.805213
 31
0.0
  0
LINE
  8
0
 62
     7
 10
113.382214
 20
255.775968
 30
0.0
 11
113.394159
 21
255.791743
 31
0.0
  0
LINE
  8
0
 62
     7
 10
113.371564
 20
255.758426
 30
0.0
 11
113.382214
 21
255.775968
 31
0.0
  0
LINE
  8
0
 62
     7
 10
113.362574
 20
255.739713
 30
0.0
 11
113.371564
 21
255.758426
 31
0.0
  0
LINE
  8
0
 62
     7
 10
113.355549
 20
255.720468
 30
0.0
 11
113.362574
 21
255.739713
 31
0.0
  0
LINE
  8
0
 62
     7
 10
113.350729
 20
255.701345
 30
0.0
 11
113.355549
 21
255.720468
 31
0.0
  0
LINE
  8
0
 62
     7
 10
113.348277
 20
255.682996
 30
0.0
 11
113.350729
 21
255.701345
 31
0.0
  0
LINE
  8
0
 62
     7
 10
113.348277
 20
255.666045
 30
0.0
 11
113.348277
 21
255.682996
 31
0.0
  0
LINE
  8
0
 62
     7
 10
113.350729
 20
255.65107
 30
0.0
 11
113.348277
 21
255.666045
 31
0.0
  0
LINE
  8
0
 62
     7
 10
113.355549
 20
255.63858
 30
0.0
 11
113.350729
 21
255.65107
 31
0.0
  0
LINE
  8
0
 62
     7
 10
113.362574
 20
255.629002
 30
0.0
 11
113.355549
 21
255.63858
 31
0.0
  0
LINE
  8
0
 62
     7
 10
113.371564
 20
255.622661
 30
0.0
 11
113.362574
 21
255.629002
 31
0.0
  0
LINE
  8
0
 62
     7
 10
113.382214
 20
255.619773
 30
0.0
 11
113.371564
 21
255.622661
 31
0.0
  0
LINE
  8
0
 62
     7
 10
113.394159
 20
255.620437
 30
0.0
 11
113.382214
 21
255.619773
 31
0.0
  0
LINE
  8
0
 62
     7
 10
113.406994
 20
255.624629
 30
0.0
 11
113.394159
 21
255.620437
 31
0.0
  0
LINE
  8
0
 62
     7
 10
113.420282
 20
255.632208
 30
0.0
 11
113.406994
 21
255.624629
 31
0.0
  0
LINE
  8
0
 62
     7
 10
113.161404
 20
255.683838
 30
0.0
 11
113.151865
 21
255.659054
 31
0.0
  0
LINE
  8
0
 62
     7
 10
113.173343
 20
255.707825
 30
0.0
 11
113.161404
 21
255.683838
 31
0.0
  0
LINE
  8
0
 62
     7
 10
113.187301
 20
255.730252
 30
0.0
 11
113.173343
 21
255.707825
 31
0.0
  0
LINE
  8
0
 62
     7
 10
113.202833
 20
255.750402
 30
0.0
 11
113.187301
 21
255.730252
 31
0.0
  0
LINE
  8
0
 62
     7
 10
113.219442
 20
255.767632
 30
0.0
 11
113.202833
 21
255.750402
 31
0.0
  0
LINE
  8
0
 62
     7
 10
113.236599
 20
255.781391
 30
0.0
 11
113.219442
 21
255.767632
 31
0.0
  0
LINE
  8
0
 62
     7
 10
113.045606
 20
259.138765
 30
0.0
 11
113.056295
 21
259.131351
 31
0.0
  0
LINE
  8
0
 62
     7
 10
113.036959
 20
259.149602
 30
0.0
 11
113.045606
 21
259.138765
 31
0.0
  0
LINE
  8
0
 62
     7
 10
113.679159
 20
256.040084
 30
0.0
 11
113.688698
 21
256.028427
 31
0.0
  0
LINE
  8
0
 62
     7
 10
113.66722
 20
256.047642
 30
0.0
 11
113.679159
 21
256.040084
 31
0.0
  0
LINE
  8
0
 62
     7
 10
113.653262
 20
256.050861
 30
0.0
 11
113.66722
 21
256.047642
 31
0.0
  0
LINE
  8
0
 62
     7
 10
113.637731
 20
256.049637
 30
0.0
 11
113.653262
 21
256.050861
 31
0.0
  0
LINE
  8
0
 62
     7
 10
113.621121
 20
256.044011
 30
0.0
 11
113.637731
 21
256.049637
 31
0.0
  0
LINE
  8
0
 62
     7
 10
113.603964
 20
256.03416
 30
0.0
 11
113.621121
 21
256.044011
 31
0.0
  0
LINE
  8
0
 62
     7
 10
113.374188
 20
255.68454
 30
0.0
 11
113.362828
 21
255.675351
 31
0.0
  0
LINE
  8
0
 62
     7
 10
113.385141
 20
255.696144
 30
0.0
 11
113.374188
 21
255.68454
 31
0.0
  0
LINE
  8
0
 62
     7
 10
113.395293
 20
255.709747
 30
0.0
 11
113.385141
 21
255.696144
 31
0.0
  0
LINE
  8
0
 62
     7
 10
113.404282
 20
255.724861
 30
0.0
 11
113.395293
 21
255.709747
 31
0.0
  0
LINE
  8
0
 62
     7
 10
113.411784
 20
255.740946
 30
0.0
 11
113.404282
 21
255.724861
 31
0.0
  0
LINE
  8
0
 62
     7
 10
113.41753
 20
255.757422
 30
0.0
 11
113.411784
 21
255.740946
 31
0.0
  0
LINE
  8
0
 62
     7
 10
113.421315
 20
255.773701
 30
0.0
 11
113.41753
 21
255.757422
 31
0.0
  0
LINE
  8
0
 62
     7
 10
113.423003
 20
255.789198
 30
0.0
 11
113.421315
 21
255.773701
 31
0.0
  0
LINE
  8
0
 62
     7
 10
113.422533
 20
255.803357
 30
0.0
 11
113.423003
 21
255.789198
 31
0.0
  0
LINE
  8
0
 62
     7
 10
113.419922
 20
255.815671
 30
0.0
 11
113.422533
 21
255.803357
 31
0.0
  0
LINE
  8
0
 62
     7
 10
113.355444
 20
255.670847
 30
0.0
 11
113.348171
 21
255.667565
 31
0.0
  0
LINE
  8
0
 62
     7
 10
113.362828
 20
255.675351
 30
0.0
 11
113.355444
 21
255.670847
 31
0.0
  0
LINE
  8
0
 62
     7
 10
113.375953
 20
255.670597
 30
0.0
 11
113.362828
 21
255.660042
 31
0.0
  0
LINE
  8
0
 62
     7
 10
113.388641
 20
255.683853
 30
0.0
 11
113.375953
 21
255.670597
 31
0.0
  0
LINE
  8
0
 62
     7
 10
113.400472
 20
255.699369
 30
0.0
 11
113.388641
 21
255.683853
 31
0.0
  0
LINE
  8
0
 62
     7
 10
113.411052
 20
255.71663
 30
0.0
 11
113.400472
 21
255.699369
 31
0.0
  0
LINE
  8
0
 62
     7
 10
113.420031
 20
255.735062
 30
0.0
 11
113.411052
 21
255.71663
 31
0.0
  0
LINE
  8
0
 62
     7
 10
113.42711
 20
255.754053
 30
0.0
 11
113.420031
 21
255.735062
 31
0.0
  0
LINE
  8
0
 62
     7
 10
113.432054
 20
255.772973
 30
0.0
 11
113.42711
 21
255.754053
 31
0.0
  0
LINE
  8
0
 62
     7
 10
113.434699
 20
255.791193
 30
0.0
 11
113.432054
 21
255.772973
 31
0.0
  0
LINE
  8
0
 62
     7
 10
113.434956
 20
255.808107
 30
0.0
 11
113.434699
 21
255.791193
 31
0.0
  0
LINE
  8
0
 62
     7
 10
113.432818
 20
255.823155
 30
0.0
 11
113.434956
 21
255.808107
 31
0.0
  0
LINE
  8
0
 62
     7
 10
113.434389
 20
255.64368
 30
0.0
 11
113.420282
 21
255.632208
 31
0.0
  0
LINE
  8
0
 62
     7
 10
113.447955
 20
255.658241
 30
0.0
 11
113.434389
 21
255.64368
 31
0.0
  0
LINE
  8
0
 62
     7
 10
113.460457
 20
255.675332
 30
0.0
 11
113.447955
 21
255.658241
 31
0.0
  0
LINE
  8
0
 62
     7
 10
113.471415
 20
255.694295
 30
0.0
 11
113.460457
 21
255.675332
 31
0.0
  0
LINE
  8
0
 62
     7
 10
113.480408
 20
255.714402
 30
0.0
 11
113.471415
 21
255.694295
 31
0.0
  0
LINE
  8
0
 62
     7
 10
113.487091
 20
255.734881
 30
0.0
 11
113.480408
 21
255.714402
 31
0.0
  0
LINE
  8
0
 62
     7
 10
113.491206
 20
255.754944
 30
0.0
 11
113.487091
 21
255.734881
 31
0.0
  0
LINE
  8
0
 62
     7
 10
113.492595
 20
255.77382
 30
0.0
 11
113.491206
 21
255.754944
 31
0.0
  0
LINE
  8
0
 62
     7
 10
113.491206
 20
255.790784
 30
0.0
 11
113.492595
 21
255.77382
 31
0.0
  0
LINE
  8
0
 62
     7
 10
113.487091
 20
255.805184
 30
0.0
 11
113.491206
 21
255.790784
 31
0.0
  0
LINE
  8
0
 62
     7
 10
113.480408
 20
255.816467
 30
0.0
 11
113.487091
 21
255.805184
 31
0.0
  0
LINE
  8
0
 62
     7
 10
113.471415
 20
255.824199
 30
0.0
 11
113.480408
 21
255.816467
 31
0.0
  0
LINE
  8
0
 62
     7
 10
113.460457
 20
255.828082
 30
0.0
 11
113.471415
 21
255.824199
 31
0.0
  0
LINE
  8
0
 62
     7
 10
113.447955
 20
255.827968
 30
0.0
 11
113.460457
 21
255.828082
 31
0.0
  0
LINE
  8
0
 62
     7
 10
113.434389
 20
255.823862
 30
0.0
 11
113.447955
 21
255.827968
 31
0.0
  0
LINE
  8
0
 62
     7
 10
113.420282
 20
255.81592
 30
0.0
 11
113.434389
 21
255.823862
 31
0.0
  0
LINE
  8
0
 62
     7
 10
113.540197
 20
256.106368
 30
0.0
 11
113.554456
 21
256.102346
 31
0.0
  0
LINE
  8
0
 62
     7
 10
113.524167
 20
256.105576
 30
0.0
 11
113.540197
 21
256.106368
 31
0.0
  0
LINE
  8
0
 62
     7
 10
113.506922
 20
256.099998
 30
0.0
 11
113.524167
 21
256.105576
 31
0.0
  0
LINE
  8
0
 62
     7
 10
113.489058
 20
256.089827
 30
0.0
 11
113.506922
 21
256.099998
 31
0.0
  0
LINE
  8
0
 62
     7
 10
113.741677
 20
255.947081
 30
0.0
 11
113.727369
 21
255.964566
 31
0.0
  0
LINE
  8
0
 62
     7
 10
113.759585
 20
255.935744
 30
0.0
 11
113.741677
 21
255.947081
 31
0.0
  0
LINE
  8
0
 62
     7
 10
113.780523
 20
255.930916
 30
0.0
 11
113.759585
 21
255.935744
 31
0.0
  0
LINE
  8
0
 62
     7
 10
113.80382
 20
255.932751
 30
0.0
 11
113.780523
 21
255.930916
 31
0.0
  0
LINE
  8
0
 62
     7
 10
113.828734
 20
255.941191
 30
0.0
 11
113.80382
 21
255.932751
 31
0.0
  0
LINE
  8
0
 62
     7
 10
113.854469
 20
255.955967
 30
0.0
 11
113.828734
 21
255.941191
 31
0.0
  0
LINE
  8
0
 62
     7
 10
114.140932
 20
256.508178
 30
0.0
 11
113.913097
 21
256.200597
 31
0.0
  0
LINE
  8
0
 62
     7
 10
114.346301
 20
256.84557
 30
0.0
 11
114.140932
 21
256.508178
 31
0.0
  0
LINE
  8
0
 62
     7
 10
114.523681
 20
257.203699
 30
0.0
 11
114.346301
 21
256.84557
 31
0.0
  0
LINE
  8
0
 62
     7
 10
114.668304
 20
257.572938
 30
0.0
 11
114.523681
 21
257.203699
 31
0.0
  0
LINE
  8
0
 62
     7
 10
114.77628
 20
257.943357
 30
0.0
 11
114.668304
 21
257.572938
 31
0.0
  0
LINE
  8
0
 62
     7
 10
114.171871
 20
256.332042
 30
0.0
 11
113.898624
 21
255.995119
 31
0.0
  0
LINE
  8
0
 62
     7
 10
114.418051
 20
256.713232
 30
0.0
 11
114.171871
 21
256.332042
 31
0.0
  0
LINE
  8
0
 62
     7
 10
114.628298
 20
257.124958
 30
0.0
 11
114.418051
 21
256.713232
 31
0.0
  0
LINE
  8
0
 62
     7
 10
114.79504
 20
257.552395
 30
0.0
 11
114.628298
 21
257.124958
 31
0.0
  0
LINE
  8
0
 62
     7
 10
114.912272
 20
257.980148
 30
0.0
 11
114.79504
 21
257.552395
 31
0.0
  0
LINE
  8
0
 62
     7
 10
114.917816
 20
258.014905
 30
0.0
 11
114.912272
 21
257.980148
 31
0.0
  0
LINE
  8
0
 62
     7
 10
114.919085
 20
258.047472
 30
0.0
 11
114.917816
 21
258.014905
 31
0.0
  0
LINE
  8
0
 62
     7
 10
114.916041
 20
258.076875
 30
0.0
 11
114.919085
 21
258.047472
 31
0.0
  0
LINE
  8
0
 62
     7
 10
114.908776
 20
258.102238
 30
0.0
 11
114.916041
 21
258.076875
 31
0.0
  0
LINE
  8
0
 62
     7
 10
114.897505
 20
258.122805
 30
0.0
 11
114.908776
 21
258.102238
 31
0.0
  0
LINE
  8
0
 62
     7
 10
114.882566
 20
258.13796
 30
0.0
 11
114.897505
 21
258.122805
 31
0.0
  0
LINE
  8
0
 62
     7
 10
114.864403
 20
258.147253
 30
0.0
 11
114.882566
 21
258.13796
 31
0.0
  0
LINE
  8
0
 62
     7
 10
114.84356
 20
258.150406
 30
0.0
 11
114.864403
 21
258.147253
 31
0.0
  0
LINE
  8
0
 62
     7
 10
113.724231
 20
256.002119
 30
0.0
 11
113.709071
 21
255.994783
 31
0.0
  0
LINE
  8
0
 62
     7
 10
113.739563
 20
256.011634
 30
0.0
 11
113.724231
 21
256.002119
 31
0.0
  0
LINE
  8
0
 62
     7
 10
114.802629
 20
258.06793
 30
0.0
 11
114.797365
 21
258.035815
 31
0.0
  0
LINE
  8
0
 62
     7
 10
114.804265
 20
258.098248
 30
0.0
 11
114.802629
 21
258.06793
 31
0.0
  0
LINE
  8
0
 62
     7
 10
114.80223
 20
258.126
 30
0.0
 11
114.804265
 21
258.098248
 31
0.0
  0
LINE
  8
0
 62
     7
 10
114.796576
 20
258.150482
 30
0.0
 11
114.80223
 21
258.126
 31
0.0
  0
LINE
  8
0
 62
     7
 10
114.691017
 20
258.157214
 30
0.0
 11
114.688538
 21
258.18602
 31
0.0
  0
LINE
  8
0
 62
     7
 10
114.689511
 20
258.125564
 30
0.0
 11
114.691017
 21
258.157214
 31
0.0
  0
LINE
  8
0
 62
     7
 10
114.684061
 20
258.091932
 30
0.0
 11
114.689511
 21
258.125564
 31
0.0
  0
LINE
  8
0
 62
     7
 10
114.608331
 20
258.259911
 30
0.0
 11
114.60702
 21
258.279136
 31
0.0
  0
LINE
  8
0
 62
     7
 10
114.612227
 20
258.243014
 30
0.0
 11
114.608331
 21
258.259911
 31
0.0
  0
LINE
  8
0
 62
     7
 10
114.618604
 20
258.228902
 30
0.0
 11
114.612227
 21
258.243014
 31
0.0
  0
LINE
  8
0
 62
     7
 10
114.627287
 20
258.217959
 30
0.0
 11
114.618604
 21
258.228902
 31
0.0
  0
LINE
  8
0
 62
     7
 10
114.63804
 20
258.210484
 30
0.0
 11
114.627287
 21
258.217959
 31
0.0
  0
LINE
  8
0
 62
     7
 10
114.723465
 20
258.202734
 30
0.0
 11
114.721927
 21
258.223469
 31
0.0
  0
LINE
  8
0
 62
     7
 10
114.728033
 20
258.184778
 30
0.0
 11
114.723465
 21
258.202734
 31
0.0
  0
LINE
  8
0
 62
     7
 10
114.735482
 20
258.170175
 30
0.0
 11
114.728033
 21
258.184778
 31
0.0
  0
LINE
  8
0
 62
     7
 10
114.745577
 20
258.159391
 30
0.0
 11
114.735482
 21
258.170175
 31
0.0
  0
LINE
  8
0
 62
     7
 10
114.757994
 20
258.152769
 30
0.0
 11
114.745577
 21
258.159391
 31
0.0
  0
LINE
  8
0
 62
     7
 10
114.772338
 20
258.150522
 30
0.0
 11
114.757994
 21
258.152769
 31
0.0
  0
LINE
  8
0
 62
     7
 10
113.104536
 20
255.823299
 30
0.0
 11
113.121692
 21
255.837058
 31
0.0
  0
LINE
  8
0
 62
     7
 10
113.087926
 20
255.806069
 30
0.0
 11
113.104536
 21
255.823299
 31
0.0
  0
LINE
  8
0
 62
     7
 10
113.072395
 20
255.785919
 30
0.0
 11
113.087926
 21
255.806069
 31
0.0
  0
LINE
  8
0
 62
     7
 10
113.058437
 20
255.763493
 30
0.0
 11
113.072395
 21
255.785919
 31
0.0
  0
LINE
  8
0
 62
     7
 10
113.046497
 20
255.739505
 30
0.0
 11
113.058437
 21
255.763493
 31
0.0
  0
LINE
  8
0
 62
     7
 10
113.036959
 20
255.714722
 30
0.0
 11
113.046497
 21
255.739505
 31
0.0
  0
LINE
  8
0
 62
     7
 10
114.677045
 20
259.167556
 30
0.0
 11
114.663056
 21
259.127944
 31
0.0
  0
LINE
  8
0
 62
     7
 10
114.686381
 20
259.206756
 30
0.0
 11
114.677045
 21
259.167556
 31
0.0
  0
LINE
  8
0
 62
     7
 10
114.690734
 20
259.244165
 30
0.0
 11
114.686381
 21
259.206756
 31
0.0
  0
LINE
  8
0
 62
     7
 10
114.689951
 20
259.278469
 30
0.0
 11
114.690734
 21
259.244165
 31
0.0
  0
LINE
  8
0
 62
     7
 10
114.684061
 20
259.308459
 30
0.0
 11
114.689951
 21
259.278469
 31
0.0
  0
LINE
  8
0
 62
     7
 10
114.917816
 20
259.168242
 30
0.0
 11
114.912272
 21
259.19537
 31
0.0
  0
LINE
  8
0
 62
     7
 10
114.919085
 20
259.137422
 30
0.0
 11
114.917816
 21
259.168242
 31
0.0
  0
LINE
  8
0
 62
     7
 10
114.916041
 20
259.10383
 30
0.0
 11
114.919085
 21
259.137422
 31
0.0
  0
LINE
  8
0
 62
     7
 10
114.908776
 20
259.068469
 30
0.0
 11
114.916041
 21
259.10383
 31
0.0
  0
LINE
  8
0
 62
     7
 10
114.897505
 20
259.032392
 30
0.0
 11
114.908776
 21
259.068469
 31
0.0
  0
LINE
  8
0
 62
     7
 10
114.882566
 20
258.996678
 30
0.0
 11
114.897505
 21
259.032392
 31
0.0
  0
LINE
  8
0
 62
     7
 10
114.864403
 20
258.962392
 30
0.0
 11
114.882566
 21
258.996678
 31
0.0
  0
LINE
  8
0
 62
     7
 10
114.84356
 20
258.930556
 30
0.0
 11
114.864403
 21
258.962392
 31
0.0
  0
LINE
  8
0
 62
     7
 10
114.746515
 20
259.013084
 30
0.0
 11
114.728653
 21
258.986223
 31
0.0
  0
LINE
  8
0
 62
     7
 10
114.762505
 20
259.041821
 30
0.0
 11
114.746515
 21
259.013084
 31
0.0
  0
LINE
  8
0
 62
     7
 10
114.77628
 20
259.071816
 30
0.0
 11
114.762505
 21
259.041821
 31
0.0
  0
LINE
  8
0
 62
     7
 10
114.803201
 20
259.221263
 30
0.0
 11
114.797365
 21
259.251037
 31
0.0
  0
LINE
  8
0
 62
     7
 10
114.803947
 20
259.187196
 30
0.0
 11
114.803201
 21
259.221263
 31
0.0
  0
LINE
  8
0
 62
     7
 10
114.799576
 20
259.150044
 30
0.0
 11
114.803947
 21
259.187196
 31
0.0
  0
LINE
  8
0
 62
     7
 10
114.790243
 20
259.111124
 30
0.0
 11
114.799576
 21
259.150044
 31
0.0
  0
LINE
  8
0
 62
     7
 10
114.77628
 20
259.071816
 30
0.0
 11
114.790243
 21
259.111124
 31
0.0
  0
LINE
  8
0
 62
     7
 10
114.171871
 20
259.824596
 30
0.0
 11
113.898624
 21
259.785499
 31
0.0
  0
LINE
  8
0
 62
     7
 10
114.418051
 20
259.78218
 30
0.0
 11
114.171871
 21
259.824596
 31
0.0
  0
LINE
  8
0
 62
     7
 10
114.628298
 20
259.659777
 30
0.0
 11
114.418051
 21
259.78218
 31
0.0
  0
LINE
  8
0
 62
     7
 10
114.79504
 20
259.461797
 30
0.0
 11
114.628298
 21
259.659777
 31
0.0
  0
LINE
  8
0
 62
     7
 10
114.912272
 20
259.19537
 30
0.0
 11
114.79504
 21
259.461797
 31
0.0
  0
LINE
  8
0
 62
     7
 10
114.567503
 20
259.664529
 30
0.0
 11
114.424221
 21
259.779918
 31
0.0
  0
LINE
  8
0
 62
     7
 10
114.68564
 20
259.508345
 30
0.0
 11
114.567503
 21
259.664529
 31
0.0
  0
LINE
  8
0
 62
     7
 10
114.77628
 20
259.314479
 30
0.0
 11
114.68564
 21
259.508345
 31
0.0
  0
LINE
  8
0
 62
     7
 10
113.741677
 20
259.617559
 30
0.0
 11
113.727369
 21
259.580384
 31
0.0
  0
LINE
  8
0
 62
     7
 10
113.759585
 20
259.653541
 30
0.0
 11
113.741677
 21
259.617559
 31
0.0
  0
LINE
  8
0
 62
     7
 10
113.780523
 20
259.687181
 30
0.0
 11
113.759585
 21
259.653541
 31
0.0
  0
LINE
  8
0
 62
     7
 10
113.80382
 20
259.717406
 30
0.0
 11
113.780523
 21
259.687181
 31
0.0
  0
LINE
  8
0
 62
     7
 10
113.828734
 20
259.74325
 30
0.0
 11
113.80382
 21
259.717406
 31
0.0
  0
LINE
  8
0
 62
     7
 10
113.854469
 20
259.763889
 30
0.0
 11
113.828734
 21
259.74325
 31
0.0
  0
LINE
  8
0
 62
     7
 10
113.434389
 20
259.498096
 30
0.0
 11
113.420282
 21
259.490154
 31
0.0
  0
LINE
  8
0
 62
     7
 10
113.447955
 20
259.502203
 30
0.0
 11
113.434389
 21
259.498096
 31
0.0
  0
LINE
  8
0
 62
     7
 10
113.460457
 20
259.502317
 30
0.0
 11
113.447955
 21
259.502203
 31
0.0
  0
LINE
  8
0
 62
     7
 10
113.471415
 20
259.498433
 30
0.0
 11
113.460457
 21
259.502317
 31
0.0
  0
LINE
  8
0
 62
     7
 10
113.480408
 20
259.490702
 30
0.0
 11
113.471415
 21
259.498433
 31
0.0
  0
LINE
  8
0
 62
     7
 10
113.487091
 20
259.479419
 30
0.0
 11
113.480408
 21
259.490702
 31
0.0
  0
LINE
  8
0
 62
     7
 10
113.491206
 20
259.465019
 30
0.0
 11
113.487091
 21
259.479419
 31
0.0
  0
LINE
  8
0
 62
     7
 10
113.492595
 20
259.448055
 30
0.0
 11
113.491206
 21
259.465019
 31
0.0
  0
LINE
  8
0
 62
     7
 10
113.491206
 20
259.429178
 30
0.0
 11
113.492595
 21
259.448055
 31
0.0
  0
LINE
  8
0
 62
     7
 10
113.487091
 20
259.409115
 30
0.0
 11
113.491206
 21
259.429178
 31
0.0
  0
LINE
  8
0
 62
     7
 10
113.480408
 20
259.388637
 30
0.0
 11
113.487091
 21
259.409115
 31
0.0
  0
LINE
  8
0
 62
     7
 10
113.471415
 20
259.368529
 30
0.0
 11
113.480408
 21
259.388637
 31
0.0
  0
LINE
  8
0
 62
     7
 10
113.460457
 20
259.349566
 30
0.0
 11
113.471415
 21
259.368529
 31
0.0
  0
LINE
  8
0
 62
     7
 10
113.447955
 20
259.332476
 30
0.0
 11
113.460457
 21
259.349566
 31
0.0
  0
LINE
  8
0
 62
     7
 10
113.434389
 20
259.317915
 30
0.0
 11
113.447955
 21
259.332476
 31
0.0
  0
LINE
  8
0
 62
     7
 10
113.420282
 20
259.306443
 30
0.0
 11
113.434389
 21
259.317915
 31
0.0
  0
LINE
  8
0
 62
     7
 10
113.434956
 20
259.482342
 30
0.0
 11
113.432818
 21
259.497389
 31
0.0
  0
LINE
  8
0
 62
     7
 10
113.434699
 20
259.465427
 30
0.0
 11
113.434956
 21
259.482342
 31
0.0
  0
LINE
  8
0
 62
     7
 10
113.432054
 20
259.447208
 30
0.0
 11
113.434699
 21
259.465427
 31
0.0
  0
LINE
  8
0
 62
     7
 10
113.42711
 20
259.428288
 30
0.0
 11
113.432054
 21
259.447208
 31
0.0
  0
LINE
  8
0
 62
     7
 10
113.420031
 20
259.409297
 30
0.0
 11
113.42711
 21
259.428288
 31
0.0
  0
LINE
  8
0
 62
     7
 10
113.411052
 20
259.390865
 30
0.0
 11
113.420031
 21
259.409297
 31
0.0
  0
LINE
  8
0
 62
     7
 10
113.400472
 20
259.373604
 30
0.0
 11
113.411052
 21
259.390865
 31
0.0
  0
LINE
  8
0
 62
     7
 10
113.388641
 20
259.358088
 30
0.0
 11
113.400472
 21
259.373604
 31
0.0
  0
LINE
  8
0
 62
     7
 10
113.375953
 20
259.344832
 30
0.0
 11
113.388641
 21
259.358088
 31
0.0
  0
LINE
  8
0
 62
     7
 10
113.362828
 20
259.334276
 30
0.0
 11
113.375953
 21
259.344832
 31
0.0
  0
LINE
  8
0
 62
     7
 10
112.117098
 20
256.409399
 30
0.0
 11
112.118637
 21
256.432251
 31
0.0
  0
LINE
  8
0
 62
     7
 10
112.112531
 20
256.385158
 30
0.0
 11
112.117098
 21
256.409399
 31
0.0
  0
LINE
  8
0
 62
     7
 10
112.105081
 20
256.360303
 30
0.0
 11
112.112531
 21
256.385158
 31
0.0
  0
LINE
  8
0
 62
     7
 10
112.094986
 20
256.335627
 30
0.0
 11
112.105081
 21
256.360303
 31
0.0
  0
LINE
  8
0
 62
     7
 10
112.082569
 20
256.311918
 30
0.0
 11
112.094986
 21
256.335627
 31
0.0
  0
LINE
  8
0
 62
     7
 10
112.068225
 20
256.289932
 30
0.0
 11
112.082569
 21
256.311918
 31
0.0
  0
LINE
  8
0
 62
     7
 10
113.679159
 20
259.438525
 30
0.0
 11
113.688698
 21
259.463308
 31
0.0
  0
LINE
  8
0
 62
     7
 10
113.66722
 20
259.414537
 30
0.0
 11
113.679159
 21
259.438525
 31
0.0
  0
LINE
  8
0
 62
     7
 10
113.653262
 20
259.39211
 30
0.0
 11
113.66722
 21
259.414537
 31
0.0
  0
LINE
  8
0
 62
     7
 10
113.637731
 20
259.371961
 30
0.0
 11
113.653262
 21
259.39211
 31
0.0
  0
LINE
  8
0
 62
     7
 10
113.621121
 20
259.354731
 30
0.0
 11
113.637731
 21
259.371961
 31
0.0
  0
LINE
  8
0
 62
     7
 10
113.603964
 20
259.340971
 30
0.0
 11
113.621121
 21
259.354731
 31
0.0
  0
LINE
  8
0
 62
     7
 10
113.848857
 20
258.844408
 30
0.0
 11
113.863294
 21
258.833115
 31
0.0
  0
LINE
  8
0
 62
     7
 10
113.837697
 20
258.860932
 30
0.0
 11
113.848857
 21
258.844408
 31
0.0
  0
LINE
  8
0
 62
     7
 10
113.830183
 20
258.882139
 30
0.0
 11
113.837697
 21
258.860932
 31
0.0
  0
LINE
  8
0
 62
     7
 10
113.826566
 20
258.907321
 30
0.0
 11
113.830183
 21
258.882139
 31
0.0
  0
LINE
  8
0
 62
     7
 10
113.826967
 20
258.935643
 30
0.0
 11
113.826566
 21
258.907321
 31
0.0
  0
LINE
  8
0
 62
     7
 10
113.831372
 20
258.96616
 30
0.0
 11
113.826967
 21
258.935643
 31
0.0
  0
LINE
  8
0
 62
     7
 10
113.839634
 20
258.997857
 30
0.0
 11
113.831372
 21
258.96616
 31
0.0
  0
LINE
  8
0
 62
     7
 10
113.851478
 20
259.02968
 30
0.0
 11
113.839634
 21
258.997857
 31
0.0
  0
LINE
  8
0
 62
     7
 10
113.866511
 20
259.060571
 30
0.0
 11
113.851478
 21
259.02968
 31
0.0
  0
LINE
  8
0
 62
     7
 10
113.884232
 20
259.0895
 30
0.0
 11
113.866511
 21
259.060571
 31
0.0
  0
LINE
  8
0
 62
     7
 10
113.904052
 20
259.115506
 30
0.0
 11
113.884232
 21
259.0895
 31
0.0
  0
LINE
  8
0
 62
     7
 10
113.92531
 20
259.137723
 30
0.0
 11
113.904052
 21
259.115506
 31
0.0
  0
LINE
  8
0
 62
     7
 10
113.947301
 20
259.155412
 30
0.0
 11
113.92531
 21
259.137723
 31
0.0
  0
LINE
  8
0
 62
     7
 10
112.959382
 20
256.405352
 30
0.0
 11
112.982967
 21
256.42868
 31
0.0
  0
LINE
  8
0
 62
     7
 10
112.935216
 20
256.386338
 30
0.0
 11
112.959382
 21
256.405352
 31
0.0
  0
LINE
  8
0
 62
     7
 10
112.911656
 20
256.372395
 30
0.0
 11
112.935216
 21
256.386338
 31
0.0
  0
LINE
  8
0
 62
     7
 10
112.888634
 20
256.363303
 30
0.0
 11
112.911656
 21
256.372395
 31
0.0
  0
LINE
  8
0
 62
     7
 10
112.866675
 20
256.359271
 30
0.0
 11
112.888634
 21
256.363303
 31
0.0
  0
LINE
  8
0
 62
     7
 10
112.84628
 20
256.36039
 30
0.0
 11
112.866675
 21
256.359271
 31
0.0
  0
LINE
  8
0
 62
     7
 10
112.563571
 20
256.344095
 30
0.0
 11
112.581205
 21
256.33978
 31
0.0
  0
LINE
  8
0
 62
     7
 10
112.543894
 20
256.342705
 30
0.0
 11
112.563571
 21
256.344095
 31
0.0
  0
LINE
  8
0
 62
     7
 10
112.522817
 20
256.335654
 30
0.0
 11
112.543894
 21
256.342705
 31
0.0
  0
LINE
  8
0
 62
     7
 10
112.501028
 20
256.323174
 30
0.0
 11
112.522817
 21
256.335654
 31
0.0
  0
LINE
  8
0
 62
     7
 10
112.477411
 20
256.303969
 30
0.0
 11
112.501028
 21
256.323174
 31
0.0
  0
LINE
  8
0
 62
     7
 10
112.454701
 20
256.279593
 30
0.0
 11
112.477411
 21
256.303969
 31
0.0
  0
LINE
  8
0
 62
     7
 10
112.433772
 20
256.250982
 30
0.0
 11
112.454701
 21
256.279593
 31
0.0
  0
LINE
  8
0
 62
     7
 10
112.415427
 20
256.219236
 30
0.0
 11
112.433772
 21
256.250982
 31
0.0
  0
LINE
  8
0
 62
     7
 10
112.400372
 20
256.185575
 30
0.0
 11
112.415427
 21
256.219236
 31
0.0
  0
LINE
  8
0
 62
     7
 10
112.389185
 20
256.151292
 30
0.0
 11
112.400372
 21
256.185575
 31
0.0
  0
LINE
  8
0
 62
     7
 10
112.382296
 20
256.117705
 30
0.0
 11
112.389185
 21
256.151292
 31
0.0
  0
LINE
  8
0
 62
     7
 10
112.37997
 20
256.086105
 30
0.0
 11
112.382296
 21
256.117705
 31
0.0
  0
LINE
  8
0
 62
     7
 10
112.166485
 20
255.902942
 30
0.0
 11
112.185717
 21
255.9402
 31
0.0
  0
LINE
  8
0
 62
     7
 10
112.144289
 20
255.8682
 30
0.0
 11
112.166485
 21
255.902942
 31
0.0
  0
LINE
  8
0
 62
     7
 10
112.119789
 20
255.837007
 30
0.0
 11
112.144289
 21
255.8682
 31
0.0
  0
LINE
  8
0
 62
     7
 10
112.093714
 20
255.81029
 30
0.0
 11
112.119789
 21
255.837007
 31
0.0
  0
LINE
  8
0
 62
     7
 10
112.066841
 20
255.788845
 30
0.0
 11
112.093714
 21
255.81029
 31
0.0
  0
LINE
  8
0
 62
     7
 10
112.042675
 20
255.774603
 30
0.0
 11
112.066841
 21
255.788845
 31
0.0
  0
LINE
  8
0
 62
     7
 10
112.019089
 20
255.765475
 30
0.0
 11
112.042675
 21
255.774603
 31
0.0
  0
LINE
  8
0
 62
     7
 10
114.879111
 20
258.655403
 30
0.0
 11
114.866554
 21
258.648158
 31
0.0
  0
LINE
  8
0
 62
     7
 10
114.891287
 20
258.659636
 30
0.0
 11
114.879111
 21
258.655403
 31
0.0
  0
LINE
  8
0
 62
     7
 10
114.902711
 20
258.66073
 30
0.0
 11
114.891287
 21
258.659636
 31
0.0
  0
LINE
  8
0
 62
     7
 10
114.913036
 20
258.65865
 30
0.0
 11
114.902711
 21
258.66073
 31
0.0
  0
LINE
  8
0
 62
     7
 10
114.921949
 20
258.653461
 30
0.0
 11
114.913036
 21
258.65865
 31
0.0
  0
LINE
  8
0
 62
     7
 10
114.929179
 20
258.64532
 30
0.0
 11
114.921949
 21
258.653461
 31
0.0
  0
LINE
  8
0
 62
     7
 10
114.934506
 20
258.634474
 30
0.0
 11
114.929179
 21
258.64532
 31
0.0
  0
LINE
  8
0
 62
     7
 10
114.937769
 20
258.621253
 30
0.0
 11
114.934506
 21
258.634474
 31
0.0
  0
LINE
  8
0
 62
     7
 10
114.938867
 20
258.606058
 30
0.0
 11
114.937769
 21
258.621253
 31
0.0
  0
LINE
  8
0
 62
     7
 10
114.937478
 20
258.587182
 30
0.0
 11
114.938867
 21
258.606058
 31
0.0
  0
LINE
  8
0
 62
     7
 10
114.933363
 20
258.567119
 30
0.0
 11
114.937478
 21
258.587182
 31
0.0
  0
LINE
  8
0
 62
     7
 10
114.92668
 20
258.54664
 30
0.0
 11
114.933363
 21
258.567119
 31
0.0
  0
LINE
  8
0
 62
     7
 10
114.917687
 20
258.526533
 30
0.0
 11
114.92668
 21
258.54664
 31
0.0
  0
LINE
  8
0
 62
     7
 10
114.906729
 20
258.50757
 30
0.0
 11
114.917687
 21
258.526533
 31
0.0
  0
LINE
  8
0
 62
     7
 10
114.894227
 20
258.490479
 30
0.0
 11
114.906729
 21
258.50757
 31
0.0
  0
LINE
  8
0
 62
     7
 10
114.880662
 20
258.475918
 30
0.0
 11
114.894227
 21
258.490479
 31
0.0
  0
LINE
  8
0
 62
     7
 10
114.866554
 20
258.464446
 30
0.0
 11
114.880662
 21
258.475918
 31
0.0
  0
LINE
  8
0
 62
     7
 10
114.801716
 20
258.503085
 30
0.0
 11
114.809101
 21
258.507589
 31
0.0
  0
LINE
  8
0
 62
     7
 10
114.794444
 20
258.499803
 30
0.0
 11
114.801716
 21
258.503085
 31
0.0
  0
LINE
  8
0
 62
     7
 10
114.880831
 20
258.645134
 30
0.0
 11
114.87909
 21
258.655393
 31
0.0
  0
LINE
  8
0
 62
     7
 10
114.881414
 20
258.633892
 30
0.0
 11
114.880831
 21
258.645134
 31
0.0
  0
LINE
  8
0
 62
     7
 10
114.880025
 20
258.615015
 30
0.0
 11
114.881414
 21
258.633892
 31
0.0
  0
LINE
  8
0
 62
     7
 10
114.87591
 20
258.594953
 30
0.0
 11
114.880025
 21
258.615015
 31
0.0
  0
LINE
  8
0
 62
     7
 10
114.869227
 20
258.574474
 30
0.0
 11
114.87591
 21
258.594953
 31
0.0
  0
LINE
  8
0
 62
     7
 10
114.860234
 20
258.554367
 30
0.0
 11
114.869227
 21
258.574474
 31
0.0
  0
LINE
  8
0
 62
     7
 10
114.849276
 20
258.535403
 30
0.0
 11
114.860234
 21
258.554367
 31
0.0
  0
LINE
  8
0
 62
     7
 10
114.836774
 20
258.518313
 30
0.0
 11
114.849276
 21
258.535403
 31
0.0
  0
LINE
  8
0
 62
     7
 10
114.823208
 20
258.503752
 30
0.0
 11
114.836774
 21
258.518313
 31
0.0
  0
LINE
  8
0
 62
     7
 10
114.809101
 20
258.49228
 30
0.0
 11
114.823208
 21
258.503752
 31
0.0
  0
LINE
  8
0
 62
     7
 10
114.868565
 20
258.63746
 30
0.0
 11
114.866195
 21
258.64791
 31
0.0
  0
LINE
  8
0
 62
     7
 10
114.869362
 20
258.625599
 30
0.0
 11
114.868565
 21
258.63746
 31
0.0
  0
LINE
  8
0
 62
     7
 10
114.868204
 20
258.609869
 30
0.0
 11
114.869362
 21
258.625599
 31
0.0
  0
LINE
  8
0
 62
     7
 10
114.864775
 20
258.59315
 30
0.0
 11
114.868204
 21
258.609869
 31
0.0
  0
LINE
  8
0
 62
     7
 10
114.859206
 20
258.576084
 30
0.0
 11
114.864775
 21
258.59315
 31
0.0
  0
LINE
  8
0
 62
     7
 10
114.851712
 20
258.559328
 30
0.0
 11
114.859206
 21
258.576084
 31
0.0
  0
LINE
  8
0
 62
     7
 10
114.84258
 20
258.543525
 30
0.0
 11
114.851712
 21
258.559328
 31
0.0
  0
LINE
  8
0
 62
     7
 10
114.832162
 20
258.529283
 30
0.0
 11
114.84258
 21
258.543525
 31
0.0
  0
LINE
  8
0
 62
     7
 10
114.820857
 20
258.517149
 30
0.0
 11
114.832162
 21
258.529283
 31
0.0
  0
LINE
  8
0
 62
     7
 10
114.809101
 20
258.507589
 30
0.0
 11
114.820857
 21
258.517149
 31
0.0
  0
LINE
  8
0
 62
     7
 10
114.723465
 20
258.712964
 30
0.0
 11
114.721927
 21
258.690112
 31
0.0
  0
LINE
  8
0
 62
     7
 10
114.728033
 20
258.737204
 30
0.0
 11
114.723465
 21
258.712964
 31
0.0
  0
LINE
  8
0
 62
     7
 10
114.735482
 20
258.762059
 30
0.0
 11
114.728033
 21
258.737204
 31
0.0
  0
LINE
  8
0
 62
     7
 10
114.745577
 20
258.786735
 30
0.0
 11
114.735482
 21
258.762059
 31
0.0
  0
LINE
  8
0
 62
     7
 10
114.757994
 20
258.810444
 30
0.0
 11
114.745577
 21
258.786735
 31
0.0
  0
LINE
  8
0
 62
     7
 10
114.772338
 20
258.83243
 30
0.0
 11
114.757994
 21
258.810444
 31
0.0
  0
LINE
  8
0
 62
     7
 10
114.608559
 20
258.768631
 30
0.0
 11
114.60702
 21
258.745779
 31
0.0
  0
LINE
  8
0
 62
     7
 10
114.613126
 20
258.792871
 30
0.0
 11
114.608559
 21
258.768631
 31
0.0
  0
LINE
  8
0
 62
     7
 10
114.620576
 20
258.817726
 30
0.0
 11
114.613126
 21
258.792871
 31
0.0
  0
LINE
  8
0
 62
     7
 10
114.63067
 20
258.842402
 30
0.0
 11
114.620576
 21
258.817726
 31
0.0
  0
LINE
  8
0
 62
     7
 10
114.643088
 20
258.866111
 30
0.0
 11
114.63067
 21
258.842402
 31
0.0
  0
LINE
  8
0
 62
     7
 10
114.657431
 20
258.888097
 30
0.0
 11
114.643088
 21
258.866111
 31
0.0
  0
LINE
  8
0
 62
     7
 10
114.635496
 20
260.522692
 30
0.0
 11
114.601411
 21
260.517172
 31
0.0
  0
LINE
  8
0
 62
     7
 10
114.649613
 20
260.48911
 30
0.0
 11
114.635496
 21
260.522692
 31
0.0
  0
LINE
  8
0
 62
     7
 10
114.181639
 20
260.210412
 30
0.0
 11
114.167522
 21
260.157403
 31
0.0
  0
LINE
  8
0
 62
     7
 10
114.215724
 20
260.251796
 30
0.0
 11
114.181639
 21
260.210412
 31
0.0
  0
LINE
  8
0
 62
     7
 10
114.747974
 20
259.085848
 30
0.0
 11
114.77628
 21
259.071816
 31
0.0
  0
LINE
  8
0
 62
     7
 10
114.719668
 20
259.09988
 30
0.0
 11
114.747974
 21
259.085848
 31
0.0
  0
LINE
  8
0
 62
     7
 10
114.691362
 20
259.113912
 30
0.0
 11
114.719668
 21
259.09988
 31
0.0
  0
LINE
  8
0
 62
     7
 10
114.663056
 20
259.127944
 30
0.0
 11
114.691362
 21
259.113912
 31
0.0
  0
LINE
  8
0
 62
     7
 10
114.691362
 20
259.357383
 30
0.0
 11
114.663056
 21
259.371684
 31
0.0
  0
LINE
  8
0
 62
     7
 10
114.719668
 20
259.343081
 30
0.0
 11
114.691362
 21
259.357383
 31
0.0
  0
LINE
  8
0
 62
     7
 10
114.747974
 20
259.32878
 30
0.0
 11
114.719668
 21
259.343081
 31
0.0
  0
LINE
  8
0
 62
     7
 10
114.77628
 20
259.314479
 30
0.0
 11
114.747974
 21
259.32878
 31
0.0
  0
LINE
  8
0
 62
     7
 10
114.691362
 20
257.985691
 30
0.0
 11
114.663056
 21
257.999802
 31
0.0
  0
LINE
  8
0
 62
     7
 10
114.719668
 20
257.971579
 30
0.0
 11
114.691362
 21
257.985691
 31
0.0
  0
LINE
  8
0
 62
     7
 10
114.747974
 20
257.957468
 30
0.0
 11
114.719668
 21
257.971579
 31
0.0
  0
LINE
  8
0
 62
     7
 10
114.77628
 20
257.943357
 30
0.0
 11
114.747974
 21
257.957468
 31
0.0
  0
LINE
  8
0
 62
     7
 10
114.181639
 20
255.959669
 30
0.0
 11
114.167522
 21
255.993251
 31
0.0
  0
LINE
  8
0
 62
     7
 10
114.215724
 20
255.965189
 30
0.0
 11
114.181639
 21
255.959669
 31
0.0
  0
LINE
  8
0
 62
     7
 10
114.635496
 20
256.271949
 30
0.0
 11
114.601411
 21
256.230565
 31
0.0
  0
LINE
  8
0
 62
     7
 10
114.649613
 20
256.324958
 30
0.0
 11
114.635496
 21
256.271949
 31
0.0
  0
LINE
  8
0
 62
     7
 10
114.518906
 20
256.328596
 30
0.0
 11
114.484822
 21
256.287212
 31
0.0
  0
LINE
  8
0
 62
     7
 10
114.533023
 20
256.381605
 30
0.0
 11
114.518906
 21
256.328596
 31
0.0
  0
LINE
  8
0
 62
     7
 10
112.658924
 20
259.162693
 30
0.0
 11
112.673041
 21
259.129111
 31
0.0
  0
LINE
  8
0
 62
     7
 10
112.624839
 20
259.157173
 30
0.0
 11
112.658924
 21
259.162693
 31
0.0
  0
LINE
  8
0
 62
     7
 10
112.205068
 20
258.850413
 30
0.0
 11
112.239152
 21
258.891798
 31
0.0
  0
LINE
  8
0
 62
     7
 10
112.19095
 20
258.797404
 30
0.0
 11
112.205068
 21
258.850413
 31
0.0
  0
LINE
  8
0
 62
     7
 10
113.018981
 20
255.753916
 30
0.0
 11
113.046727
 21
255.740025
 31
0.0
  0
LINE
  8
0
 62
     7
 10
112.385439
 20
255.845585
 30
0.0
 11
112.185717
 21
255.9402
 31
0.0
  0
LINE
  8
0
 62
     7
 10
112.585146
 20
255.750959
 30
0.0
 11
112.385439
 21
255.845585
 31
0.0
  0
LINE
  8
0
 62
     7
 10
112.784835
 20
255.656321
 30
0.0
 11
112.585146
 21
255.750959
 31
0.0
  0
LINE
  8
0
 62
     7
 10
112.984507
 20
255.561672
 30
0.0
 11
112.784835
 21
255.656321
 31
0.0
  0
LINE
  8
0
 62
     7
 10
112.205068
 20
254.59967
 30
0.0
 11
112.239152
 21
254.605191
 31
0.0
  0
LINE
  8
0
 62
     7
 10
112.19095
 20
254.633253
 30
0.0
 11
112.205068
 21
254.59967
 31
0.0
  0
LINE
  8
0
 62
     7
 10
112.658924
 20
254.911951
 30
0.0
 11
112.673041
 21
254.96496
 31
0.0
  0
LINE
  8
0
 62
     7
 10
112.624839
 20
254.870566
 30
0.0
 11
112.658924
 21
254.911951
 31
0.0
  0
LINE
  8
0
 62
     7
 10
112.542334
 20
254.968597
 30
0.0
 11
112.556452
 21
255.021607
 31
0.0
  0
LINE
  8
0
 62
     7
 10
112.50825
 20
254.927213
 30
0.0
 11
112.542334
 21
254.968597
 31
0.0
  0
LINE
  8
0
 62
     7
 10
112.495973
 20
255.457567
 30
0.0
 11
112.697653
 21
255.3643
 31
0.0
  0
LINE
  8
0
 62
     7
 10
112.294292
 20
255.550835
 30
0.0
 11
112.495973
 21
255.457567
 31
0.0
  0
LINE
  8
0
 62
     7
 10
112.092613
 20
255.644103
 30
0.0
 11
112.294292
 21
255.550835
 31
0.0
  0
LINE
  8
0
 62
     7
 10
112.041056
 20
255.667946
 30
0.0
 11
112.092613
 21
255.644103
 31
0.0
  0
LINE
  8
0
 62
     7
 10
113.712604
 20
256.294682
 30
0.0
 11
113.913097
 21
256.200597
 31
0.0
  0
LINE
  8
0
 62
     7
 10
113.512111
 20
256.388766
 30
0.0
 11
113.712604
 21
256.294682
 31
0.0
  0
LINE
  8
0
 62
     7
 10
113.311618
 20
256.48285
 30
0.0
 11
113.512111
 21
256.388766
 31
0.0
  0
LINE
  8
0
 62
     7
 10
113.111123
 20
256.576934
 30
0.0
 11
113.311618
 21
256.48285
 31
0.0
  0
LINE
  8
0
 62
     7
 10
113.018791
 20
256.281368
 30
0.0
 11
112.81634
 21
256.374106
 31
0.0
  0
LINE
  8
0
 62
     7
 10
113.221259
 20
256.188642
 30
0.0
 11
113.018791
 21
256.281368
 31
0.0
  0
LINE
  8
0
 62
     7
 10
113.423742
 20
256.095927
 30
0.0
 11
113.221259
 21
256.188642
 31
0.0
  0
LINE
  8
0
 62
     7
 10
113.468285
 20
256.075534
 30
0.0
 11
113.423742
 21
256.095927
 31
0.0
  0
LINE
  8
0
 62
     7
 10
112.087617
 20
256.967546
 30
0.0
 11
111.97271
 21
257.023213
 31
0.0
  0
LINE
  8
0
 62
     7
 10
113.056295
 20
259.131351
 30
0.0
 11
113.171201
 21
259.075684
 31
0.0
  0
LINE
  8
0
 62
     7
 10
113.669362
 20
256.046679
 30
0.0
 11
113.554456
 21
256.102346
 31
0.0
  0
LINE
  8
0
 62
     7
 10
113.360134
 20
256.00112
 30
0.0
 11
112.581205
 21
256.33978
 31
0.0
  0
LINE
  8
0
 62
     7
 10
114.63804
 20
258.210484
 30
0.0
 11
114.752947
 21
258.154817
 31
0.0
  0
LINE
  8
0
 62
     7
 10
113.863294
 20
258.833115
 30
0.0
 11
114.60702
 21
258.434368
 31
0.0
  0
LINE
  8
0
 62
     7
 10
113.658046
 20
260.743835
 30
0.0
 11
113.83397
 21
260.766867
 31
0.0
  0
LINE
  8
0
 62
     7
 10
114.167522
 20
260.157403
 30
0.0
 11
114.167522
 21
259.912444
 31
0.0
  0
LINE
  8
0
 62
     7
 10
114.167522
 20
260.148173
 30
0.0
 11
114.542758
 21
260.406357
 31
0.0
  0
LINE
  8
0
 62
     7
 10
114.542758
 20
260.406357
 30
0.0
 11
114.482739
 21
260.435519
 31
0.0
  0
LINE
  8
0
 62
     7
 10
114.167522
 20
259.912444
 30
0.0
 11
114.649613
 21
260.244151
 31
0.0
  0
LINE
  8
0
 62
     7
 10
114.649613
 20
260.244151
 30
0.0
 11
114.542758
 21
260.406357
 31
0.0
  0
LINE
  8
0
 62
     7
 10
114.84356
 20
258.930556
 30
0.0
 11
114.728653
 21
258.986223
 31
0.0
  0
LINE
  8
0
 62
     7
 10
114.728653
 20
258.986223
 30
0.0
 11
114.657431
 21
258.888097
 31
0.0
  0
LINE
  8
0
 62
     7
 10
114.772338
 20
258.83243
 30
0.0
 11
114.657431
 21
258.888097
 31
0.0
  0
LINE
  8
0
 62
     7
 10
114.772338
 20
258.83243
 30
0.0
 11
114.84356
 21
258.930556
 31
0.0
  0
LINE
  8
0
 62
     7
 10
114.721927
 20
258.690112
 30
0.0
 11
114.60702
 21
258.745779
 31
0.0
  0
LINE
  8
0
 62
     7
 10
114.794519
 20
258.514789
 30
0.0
 11
114.809101
 21
258.507589
 31
0.0
  0
LINE
  8
0
 62
     7
 10
114.796564
 20
258.485045
 30
0.0
 11
114.809101
 21
258.49228
 31
0.0
  0
LINE
  8
0
 62
     7
 10
114.809101
 20
258.49228
 30
0.0
 11
114.866554
 21
258.464446
 31
0.0
  0
LINE
  8
0
 62
     7
 10
114.60702
 20
258.745779
 30
0.0
 11
114.60702
 21
258.512457
 31
0.0
  0
LINE
  8
0
 62
     7
 10
114.60702
 20
258.279136
 30
0.0
 11
114.60702
 21
258.512457
 31
0.0
  0
LINE
  8
0
 62
     7
 10
114.721927
 20
258.223469
 30
0.0
 11
114.60702
 21
258.279136
 31
0.0
  0
LINE
  8
0
 62
     7
 10
114.721927
 20
258.223469
 30
0.0
 11
114.721927
 21
258.690112
 31
0.0
  0
LINE
  8
0
 62
     7
 10
111.99287
 20
255.758434
 30
0.0
 11
112.019089
 21
255.765475
 31
0.0
  0
LINE
  8
0
 62
     7
 10
112.37997
 20
256.073858
 30
0.0
 11
112.185717
 21
255.9402
 31
0.0
  0
LINE
  8
0
 62
     7
 10
112.37997
 20
256.086105
 30
0.0
 11
112.37997
 21
256.073858
 31
0.0
  0
LINE
  8
0
 62
     7
 10
112.694722
 20
256.290425
 30
0.0
 11
112.81634
 21
256.374106
 31
0.0
  0
LINE
  8
0
 62
     7
 10
112.982967
 20
256.42868
 30
0.0
 11
113.111123
 21
256.576934
 31
0.0
  0
LINE
  8
0
 62
     7
 10
113.111123
 20
256.576934
 30
0.0
 11
114.080147
 21
257.24368
 31
0.0
  0
LINE
  8
0
 62
     7
 10
114.080147
 20
258.716849
 30
0.0
 11
114.080147
 21
257.24368
 31
0.0
  0
LINE
  8
0
 62
     7
 10
114.080147
 20
259.246818
 30
0.0
 11
113.947301
 21
259.155412
 31
0.0
  0
LINE
  8
0
 62
     7
 10
114.080147
 20
259.246818
 30
0.0
 11
114.080147
 21
259.820305
 31
0.0
  0
LINE
  8
0
 62
     7
 10
111.681474
 20
259.383836
 30
0.0
 11
113.320583
 21
260.51164
 31
0.0
  0
LINE
  8
0
 62
     7
 10
113.658046
 20
260.743835
 30
0.0
 11
113.320583
 21
260.51164
 31
0.0
  0
LINE
  8
0
 62
     7
 10
113.658046
 20
260.743835
 30
0.0
 11
114.15246
 21
261.084021
 31
0.0
  0
LINE
  8
0
 62
     7
 10
110.849596
 20
254.929014
 30
0.0
 11
110.849596
 21
255.611675
 31
0.0
  0
LINE
  8
0
 62
     7
 10
110.753178
 20
255.659015
 30
0.0
 11
110.753178
 21
255.800436
 31
0.0
  0
LINE
  8
0
 62
     7
 10
110.753178
 20
255.800436
 30
0.0
 11
110.849596
 21
255.796067
 31
0.0
  0
LINE
  8
0
 62
     7
 10
110.849596
 20
255.796067
 30
0.0
 11
110.849596
 21
256.808317
 31
0.0
  0
LINE
  8
0
 62
     7
 10
110.849596
 20
256.808317
 30
0.0
 11
110.926743
 21
256.861398
 31
0.0
  0
LINE
  8
0
 62
     7
 10
110.926743
 20
256.861398
 30
0.0
 11
110.926743
 21
256.891977
 31
0.0
  0
LINE
  8
0
 62
     7
 10
110.849596
 20
257.757909
 30
0.0
 11
110.849596
 21
256.932152
 31
0.0
  0
LINE
  8
0
 62
     7
 10
110.753178
 20
257.948772
 30
0.0
 11
110.753178
 21
257.80735
 31
0.0
  0
LINE
  8
0
 62
     7
 10
110.849596
 20
258.085824
 30
0.0
 11
110.753178
 21
257.948772
 31
0.0
  0
LINE
  8
0
 62
     7
 10
110.849596
 20
258.811455
 30
0.0
 11
110.849596
 21
258.085824
 31
0.0
  0
LINE
  8
0
 62
     7
 10
110.849596
 20
258.811455
 30
0.0
 11
111.344011
 21
259.151641
 31
0.0
  0
LINE
  8
0
 62
     7
 10
111.344011
 20
259.151641
 30
0.0
 11
111.681474
 21
259.383836
 31
0.0
  0
LINE
  8
0
 62
     7
 10
115.065006
 20
259.745562
 30
0.0
 11
115.016797
 21
259.677036
 31
0.0
  0
LINE
  8
0
 62
     7
 10
114.238646
 20
261.045308
 30
0.0
 11
114.15246
 21
261.084021
 31
0.0
  0
LINE
  8
0
 62
     7
 10
114.486957
 20
260.438421
 30
0.0
 11
114.533023
 21
260.417728
 31
0.0
  0
LINE
  8
0
 62
     7
 10
114.794211
 20
260.464849
 30
0.0
 11
114.926106
 21
260.627001
 31
0.0
  0
LINE
  8
0
 62
     7
 10
114.794211
 20
260.464849
 30
0.0
 11
115.131704
 21
260.697064
 31
0.0
  0
LINE
  8
0
 62
     7
 10
114.926106
 20
260.792842
 30
0.0
 11
115.131704
 21
260.697064
 31
0.0
  0
LINE
  8
0
 62
     7
 10
115.016797
 20
260.121869
 30
0.0
 11
114.987077
 21
260.079623
 31
0.0
  0
LINE
  8
0
 62
     7
 10
115.131704
 20
260.697064
 30
0.0
 11
115.131704
 21
260.572452
 31
0.0
  0
LINE
  8
0
 62
     7
 10
115.016797
 20
260.493389
 30
0.0
 11
115.016797
 21
260.121869
 31
0.0
  0
LINE
  8
0
 62
     7
 10
114.987077
 20
259.776211
 30
0.0
 11
115.065006
 21
259.886983
 31
0.0
  0
LINE
  8
0
 62
     7
 10
115.065006
 20
259.886983
 30
0.0
 11
114.987077
 21
259.922592
 31
0.0
  0
LINE
  8
0
 62
     7
 10
115.065006
 20
259.745562
 30
0.0
 11
115.065006
 21
259.886983
 31
0.0
  0
LINE
  8
0
 62
     7
 10
115.016797
 20
259.677036
 30
0.0
 11
115.016797
 21
258.855645
 31
0.0
  0
LINE
  8
0
 62
     7
 10
115.131704
 20
258.799978
 30
0.0
 11
115.016797
 21
258.855645
 31
0.0
  0
LINE
  8
0
 62
     7
 10
115.131704
 20
258.799978
 30
0.0
 11
115.131704
 21
258.677504
 31
0.0
  0
LINE
  8
0
 62
     7
 10
115.016797
 20
257.91178
 30
0.0
 11
115.016797
 21
258.598441
 31
0.0
  0
LINE
  8
0
 62
     7
 10
113.320583
 20
260.51164
 30
0.0
 11
113.496507
 21
260.534672
 31
0.0
  0
LINE
  8
0
 62
     7
 10
113.405524
 20
260.47207
 30
0.0
 11
113.320583
 21
260.51164
 31
0.0
  0
LINE
  8
0
 62
     7
 10
112.556452
 20
259.05773
 30
0.0
 11
112.510385
 21
259.078422
 31
0.0
  0
LINE
  8
0
 62
     7
 10
113.603964
 20
259.340971
 30
0.0
 11
113.236599
 21
259.088202
 31
0.0
  0
LINE
  8
0
 62
     7
 10
113.727369
 20
259.580384
 30
0.0
 11
113.688698
 21
259.463308
 31
0.0
  0
LINE
  8
0
 62
     7
 10
114.772338
 20
258.150522
 30
0.0
 11
114.84356
 21
258.150406
 31
0.0
  0
LINE
  8
0
 62
     7
 10
112.697653
 20
255.3643
 30
0.0
 11
112.827033
 21
255.39253
 31
0.0
  0
LINE
  8
0
 62
     7
 10
112.827033
 20
255.39253
 30
0.0
 11
112.019089
 21
255.765475
 31
0.0
  0
LINE
  8
0
 62
     7
 10
113.362828
 20
259.334276
 30
0.0
 11
113.420282
 21
259.306443
 31
0.0
  0
LINE
  8
0
 62
     7
 10
114.663056
 20
259.371684
 30
0.0
 11
114.663056
 21
259.544363
 31
0.0
  0
LINE
  8
0
 62
     7
 10
114.797365
 20
259.251037
 30
0.0
 11
114.77628
 21
259.314479
 31
0.0
  0
LINE
  8
0
 62
     7
 10
114.912272
 20
259.19537
 30
0.0
 11
114.797365
 21
259.251037
 31
0.0
  0
LINE
  8
0
 62
     7
 10
113.947301
 20
259.155412
 30
0.0
 11
114.633587
 21
258.848482
 31
0.0
  0
LINE
  8
0
 62
     7
 10
114.987077
 20
258.700466
 30
0.0
 11
115.131704
 21
258.799978
 31
0.0
  0
LINE
  8
0
 62
     7
 10
115.016797
 20
258.855645
 30
0.0
 11
114.987077
 21
258.835196
 31
0.0
  0
LINE
  8
0
 62
     7
 10
114.987077
 20
258.700466
 30
0.0
 11
114.987077
 21
260.47294
 31
0.0
  0
LINE
  8
0
 62
     7
 10
114.663056
 20
258.895847
 30
0.0
 11
114.663056
 21
259.127944
 31
0.0
  0
LINE
  8
0
 62
     7
 10
114.797365
 20
259.251037
 30
0.0
 11
114.684061
 21
259.308459
 31
0.0
  0
LINE
  8
0
 62
     7
 10
114.663056
 20
259.371684
 30
0.0
 11
114.684061
 21
259.308459
 31
0.0
  0
LINE
  8
0
 62
     7
 10
114.080147
 20
259.246818
 30
0.0
 11
114.663056
 21
258.976285
 31
0.0
  0
LINE
  8
0
 62
     7
 10
114.987077
 20
260.47294
 30
0.0
 11
115.131704
 21
260.572452
 31
0.0
  0
LINE
  8
0
 62
     7
 10
114.649613
 20
260.244151
 30
0.0
 11
114.649613
 21
260.48911
 31
0.0
  0
LINE
  8
0
 62
     7
 10
114.595775
 20
260.513293
 30
0.0
 11
114.649613
 21
260.48911
 31
0.0
  0
LINE
  8
0
 62
     7
 10
114.533023
 20
260.417728
 30
0.0
 11
114.533023
 21
260.470117
 31
0.0
  0
LINE
  8
0
 62
     7
 10
112.556452
 20
259.110118
 30
0.0
 11
112.556452
 21
259.05773
 31
0.0
  0
LINE
  8
0
 62
     7
 10
111.736897
 20
258.493828
 30
0.0
 11
111.736897
 21
258.859295
 31
0.0
  0
LINE
  8
0
 62
     7
 10
114.601411
 20
260.517172
 30
0.0
 11
114.215724
 21
260.251796
 31
0.0
  0
LINE
  8
0
 62
     7
 10
114.926106
 20
261.112988
 30
0.0
 11
114.590794
 21
261.287606
 31
0.0
  0
LINE
  8
0
 62
     7
 10
114.926106
 20
260.627001
 30
0.0
 11
114.926106
 21
261.112988
 31
0.0
  0
LINE
  8
0
 62
     7
 10
114.926106
 20
261.112988
 30
0.0
 11
114.794211
 21
260.948533
 31
0.0
  0
LINE
  8
0
 62
     7
 10
114.794211
 20
260.948533
 30
0.0
 11
114.794211
 21
260.464849
 31
0.0
  0
LINE
  8
0
 62
     7
 10
113.431932
 20
260.284441
 30
0.0
 11
113.661327
 21
260.169042
 31
0.0
  0
LINE
  8
0
 62
     7
 10
113.431932
 20
260.284441
 30
0.0
 11
113.661327
 21
260.107796
 31
0.0
  0
LINE
  8
0
 62
     7
 10
113.661327
 20
260.169042
 30
0.0
 11
113.661327
 21
260.107796
 31
0.0
  0
LINE
  8
0
 62
     7
 10
111.445423
 20
254.224425
 30
0.0
 11
111.445423
 21
254.346919
 31
0.0
  0
LINE
  8
0
 62
     7
 10
111.622487
 20
254.468749
 30
0.0
 11
111.445423
 21
254.346919
 31
0.0
  0
LINE
  8
0
 62
     7
 10
112.19095
 20
254.859886
 30
0.0
 11
112.270868
 21
254.914873
 31
0.0
  0
LINE
  8
0
 62
     7
 10
112.270868
 20
254.914873
 30
0.0
 11
112.556452
 21
255.111372
 31
0.0
  0
LINE
  8
0
 62
     7
 10
114.167522
 20
256.219884
 30
0.0
 11
114.24744
 21
256.274872
 31
0.0
  0
LINE
  8
0
 62
     7
 10
114.24744
 20
256.274872
 30
0.0
 11
114.533023
 21
256.471371
 31
0.0
  0
LINE
  8
0
 62
     7
 10
113.661327
 20
255.285027
 30
0.0
 11
113.661327
 21
255.346274
 31
0.0
  0
LINE
  8
0
 62
     7
 10
113.60825
 20
255.309753
 30
0.0
 11
113.661327
 21
255.285027
 31
0.0
  0
LINE
  8
0
 62
     7
 10
114.926106
 20
256.22667
 30
0.0
 11
114.794211
 21
256.064518
 31
0.0
  0
LINE
  8
0
 62
     7
 10
114.794211
 20
256.064518
 30
0.0
 11
113.661327
 21
255.285027
 31
0.0
  0
LINE
  8
0
 62
     7
 10
113.179236
 20
254.95332
 30
0.0
 11
112.046353
 21
254.173829
 31
0.0
  0
LINE
  8
0
 62
     7
 10
112.046353
 20
254.173829
 30
0.0
 11
111.790704
 21
254.069328
 31
0.0
  0
LINE
  8
0
 62
     7
 10
111.790704
 20
254.069328
 30
0.0
 11
111.445423
 21
254.224425
 31
0.0
  0
LINE
  8
0
 62
     7
 10
114.794211
 20
256.064518
 30
0.0
 11
114.794211
 21
256.548203
 31
0.0
  0
LINE
  8
0
 62
     7
 10
114.926106
 20
256.638954
 30
0.0
 11
114.926106
 21
256.22667
 31
0.0
  0
LINE
  8
0
 62
     7
 10
112.984507
 20
255.561672
 30
0.0
 11
112.998288
 21
255.597645
 31
0.0
  0
LINE
  8
0
 62
     7
 10
113.036959
 20
255.714722
 30
0.0
 11
112.998288
 21
255.597645
 31
0.0
  0
LINE
  8
0
 62
     7
 10
113.305375
 20
255.963443
 30
0.0
 11
113.121692
 21
255.837058
 31
0.0
  0
LINE
  8
0
 62
     7
 10
114.484822
 20
256.287212
 30
0.0
 11
114.601411
 21
256.230565
 31
0.0
  0
LINE
  8
0
 62
     7
 10
114.484822
 20
256.287212
 30
0.0
 11
114.167522
 21
256.068891
 31
0.0
  0
LINE
  8
0
 62
     7
 10
114.215724
 20
255.965189
 30
0.0
 11
114.167581
 21
255.99026
 31
0.0
  0
LINE
  8
0
 62
     7
 10
114.601411
 20
256.230565
 30
0.0
 11
114.215724
 21
255.965189
 31
0.0
  0
LINE
  8
0
 62
     7
 10
114.533023
 20
256.381605
 30
0.0
 11
114.649613
 21
256.324958
 31
0.0
  0
LINE
  8
0
 62
     7
 10
111.736897
 20
254.44459
 30
0.0
 11
111.736897
 21
254.215991
 31
0.0
  0
LINE
  8
0
 62
     7
 10
112.19095
 20
254.708892
 30
0.0
 11
112.50825
 21
254.927213
 31
0.0
  0
LINE
  8
0
 62
     7
 10
112.556452
 20
255.021607
 30
0.0
 11
112.556452
 21
255.129698
 31
0.0
  0
LINE
  8
0
 62
     7
 10
114.533023
 20
256.489696
 30
0.0
 11
114.533023
 21
256.381605
 31
0.0
  0
LINE
  8
0
 62
     7
 10
114.649613
 20
256.569917
 30
0.0
 11
114.649613
 21
256.324958
 31
0.0
  0
LINE
  8
0
 62
     7
 10
114.35007
 20
256.288308
 30
0.0
 11
114.253652
 21
256.221967
 31
0.0
  0
LINE
  8
0
 62
     7
 10
114.334953
 20
256.184093
 30
0.0
 11
114.253652
 21
256.221967
 31
0.0
  0
LINE
  8
0
 62
     7
 10
114.35007
 20
256.288308
 30
0.0
 11
114.431371
 21
256.250434
 31
0.0
  0
LINE
  8
0
 62
     7
 10
114.253652
 20
256.221967
 30
0.0
 11
114.167522
 21
256.210691
 31
0.0
  0
LINE
  8
0
 62
     7
 10
114.281875
 20
256.147573
 30
0.0
 11
114.167522
 21
256.200844
 31
0.0
  0
LINE
  8
0
 62
     7
 10
115.016797
 20
256.960697
 30
0.0
 11
115.131704
 21
256.90503
 31
0.0
  0
LINE
  8
0
 62
     7
 10
114.987077
 20
256.940248
 30
0.0
 11
115.016797
 21
256.960697
 31
0.0
  0
LINE
  8
0
 62
     7
 10
114.987077
 20
256.805518
 30
0.0
 11
115.131704
 21
256.90503
 31
0.0
  0
LINE
  8
0
 62
     7
 10
114.797365
 20
258.035815
 30
0.0
 11
114.77628
 21
257.943357
 31
0.0
  0
LINE
  8
0
 62
     7
 10
114.797365
 20
258.035815
 30
0.0
 11
114.684061
 21
258.091932
 31
0.0
  0
LINE
  8
0
 62
     7
 10
114.663056
 20
257.999802
 30
0.0
 11
114.684061
 21
258.091932
 31
0.0
  0
LINE
  8
0
 62
     7
 10
114.457737
 20
257.061303
 30
0.0
 11
114.080147
 21
257.24368
 31
0.0
  0
LINE
  8
0
 62
     7
 10
114.663056
 20
257.999802
 30
0.0
 11
114.663056
 21
257.557663
 31
0.0
  0
LINE
  8
0
 62
     7
 10
114.987077
 20
258.577992
 30
0.0
 11
114.987077
 21
256.805518
 31
0.0
  0
LINE
  8
0
 62
     7
 10
114.987077
 20
257.771706
 30
0.0
 11
115.065006
 21
257.768174
 31
0.0
  0
LINE
  8
0
 62
     7
 10
115.065006
 20
257.909596
 30
0.0
 11
115.065006
 21
257.768174
 31
0.0
  0
LINE
  8
0
 62
     7
 10
115.065006
 20
257.909596
 30
0.0
 11
115.016797
 21
257.91178
 31
0.0
  0
LINE
  8
0
 62
     7
 10
115.016797
 20
256.960697
 30
0.0
 11
115.016797
 21
257.466947
 31
0.0
  0
LINE
  8
0
 62
     7
 10
115.016797
 20
257.466947
 30
0.0
 11
114.987077
 21
257.468294
 31
0.0
  0
LINE
  8
0
 62
     7
 10
114.987077
 20
258.577992
 30
0.0
 11
115.131704
 21
258.677504
 31
0.0
  0
LINE
  8
0
 62
     7
 10
114.167522
 20
255.993251
 30
0.0
 11
114.167522
 21
256.23821
 31
0.0
  0
LINE
  8
0
 62
     7
 10
113.535628
 20
256.106637
 30
0.0
 11
112.935216
 21
256.386338
 31
0.0
  0
LINE
  8
0
 62
     7
 10
113.739563
 20
256.011634
 30
0.0
 11
113.679855
 21
256.039449
 31
0.0
  0
LINE
  8
0
 62
     7
 10
114.912272
 20
257.980148
 30
0.0
 11
114.797365
 21
258.035815
 31
0.0
  0
LINE
  8
0
 62
     7
 10
113.913097
 20
256.200597
 30
0.0
 11
113.783717
 21
256.050786
 31
0.0
  0
LINE
  8
0
 62
     7
 10
113.898624
 20
255.995119
 30
0.0
 11
113.783717
 21
256.050786
 31
0.0
  0
LINE
  8
0
 62
     7
 10
113.783717
 20
256.050786
 30
0.0
 11
112.982967
 21
256.42868
 31
0.0
  0
LINE
  8
0
 62
     7
 10
113.739563
 20
256.011634
 30
0.0
 11
113.854469
 21
255.955967
 31
0.0
  0
LINE
  8
0
 62
     7
 10
113.305375
 20
255.963443
 30
0.0
 11
113.489058
 21
256.089827
 31
0.0
  0
LINE
  8
0
 62
     7
 10
112.501028
 20
256.323174
 30
0.0
 11
113.305375
 21
255.963443
 31
0.0
  0
LINE
  8
0
 62
     7
 10
113.362828
 20
255.660042
 30
0.0
 11
113.420282
 21
255.632208
 31
0.0
  0
LINE
  8
0
 62
     7
 10
113.348246
 20
255.682551
 30
0.0
 11
113.362828
 21
255.675351
 31
0.0
  0
LINE
  8
0
 62
     7
 10
113.362828
 20
255.660042
 30
0.0
 11
113.350292
 21
255.652807
 31
0.0
  0
LINE
  8
0
 62
     7
 10
114.24744
 20
256.274872
 30
0.0
 11
114.35007
 21
256.288308
 31
0.0
  0
LINE
  8
0
 62
     7
 10
113.727369
 20
255.964566
 30
0.0
 11
113.688698
 21
256.028427
 31
0.0
  0
LINE
  8
0
 62
     7
 10
113.489058
 20
256.089827
 30
0.0
 11
113.603964
 21
256.03416
 31
0.0
  0
LINE
  8
0
 62
     7
 10
113.603964
 20
256.03416
 30
0.0
 11
113.236599
 21
255.781391
 31
0.0
  0
LINE
  8
0
 62
     7
 10
113.121692
 20
255.837058
 30
0.0
 11
113.236599
 21
255.781391
 31
0.0
  0
LINE
  8
0
 62
     7
 10
114.167522
 20
256.23821
 30
0.0
 11
114.649613
 21
256.569917
 31
0.0
  0
LINE
  8
0
 62
     7
 10
115.016797
 20
257.932645
 30
0.0
 11
115.065006
 21
257.909596
 31
0.0
  0
LINE
  8
0
 62
     7
 10
115.131704
 20
256.780418
 30
0.0
 11
115.131704
 21
256.90503
 31
0.0
  0
LINE
  8
0
 62
     7
 10
115.016797
 20
257.466947
 30
0.0
 11
114.987077
 21
257.481345
 31
0.0
  0
LINE
  8
0
 62
     7
 10
114.794211
 20
256.548203
 30
0.0
 11
115.131704
 21
256.780418
 31
0.0
  0
LINE
  8
0
 62
     7
 10
113.036959
 20
259.149602
 30
0.0
 11
113.016586
 21
259.183247
 31
0.0
  0
LINE
  8
0
 62
     7
 10
113.431932
 20
260.284441
 30
0.0
 11
112.949841
 21
259.952734
 31
0.0
  0
LINE
  8
0
 62
     7
 10
114.794211
 20
260.948533
 30
0.0
 11
113.661327
 21
260.169042
 31
0.0
  0
LINE
  8
0
 62
     7
 10
111.445423
 20
259.123405
 30
0.0
 11
114.590794
 21
261.287606
 31
0.0
  0
LINE
  8
0
 62
     7
 10
111.790704
 20
258.955645
 30
0.0
 11
111.445423
 21
259.123405
 31
0.0
  0
LINE
  8
0
 62
     7
 10
112.046353
 20
259.057844
 30
0.0
 11
111.790704
 21
258.955645
 31
0.0
  0
LINE
  8
0
 62
     7
 10
113.179236
 20
259.837335
 30
0.0
 11
112.046353
 21
259.057844
 31
0.0
  0
LINE
  8
0
 62
     7
 10
113.179236
 20
259.837335
 30
0.0
 11
112.949841
 21
259.952734
 31
0.0
  0
LINE
  8
0
 62
     7
 10
113.179236
 20
259.776089
 30
0.0
 11
113.179236
 21
259.837335
 31
0.0
  0
LINE
  8
0
 62
     7
 10
113.179236
 20
259.776089
 30
0.0
 11
113.661327
 21
260.107796
 31
0.0
  0
LINE
  8
0
 62
     7
 10
113.151865
 20
255.659054
 30
0.0
 11
113.036959
 21
255.714722
 31
0.0
  0
LINE
  8
0
 62
     7
 10
112.19095
 20
258.552446
 30
0.0
 11
112.19095
 21
258.797404
 31
0.0
  0
LINE
  8
0
 62
     7
 10
112.239152
 20
258.891798
 30
0.0
 11
112.624839
 21
259.157173
 31
0.0
  0
LINE
  8
0
 62
     7
 10
112.673041
 20
259.129111
 30
0.0
 11
112.673041
 21
258.884153
 31
0.0
  0
LINE
  8
0
 62
     7
 10
112.673041
 20
258.884153
 30
0.0
 11
112.19095
 21
258.552446
 31
0.0
  0
LINE
  8
0
 62
     7
 10
112.673041
 20
255.209918
 30
0.0
 11
112.19095
 21
254.878211
 31
0.0
  0
LINE
  8
0
 62
     7
 10
112.673041
 20
254.96496
 30
0.0
 11
112.673041
 21
255.209918
 31
0.0
  0
LINE
  8
0
 62
     7
 10
112.239152
 20
254.605191
 30
0.0
 11
112.624839
 21
254.870566
 31
0.0
  0
LINE
  8
0
 62
     7
 10
112.19095
 20
254.878211
 30
0.0
 11
112.19095
 21
254.633253
 31
0.0
  0
LINE
  8
0
 62
     7
 10
113.113195
 20
255.541978
 30
0.0
 11
113.151865
 21
255.659054
 31
0.0
  0
LINE
  8
0
 62
     7
 10
112.068225
 20
256.289932
 30
0.0
 11
111.997004
 21
256.191807
 31
0.0
  0
LINE
  8
0
 62
     7
 10
112.118637
 20
256.432251
 30
0.0
 11
112.118637
 21
256.898894
 31
0.0
  0
LINE
  8
0
 62
     7
 10
112.068225
 20
256.971841
 30
0.0
 11
111.997004
 21
256.971956
 31
0.0
  0
LINE
  8
0
 62
     7
 10
113.113195
 20
259.157797
 30
0.0
 11
113.151865
 21
259.093935
 31
0.0
  0
LINE
  8
0
 62
     7
 10
112.046353
 20
258.57416
 30
0.0
 11
112.046353
 21
259.057844
 31
0.0
  0
LINE
  8
0
 62
     7
 10
111.70886
 20
258.341945
 30
0.0
 11
112.046353
 21
258.57416
 31
0.0
  0
LINE
  8
0
 62
     7
 10
111.70886
 20
258.341945
 30
0.0
 11
111.70886
 21
258.217332
 31
0.0
  0
LINE
  8
0
 62
     7
 10
111.70886
 20
258.217332
 30
0.0
 11
111.853487
 21
258.316844
 31
0.0
  0
LINE
  8
0
 62
     7
 10
111.853487
 20
256.544371
 30
0.0
 11
111.853487
 21
258.316844
 31
0.0
  0
LINE
  8
0
 62
     7
 10
111.70886
 20
256.444859
 30
0.0
 11
111.853487
 21
256.544371
 31
0.0
  0
LINE
  8
0
 62
     7
 10
111.70886
 20
256.322384
 30
0.0
 11
111.70886
 21
256.444859
 31
0.0
  0
LINE
  8
0
 62
     7
 10
111.70886
 20
256.322384
 30
0.0
 11
111.853487
 21
256.421896
 31
0.0
  0
LINE
  8
0
 62
     7
 10
111.853487
 20
256.421896
 30
0.0
 11
111.853487
 21
254.649423
 31
0.0
  0
LINE
  8
0
 62
     7
 10
111.70886
 20
254.549911
 30
0.0
 11
111.853487
 21
254.649423
 31
0.0
  0
LINE
  8
0
 62
     7
 10
111.70886
 20
254.425298
 30
0.0
 11
111.70886
 21
254.549911
 31
0.0
  0
LINE
  8
0
 62
     7
 10
111.70886
 20
254.425298
 30
0.0
 11
112.046353
 21
254.657514
 31
0.0
  0
LINE
  8
0
 62
     7
 10
112.046353
 20
254.657514
 30
0.0
 11
112.046353
 21
254.173829
 31
0.0
  0
LINE
  8
0
 62
     7
 10
113.179236
 20
255.014567
 30
0.0
 11
113.179236
 21
254.95332
 31
0.0
  0
LINE
  8
0
 62
     7
 10
113.179236
 20
255.014567
 30
0.0
 11
113.661327
 21
255.346274
 31
0.0
  0
LINE
  8
0
 62
     7
 10
111.916556
 20
256.502038
 30
0.0
 11
111.90402
 21
256.494803
 31
0.0
  0
LINE
  8
0
 62
     7
 10
111.916556
 20
256.502038
 30
0.0
 11
111.97401
 21
256.474204
 31
0.0
  0
LINE
  8
0
 62
     7
 10
111.901974
 20
256.524547
 30
0.0
 11
111.916556
 21
256.517347
 31
0.0
  0
LINE
  8
0
 62
     7
 10
111.70886
 20
256.444859
 30
0.0
 11
111.593953
 21
256.500526
 31
0.0
  0
LINE
  8
0
 62
     7
 10
111.593953
 20
257.163275
 30
0.0
 11
111.593953
 21
256.500526
 31
0.0
  0
LINE
  8
0
 62
     7
 10
111.479046
 20
257.218942
 30
0.0
 11
111.593953
 21
257.163275
 31
0.0
  0
LINE
  8
0
 62
     7
 10
111.479046
 20
257.218942
 30
0.0
 11
111.479046
 21
255.770969
 31
0.0
  0
LINE
  8
0
 62
     7
 10
111.479046
 20
255.770969
 30
0.0
 11
111.593953
 21
255.715302
 31
0.0
  0
LINE
  8
0
 62
     7
 10
111.593953
 20
255.715302
 30
0.0
 11
111.593953
 21
256.378051
 31
0.0
  0
LINE
  8
0
 62
     7
 10
111.70886
 20
256.322384
 30
0.0
 11
111.593953
 21
256.378051
 31
0.0
  0
LINE
  8
0
 62
     7
 10
111.790704
 20
254.481612
 30
0.0
 11
111.790704
 21
254.069328
 31
0.0
  0
LINE
  8
0
 62
     7
 10
111.445423
 20
254.346919
 30
0.0
 11
111.736897
 21
254.215991
 31
0.0
  0
LINE
  8
0
 62
     7
 10
112.673041
 20
254.96496
 30
0.0
 11
112.556452
 21
255.021607
 31
0.0
  0
LINE
  8
0
 62
     7
 10
112.624839
 20
254.870566
 30
0.0
 11
112.50825
 21
254.927213
 31
0.0
  0
LINE
  8
0
 62
     7
 10
112.19101
 20
254.630262
 30
0.0
 11
112.239152
 21
254.605191
 31
0.0
  0
LINE
  8
0
 62
     7
 10
111.479046
 20
254.540908
 30
0.0
 11
111.70886
 21
254.425298
 31
0.0
  0
LINE
  8
0
 62
     7
 10
111.479046
 20
254.601219
 30
0.0
 11
110.849596
 21
254.929014
 31
0.0
  0
LINE
  8
0
 62
     7
 10
111.545744
 20
255.269879
 30
0.0
 11
110.753178
 21
255.659015
 31
0.0
  0
LINE
  8
0
 62
     7
 10
111.545744
 20
255.4113
 30
0.0
 11
111.545744
 21
255.269879
 31
0.0
  0
LINE
  8
0
 62
     7
 10
110.753178
 20
255.800436
 30
0.0
 11
111.545744
 21
255.4113
 31
0.0
  0
LINE
  8
0
 62
     7
 10
111.545744
 20
255.269879
 30
0.0
 11
111.593953
 21
255.267694
 31
0.0
  0
LINE
  8
0
 62
     7
 10
111.736897
 20
256.341676
 30
0.0
 11
111.736897
 21
254.703932
 31
0.0
  0
LINE
  8
0
 62
     7
 10
111.853487
 20
254.649423
 30
0.0
 11
111.736897
 21
254.703932
 31
0.0
  0
LINE
  8
0
 62
     7
 10
111.593953
 20
255.267694
 30
0.0
 11
111.593953
 21
254.605578
 31
0.0
  0
LINE
  8
0
 62
     7
 10
111.736897
 20
254.703932
 30
0.0
 11
111.593953
 21
254.605578
 31
0.0
  0
LINE
  8
0
 62
     7
 10
111.642162
 20
255.713117
 30
0.0
 11
111.593953
 21
255.715302
 31
0.0
  0
LINE
  8
0
 62
     7
 10
111.642162
 20
255.406931
 30
0.0
 11
111.642162
 21
255.713117
 31
0.0
  0
LINE
  8
0
 62
     7
 10
111.642162
 20
255.406931
 30
0.0
 11
111.545744
 21
255.4113
 31
0.0
  0
LINE
  8
0
 62
     7
 10
111.593953
 20
254.605578
 30
0.0
 11
111.70886
 21
254.549911
 31
0.0
  0
LINE
  8
0
 62
     7
 10
111.479046
 20
254.540908
 30
0.0
 11
111.479046
 21
255.302626
 31
0.0
  0
LINE
  8
0
 62
     7
 10
111.736897
 20
256.59888
 30
0.0
 11
111.853487
 21
256.544371
 31
0.0
  0
LINE
  8
0
 62
     7
 10
111.593953
 20
256.500526
 30
0.0
 11
111.736897
 21
256.59888
 31
0.0
  0
LINE
  8
0
 62
     7
 10
111.736897
 20
256.59888
 30
0.0
 11
111.736897
 21
258.236624
 31
0.0
  0
LINE
  8
0
 62
     7
 10
110.753178
 20
257.80735
 30
0.0
 11
111.545744
 21
257.400935
 31
0.0
  0
LINE
  8
0
 62
     7
 10
111.545744
 20
257.400935
 30
0.0
 11
111.545744
 21
257.542357
 31
0.0
  0
LINE
  8
0
 62
     7
 10
111.545744
 20
257.542357
 30
0.0
 11
110.753178
 21
257.948772
 31
0.0
  0
LINE
  8
0
 62
     7
 10
111.642162
 20
257.537987
 30
0.0
 11
111.545744
 21
257.400935
 31
0.0
  0
LINE
  8
0
 62
     7
 10
111.479046
 20
257.218942
 30
0.0
 11
111.528938
 21
257.28986
 31
0.0
  0
LINE
  8
0
 62
     7
 10
111.479046
 20
256.594634
 30
0.0
 11
110.926743
 21
256.861398
 31
0.0
  0
LINE
  8
0
 62
     7
 10
111.479046
 20
256.504291
 30
0.0
 11
110.849596
 21
256.808317
 31
0.0
  0
LINE
  8
0
 62
     7
 10
111.479046
 20
256.604357
 30
0.0
 11
110.849596
 21
256.932152
 31
0.0
  0
LINE
  8
0
 62
     7
 10
110.849596
 20
255.796067
 30
0.0
 11
111.642162
 21
255.406931
 31
0.0
  0
LINE
  8
0
 62
     7
 10
111.642162
 20
257.537987
 30
0.0
 11
111.642162
 21
257.231801
 31
0.0
  0
LINE
  8
0
 62
     7
 10
111.528938
 20
257.28986
 30
0.0
 11
111.642162
 21
257.231801
 31
0.0
  0
LINE
  8
0
 62
     7
 10
111.642162
 20
257.231801
 30
0.0
 11
111.593953
 21
257.163275
 31
0.0
  0
LINE
  8
0
 62
     7
 10
111.479046
 20
257.763052
 30
0.0
 11
110.849596
 21
258.085824
 31
0.0
  0
LINE
  8
0
 62
     7
 10
111.545744
 20
257.542357
 30
0.0
 11
111.593953
 21
257.610883
 31
0.0
  0
LINE
  8
0
 62
     7
 10
111.479046
 20
257.66655
 30
0.0
 11
111.593953
 21
257.610883
 31
0.0
  0
LINE
  8
0
 62
     7
 10
111.479046
 20
258.449003
 30
0.0
 11
111.70886
 21
258.341945
 31
0.0
  0
LINE
  8
0
 62
     7
 10
111.479046
 20
258.449003
 30
0.0
 11
111.479046
 21
257.66655
 31
0.0
  0
LINE
  8
0
 62
     7
 10
111.593953
 20
257.610883
 30
0.0
 11
111.593953
 21
258.272999
 31
0.0
  0
LINE
  8
0
 62
     7
 10
111.593953
 20
258.272999
 30
0.0
 11
111.70886
 21
258.217332
 31
0.0
  0
LINE
  8
0
 62
     7
 10
111.528938
 20
258.483332
 30
0.0
 11
110.849596
 21
258.811455
 31
0.0
  0
LINE
  8
0
 62
     7
 10
111.479046
 20
258.449003
 30
0.0
 11
111.528938
 21
258.483332
 31
0.0
  0
LINE
  8
0
 62
     7
 10
111.445423
 20
259.104398
 30
0.0
 11
111.344011
 21
259.151641
 31
0.0
  0
LINE
  8
0
 62
     7
 10
111.790704
 20
258.469658
 30
0.0
 11
112.046353
 21
258.57416
 31
0.0
  0
LINE
  8
0
 62
     7
 10
111.736897
 20
258.493828
 30
0.0
 11
111.790704
 21
258.469658
 31
0.0
  0
LINE
  8
0
 62
     7
 10
112.566186
 20
259.046359
 30
0.0
 11
112.19095
 21
258.788174
 31
0.0
  0
LINE
  8
0
 62
     7
 10
112.506167
 20
259.07552
 30
0.0
 11
112.566186
 21
259.046359
 31
0.0
  0
LINE
  8
0
 62
     7
 10
111.681474
 20
259.383836
 30
0.0
 11
111.857399
 21
259.406868
 31
0.0
  0
LINE
  8
0
 62
     7
 10
111.344011
 20
259.151641
 30
0.0
 11
111.519935
 21
259.174674
 31
0.0
  0
LINE
  8
0
 62
     7
 10
112.566186
 20
259.046359
 30
0.0
 11
112.673041
 21
258.884153
 31
0.0
  0
LINE
  8
0
 62
     7
 10
111.445423
 20
259.000912
 30
0.0
 11
111.736897
 21
258.859295
 31
0.0
  0
LINE
  8
0
 62
     7
 10
111.445423
 20
259.123405
 30
0.0
 11
111.445423
 21
259.000912
 31
0.0
  0
LINE
  8
0
 62
     7
 10
111.790704
 20
258.469658
 30
0.0
 11
111.790704
 21
258.955645
 31
0.0
  0
LINE
  8
0
 62
     7
 10
112.305303
 20
254.787574
 30
0.0
 11
112.19095
 21
254.840845
 31
0.0
  0
LINE
  8
0
 62
     7
 10
112.454799
 20
254.890436
 30
0.0
 11
112.373498
 21
254.92831
 31
0.0
  0
LINE
  8
0
 62
     7
 10
112.373498
 20
254.92831
 30
0.0
 11
112.27708
 21
254.861968
 31
0.0
  0
LINE
  8
0
 62
     7
 10
112.358381
 20
254.824094
 30
0.0
 11
112.27708
 21
254.861968
 31
0.0
  0
LINE
  8
0
 62
     7
 10
112.373498
 20
254.92831
 30
0.0
 11
112.270868
 21
254.914873
 31
0.0
  0
LINE
  8
0
 62
     7
 10
112.27708
 20
254.861968
 30
0.0
 11
112.19095
 21
254.850692
 31
0.0
  0
LINE
  8
0
 62
     7
 10
113.113195
 20
259.157797
 30
0.0
 11
113.04473
 21
259.190965
 31
0.0
  0
LINE
  8
0
 62
     7
 10
113.151865
 20
259.093935
 30
0.0
 11
113.036959
 21
259.149602
 31
0.0
  0
LINE
  8
0
 62
     7
 10
112.37997
 20
256.073858
 30
0.0
 11
113.018981
 21
255.753916
 31
0.0
  0
LINE
  8
0
 62
     7
 10
112.37997
 20
256.086105
 30
0.0
 11
113.018981
 21
255.753916
 31
0.0
  0
LINE
  8
0
 62
     7
 10
113.350292
 20
259.327041
 30
0.0
 11
113.362828
 21
259.334276
 31
0.0
  0
LINE
  8
0
 62
     7
 10
113.348246
 20
259.356785
 30
0.0
 11
113.362828
 21
259.349586
 31
0.0
  0
LINE
  8
0
 62
     7
 10
112.673041
 20
259.129111
 30
0.0
 11
112.619203
 21
259.153295
 31
0.0
  0
LINE
  8
0
 62
     7
 10
111.929081
 20
257.027547
 30
0.0
 11
111.953319
 21
257.027508
 31
0.0
  0
LINE
  8
0
 62
     7
 10
111.997004
 20
256.971956
 30
0.0
 11
111.944832
 21
256.997231
 31
0.0
  0
LINE
  8
0
 62
     7
 10
112.871187
 20
255.41414
 30
0.0
 11
112.066841
 21
255.788845
 31
0.0
  0
LINE
  8
0
 62
     7
 10
113.113195
 20
255.541978
 30
0.0
 11
112.998288
 21
255.597645
 31
0.0
  0
LINE
  8
0
 62
     7
 10
112.871187
 20
255.41414
 30
0.0
 11
112.986094
 21
255.358473
 31
0.0
  0
LINE
  8
0
 62
     7
 10
112.068225
 20
256.971841
 30
0.0
 11
111.953319
 21
257.027508
 31
0.0
  0
LINE
  8
0
 62
     7
 10
112.941939
 20
255.336863
 30
0.0
 11
112.827033
 21
255.39253
 31
0.0
  0
ENDSEC
  0
EOF
