  0
SECTION
  2
HEADER
  9
$ACADVER
  1
AC1009
  9
$INSBASE
 10
0.0
 20
0.0
 30
0.0
  9
$EXTMIN
 10
28.220056
 20
95.799467
 30
0.0
  9
$EXTMAX
 10
68.277217
 20
207.799467
 30
0.0
  9
$LIMMIN
 10
25.054395
 20
92.494356
  9
$LIMMAX
 10
70.392594
 20
209.74283
  9
$ORTHOMODE
 70
     0
  9
$REGENMODE
 70
     1
  9
$FILLMODE
 70
     1
  9
$QTEXTMODE
 70
     0
  9
$MIRRTEXT
 70
     1
  9
$DRAGMODE
 70
     2
  9
$LTSCALE
 40
1.0
  9
$OSMODE
 70
     1
  9
$ATTMODE
 70
     1
  9
$TEXTSIZE
 40
0.2
  9
$TRACEWID
 40
0.05
  9
$TEXTSTYLE
  7
STANDARD
  9
$CLAYER
  8
0
  9
$CELTYPE
  6
BYLAYER
  9
$CECOLOR
 62
   256
  9
$DIMSCALE
 40
4.5
  9
$DIMASZ
 40
0.18
  9
$DIMEXO
 40
0.0625
  9
$DIMDLI
 40
0.38
  9
$DIMRND
 40
0.0
  9
$DIMDLE
 40
0.0
  9
$DIMEXE
 40
0.18
  9
$DIMTP
 40
0.0
  9
$DIMTM
 40
0.0
  9
$DIMTXT
 40
0.45
  9
$DIMCEN
 40
0.09
  9
$DIMTSZ
 40
0.0
  9
$DIMTOL
 70
     0
  9
$DIMLIM
 70
     0
  9
$DIMTIH
 70
     1
  9
$DIMTOH
 70
     1
  9
$DIMSE1
 70
     0
  9
$DIMSE2
 70
     0
  9
$DIMTAD
 70
     1
  9
$DIMZIN
 70
     0
  9
$DIMBLK
  1

  9
$DIMASO
 70
     1
  9
$DIMSHO
 70
     1
  9
$DIMPOST
  1

  9
$DIMAPOST
  1

  9
$DIMALT
 70
     0
  9
$DIMALTD
 70
     2
  9
$DIMALTF
 40
25.4
  9
$DIMLFAC
 40
1.0
  9
$DIMTOFL
 70
     0
  9
$DIMTVP
 40
0.0
  9
$DIMTIX
 70
     0
  9
$DIMSOXD
 70
     0
  9
$DIMSAH
 70
     0
  9
$DIMBLK1
  1

  9
$DIMBLK2
  1

  9
$DIMSTYLE
  2
*UNNAMED
  9
$DIMCLRD
 70
     0
  9
$DIMCLRE
 70
     0
  9
$DIMCLRT
 70
     0
  9
$DIMTFAC
 40
1.0
  9
$DIMGAP
 40
0.09
  9
$LUNITS
 70
     2
  9
$LUPREC
 70
     4
  9
$SKETCHINC
 40
0.1
  9
$FILLETRAD
 40
0.0
  9
$AUNITS
 70
     0
  9
$AUPREC
 70
     0
  9
$MENU
  1
acad
  9
$ELEVATION
 40
0.0
  9
$PELEVATION
 40
0.0
  9
$THICKNESS
 40
0.0
  9
$LIMCHECK
 70
     0
  9
$BLIPMODE
 70
     1
  9
$CHAMFERA
 40
0.0
  9
$CHAMFERB
 40
0.0
  9
$SKPOLY
 70
     0
  9
$TDCREATE
 40
2451169.731380555
  9
$TDUPDATE
 40
2451219.399770486
  9
$TDINDWG
 40
0.0035274306
  9
$TDUSRTIMER
 40
0.0035274306
  9
$USRTIMER
 70
     1
  9
$ANGBASE
 50
0.0
  9
$ANGDIR
 70
     0
  9
$PDMODE
 70
     0
  9
$PDSIZE
 40
0.0
  9
$PLINEWID
 40
0.0
  9
$COORDS
 70
     1
  9
$SPLFRAME
 70
     0
  9
$SPLINETYPE
 70
     6
  9
$SPLINESEGS
 70
     8
  9
$ATTDIA
 70
     0
  9
$ATTREQ
 70
     1
  9
$HANDLING
 70
     1
  9
$HANDSEED
  5
48692
  9
$SURFTAB1
 70
     6
  9
$SURFTAB2
 70
     6
  9
$SURFTYPE
 70
     6
  9
$SURFU
 70
     6
  9
$SURFV
 70
     6
  9
$UCSNAME
  2

  9
$UCSORG
 10
25.0543952663039
 20
92.49435584530818
 30
0.0
  9
$UCSXDIR
 10
1.0
 20
0.0
 30
0.0
  9
$UCSYDIR
 10
0.0
 20
1.0
 30
0.0
  9
$PUCSNAME
  2

  9
$PUCSORG
 10
0.0
 20
0.0
 30
0.0
  9
$PUCSXDIR
 10
1.0
 20
0.0
 30
0.0
  9
$PUCSYDIR
 10
0.0
 20
1.0
 30
0.0
  9
$USERI1
 70
     0
  9
$USERI2
 70
     0
  9
$USERI3
 70
     0
  9
$USERI4
 70
     0
  9
$USERI5
 70
     0
  9
$USERR1
 40
0.0
  9
$USERR2
 40
0.0
  9
$USERR3
 40
0.0
  9
$USERR4
 40
0.0
  9
$USERR5
 40
0.0
  9
$WORLDVIEW
 70
     1
  9
$SHADEDGE
 70
     3
  9
$SHADEDIF
 70
    70
  9
$TILEMODE
 70
     1
  9
$MAXACTVP
 70
    16
  9
$PINSBASE
 10
0.0
 20
0.0
 30
0.0
  9
$PLIMCHECK
 70
     0
  9
$PEXTMIN
 10
1.000000E+20
 20
1.000000E+20
 30
1.000000E+20
  9
$PEXTMAX
 10
-1.000000E+20
 20
-1.000000E+20
 30
-1.000000E+20
  9
$PLIMMIN
 10
0.0
 20
0.0
  9
$PLIMMAX
 10
12.0
 20
9.0
  9
$UNITMODE
 70
     0
  9
$VISRETAIN
 70
     0
  9
$PLINEGEN
 70
     0
  9
$PSLTSCALE
 70
     1
  9
$TREEDEPTH
 70
  3020
  9
$DWGCODEPAGE
  3
dummy
  0
ENDSEC
  0
SECTION
  2
TABLES
  0
TABLE
  2
VPORT
 70
     2
  0
VPORT
  2
*ACTIVE
 70
     0
 10
0.0
 20
0.0
 11
1.0
 21
1.0
 12
122.269849
 22
151.118593
 13
0.0
 23
0.0
 14
1.0
 24
1.0
 15
0.0
 25
0.0
 16
0.0
 26
0.0
 36
1.0
 17
0.0
 27
0.0
 37
0.0
 40
117.248474
 41
1.658281
 42
50.0
 43
0.0
 44
0.0
 50
0.0
 51
0.0
 71
     0
 72
   100
 73
     1
 74
     1
 75
     0
 76
     0
 77
     0
 78
     0
  0
ENDTAB
  0
TABLE
  2
LTYPE
 70
     1
  0
LTYPE
  2
CONTINUOUS
 70
    64
  3
Solid line
 72
    65
 73
     0
 40
0.0
  0
ENDTAB
  0
TABLE
  2
LAYER
 70
     1
  0
LAYER
  2
0
 70
    64
 62
     7
  6
CONTINUOUS
  0
ENDTAB
  0
TABLE
  2
STYLE
 70
     1
  0
STYLE
  2
STANDARD
 70
     0
 40
0.0
 41
1.0
 50
0.0
 71
     0
 42
0.2
  3
txt
  4

  0
ENDTAB
  0
TABLE
  2
VIEW
 70
     0
  0
ENDTAB
  0
TABLE
  2
UCS
 70
     0
  0
ENDTAB
  0
TABLE
  2
APPID
 70
     1
  0
APPID
  2
ACAD
 70
    64
  0
ENDTAB
  0
TABLE
  2
DIMSTYLE
 70
     0
  0
ENDTAB
  0
ENDSEC
  0
SECTION
  2
BLOCKS
  0
BLOCK
  8
0
  5
3675A
  2
73830
 70
    64
 10
440.848374
 20
1407.449189
 30
0.0
  3
73830
  0
ENDBLK
  8
0
  5
3675B
  0
BLOCK
  8
0
  5
3675C
  2
DF
 70
    64
 10
922.739764
 20
276.264907
 30
0.0
  3
DF
  0
ENDBLK
  8
0
  5
3675D
  0
BLOCK
  8
0
  5
3675E
  2
IU
 70
    64
 10
924.839764
 20
266.864907
 30
0.0
  3
IU
  0
ENDBLK
  8
0
  5
3675F
  0
ENDSEC
  0
SECTION
  2
ENTITIES
  0
INSERT
  8
0
  5
3AA11
  2
73830
 10
177.999828
 20
709.671176
 30
0.0
 41
0.5
 42
0.5
 43
0.5
  0
INSERT
  8
0
  5
3AA12
  2
DF
 10
418.945523
 20
144.079035
 30
0.0
 41
0.5
 42
0.5
 43
0.5
  0
INSERT
  8
0
  5
3AA13
  2
IU
 10
419.995523
 20
139.379035
 30
0.0
 41
0.5
 42
0.5
 43
0.5
  0
INSERT
  8
0
  5
3AC95
  2
73830
 10
238.823284
 20
747.308767
 30
0.0
 41
0.5
 42
0.5
 43
0.5
  0
INSERT
  8
0
  5
3AC96
  2
DF
 10
479.768979
 20
181.716626
 30
0.0
 41
0.5
 42
0.5
 43
0.5
  0
INSERT
  8
0
  5
3AC97
  2
IU
 10
480.818979
 20
177.016626
 30
0.0
 41
0.5
 42
0.5
 43
0.5
  0
VIEWPORT
  8
0
  5
4635C
 67
     1
 68
    -1
 10
6.0
 20
4.5
 30
0.0
 40
12.0
 41
9.0
 69
     1
1001
ACAD
1000
MVIEW
1002
{
1070
    16
1010
0.0
1020
0.0
1030
0.0
1010
0.0
1020
0.0
1030
1.0
1040
0.0
1040
9.0
1040
6.0
1040
4.5
1040
50.0
1040
0.0
1040
0.0
1070
     0
1070
   100
1070
     1
1070
     1
1070
     0
1070
     0
1070
     0
1070
     0
1040
0.0
1040
0.0
1040
0.0
1040
1.0
1040
1.0
1040
0.0
1040
0.0
1070
     0
1002
{
1002
}
1002
}
  0
LINE
  8
0
  5
484FA
 10
66.720056
 20
108.299467
 30
0.0
 11
66.720056
 21
95.799467
 31
0.0
  0
LINE
  8
0
  5
484FB
 10
65.720056
 20
108.299467
 30
0.0
 11
66.720056
 21
108.299467
 31
0.0
  0
LINE
  8
0
  5
484FC
 10
66.720056
 20
195.299467
 30
0.0
 11
66.720056
 21
207.799467
 31
0.0
  0
LINE
  8
0
  5
484FD
 10
65.720056
 20
195.299467
 30
0.0
 11
66.720056
 21
195.299467
 31
0.0
  0
LINE
  8
0
  5
484FE
 10
66.720056
 20
150.48556
 30
0.0
 11
66.720056
 21
190.363375
 31
0.0
  0
LINE
  8
0
  5
484FF
 10
67.970056
 20
155.18556
 30
0.0
 11
67.970056
 21
185.663375
 31
0.0
  0
LINE
  8
0
  5
48500
 10
67.970056
 20
117.813375
 30
0.0
 11
67.970056
 21
140.913375
 31
0.0
  0
LINE
  8
0
  5
48501
 10
66.720056
 20
113.113375
 30
0.0
 11
66.720056
 21
145.613375
 31
0.0
  0
LINE
  8
0
  5
48502
 10
58.73883
 20
117.299467
 30
0.0
 11
50.720056
 21
117.299467
 31
0.0
  0
LINE
  8
0
  5
48503
 10
50.720056
 20
117.299467
 30
0.0
 11
50.720056
 21
141.549467
 31
0.0
  0
LINE
  8
0
  5
48504
 10
50.720056
 20
141.549467
 30
0.0
 11
58.73883
 21
141.535307
 31
0.0
  0
LINE
  8
0
  5
48505
 10
58.73883
 20
157.174467
 30
0.0
 11
58.73883
 21
183.674467
 31
0.0
  0
LINE
  8
0
  5
48506
 10
58.73883
 20
183.674467
 30
0.0
 11
50.720056
 21
183.674467
 31
0.0
  0
LINE
  8
0
  5
48507
 10
50.720056
 20
183.674467
 30
0.0
 11
50.720056
 21
157.174467
 31
0.0
  0
LINE
  8
0
  5
48508
 10
58.73883
 20
154.563628
 30
0.0
 11
58.73883
 21
157.174467
 31
0.0
  0
LINE
  8
0
  5
48509
 10
50.720056
 20
157.174467
 30
0.0
 11
58.73883
 21
157.174467
 31
0.0
  0
LINE
  8
0
  5
4850A
 10
58.320056
 20
148.049467
 30
0.0
 11
58.320056
 21
148.549467
 31
0.0
  0
LINE
  8
0
  5
4850B
 10
59.070056
 20
148.049467
 30
0.0
 11
59.070056
 21
148.549467
 31
0.0
  0
LINE
  8
0
  5
4850C
 10
41.920056
 20
148.049467
 30
0.0
 11
41.920056
 21
148.549467
 31
0.0
  0
LINE
  8
0
  5
4850D
 10
65.720056
 20
149.799467
 30
0.0
 11
64.970056
 21
149.799467
 31
0.0
  0
LINE
  8
0
  5
4850E
 10
41.920056
 20
151.799467
 30
0.0
 11
41.920056
 21
150.299467
 31
0.0
  0
LINE
  8
0
  5
4850F
 10
57.820056
 20
149.049467
 30
0.0
 11
42.420056
 21
149.049467
 31
0.0
  0
LINE
  8
0
  5
48510
 10
61.920056
 20
153.549467
 30
0.0
 11
61.920056
 21
153.049467
 31
0.0
  0
LINE
  8
0
  5
48511
 10
64.720056
 20
153.799467
 30
0.0
 11
62.170056
 21
153.799467
 31
0.0
  0
LINE
  8
0
  5
48512
 10
64.220056
 20
152.799467
 30
0.0
 11
62.170056
 21
152.799467
 31
0.0
  0
LINE
  8
0
  5
48513
 10
65.220056
 20
154.549467
 30
0.0
 11
61.320056
 21
154.549467
 31
0.0
  0
LINE
  8
0
  5
48514
 10
65.720056
 20
154.049467
 30
0.0
 11
65.720056
 21
153.549467
 31
0.0
  0
LINE
  8
0
  5
48515
 10
61.170056
 20
154.399467
 30
0.0
 11
61.170056
 21
153.799467
 31
0.0
  0
LINE
  8
0
  5
48516
 10
64.220056
 20
152.049467
 30
0.0
 11
61.670056
 21
152.049467
 31
0.0
  0
LINE
  8
0
  5
48517
 10
60.920056
 20
152.799467
 30
0.0
 11
59.570056
 21
152.799467
 31
0.0
  0
LINE
  8
0
  5
48518
 10
57.570056
 20
149.799467
 30
0.0
 11
42.420056
 21
149.799467
 31
0.0
  0
LINE
  8
0
  5
48519
 10
63.970056
 20
149.949467
 30
0.0
 11
63.970056
 21
150.399467
 31
0.0
  0
LINE
  8
0
  5
4851A
 10
59.070056
 20
153.549467
 30
0.0
 11
60.920056
 21
153.549467
 31
0.0
  0
LINE
  8
0
  5
4851B
 10
64.120056
 20
150.549467
 30
0.0
 11
66.220056
 21
150.549467
 31
0.0
  0
LINE
  8
0
  5
4851C
 10
66.720056
 20
150.049467
 30
0.0
 11
66.720056
 21
148.049467
 31
0.0
  0
LINE
  8
0
  5
4851D
 10
65.970056
 20
149.549467
 30
0.0
 11
65.970056
 21
148.049467
 31
0.0
  0
LINE
  8
0
  5
4851E
 10
58.070056
 20
150.299467
 30
0.0
 11
58.070056
 21
152.549467
 31
0.0
  0
LINE
  8
0
  5
4851F
 10
59.570056
 20
149.799467
 30
0.0
 11
63.820056
 21
149.799467
 31
0.0
  0
LINE
  8
0
  5
48520
 10
59.070056
 20
150.299467
 30
0.0
 11
59.070056
 21
152.299467
 31
0.0
  0
LINE
  8
0
  5
48521
 10
64.220056
 20
149.049467
 30
0.0
 11
59.570056
 21
149.049467
 31
0.0
  0
LINE
  8
0
  5
48522
 10
42.095056
 20
108.948987
 30
0.0
 11
42.87198
 21
108.500429
 31
0.0
  0
LINE
  8
0
  5
48523
 10
44.720056
 20
108.299467
 30
0.0
 11
43.62198
 21
108.299467
 31
0.0
  0
LINE
  8
0
  5
48524
 10
40.720056
 20
189.299467
 30
0.0
 11
40.720056
 21
113.920788
 31
0.0
  0
LINE
  8
0
  5
48525
 10
42.095056
 20
110.248025
 30
0.0
 11
42.875721
 21
110.698742
 31
0.0
  0
LINE
  8
0
  5
48526
 10
42.927498
 20
111.092025
 30
0.0
 11
41.159396
 21
112.860128
 31
0.0
  0
LINE
  8
0
  5
48527
 10
43.570002
 20
109.499467
 30
0.0
 11
44.720056
 21
109.499467
 31
0.0
  0
LINE
  8
0
  5
48528
 10
41.920056
 20
113.920788
 30
0.0
 11
41.920056
 21
114.299467
 31
0.0
  0
LINE
  8
0
  5
48529
 10
42.007924
 20
113.708656
 30
0.0
 11
43.776026
 21
111.940553
 31
0.0
  0
LINE
  8
0
  5
4852A
 10
41.920056
 20
131.174467
 30
0.0
 11
41.920056
 21
132.424467
 31
0.0
  0
LINE
  8
0
  5
4852B
 10
41.920056
 20
127.674467
 30
0.0
 11
41.920056
 21
126.424467
 31
0.0
  0
LINE
  8
0
  5
4852C
 10
42.420056
 20
128.174467
 30
0.0
 11
44.425081
 21
128.174467
 31
0.0
  0
LINE
  8
0
  5
4852D
 10
42.370056
 20
128.974467
 30
0.0
 11
44.275081
 21
128.974467
 31
0.0
  0
LINE
  8
0
  5
4852E
 10
44.801858
 20
127.702716
 30
0.0
 11
43.846833
 21
126.747691
 31
0.0
  0
LINE
  8
0
  5
4852F
 10
43.420056
 20
126.924467
 30
0.0
 11
43.420056
 21
127.924467
 31
0.0
  0
LINE
  8
0
  5
48530
 10
43.846833
 20
128.101244
 30
0.0
 11
44.099345
 21
127.848732
 31
0.0
  0
LINE
  8
0
  5
48531
 10
44.099345
 20
127.848732
 30
0.0
 11
44.425081
 21
128.174467
 31
0.0
  0
LINE
  8
0
  5
48532
 10
44.425081
 20
130.674467
 30
0.0
 11
42.420056
 21
130.674467
 31
0.0
  0
LINE
  8
0
  5
48533
 10
44.275081
 20
129.874467
 30
0.0
 11
42.370056
 21
129.874467
 31
0.0
  0
LINE
  8
0
  5
48534
 10
43.846833
 20
132.101244
 30
0.0
 11
44.801858
 21
131.146219
 31
0.0
  0
LINE
  8
0
  5
48535
 10
43.420056
 20
130.924467
 30
0.0
 11
43.420056
 21
131.924467
 31
0.0
  0
LINE
  8
0
  5
48536
 10
44.099345
 20
131.000203
 30
0.0
 11
43.846833
 21
130.747691
 31
0.0
  0
LINE
  8
0
  5
48537
 10
44.425081
 20
130.674467
 30
0.0
 11
44.099345
 21
131.000203
 31
0.0
  0
LINE
  8
0
  5
48538
 10
41.920056
 20
172.174467
 30
0.0
 11
41.920056
 21
173.424467
 31
0.0
  0
LINE
  8
0
  5
48539
 10
41.920056
 20
168.674467
 30
0.0
 11
41.920056
 21
167.424467
 31
0.0
  0
LINE
  8
0
  5
4853A
 10
42.420056
 20
169.174467
 30
0.0
 11
44.425081
 21
169.174467
 31
0.0
  0
LINE
  8
0
  5
4853B
 10
42.370056
 20
169.974467
 30
0.0
 11
44.275081
 21
169.974467
 31
0.0
  0
LINE
  8
0
  5
4853C
 10
44.801858
 20
168.702716
 30
0.0
 11
43.846833
 21
167.747691
 31
0.0
  0
LINE
  8
0
  5
4853D
 10
43.420056
 20
167.924467
 30
0.0
 11
43.420056
 21
168.924467
 31
0.0
  0
LINE
  8
0
  5
4853E
 10
43.846833
 20
169.101244
 30
0.0
 11
44.099345
 21
168.848732
 31
0.0
  0
LINE
  8
0
  5
4853F
 10
44.099345
 20
168.848732
 30
0.0
 11
44.425081
 21
169.174467
 31
0.0
  0
LINE
  8
0
  5
48540
 10
44.425081
 20
171.674467
 30
0.0
 11
42.420056
 21
171.674467
 31
0.0
  0
LINE
  8
0
  5
48541
 10
44.275081
 20
170.874467
 30
0.0
 11
42.370056
 21
170.874467
 31
0.0
  0
LINE
  8
0
  5
48542
 10
43.846833
 20
173.101244
 30
0.0
 11
44.801858
 21
172.146219
 31
0.0
  0
LINE
  8
0
  5
48543
 10
43.420056
 20
171.924467
 30
0.0
 11
43.420056
 21
172.924467
 31
0.0
  0
LINE
  8
0
  5
48544
 10
44.099345
 20
172.000203
 30
0.0
 11
43.846833
 21
171.747691
 31
0.0
  0
LINE
  8
0
  5
48545
 10
44.425081
 20
171.674467
 30
0.0
 11
44.099345
 21
172.000203
 31
0.0
  0
LINE
  8
0
  5
48546
 10
65.220056
 20
191.299467
 30
0.0
 11
65.470056
 21
191.299467
 31
0.0
  0
LINE
  8
0
  5
48547
 10
63.970056
 20
190.449467
 30
0.0
 11
63.970056
 21
190.899467
 31
0.0
  0
LINE
  8
0
  5
48548
 10
61.670056
 20
188.799467
 30
0.0
 11
64.220056
 21
188.799467
 31
0.0
  0
LINE
  8
0
  5
48549
 10
61.170056
 20
187.049467
 30
0.0
 11
61.170056
 21
186.449467
 31
0.0
  0
LINE
  8
0
  5
4854A
 10
59.570056
 20
188.049467
 30
0.0
 11
60.920056
 21
188.049467
 31
0.0
  0
LINE
  8
0
  5
4854B
 10
64.470056
 20
192.049467
 30
0.0
 11
59.570056
 21
192.049467
 31
0.0
  0
LINE
  8
0
  5
4854C
 10
63.820056
 20
191.049467
 30
0.0
 11
59.570056
 21
191.049467
 31
0.0
  0
LINE
  8
0
  5
4854D
 10
65.720056
 20
187.299467
 30
0.0
 11
65.720056
 21
186.799467
 31
0.0
  0
LINE
  8
0
  5
4854E
 10
60.920056
 20
187.299467
 30
0.0
 11
59.070056
 21
187.299467
 31
0.0
  0
LINE
  8
0
  5
4854F
 10
61.320056
 20
186.299467
 30
0.0
 11
65.220056
 21
186.299467
 31
0.0
  0
LINE
  8
0
  5
48550
 10
66.220056
 20
190.299467
 30
0.0
 11
64.120056
 21
190.299467
 31
0.0
  0
LINE
  8
0
  5
48551
 10
66.720056
 20
192.299467
 30
0.0
 11
66.720056
 21
190.799467
 31
0.0
  0
LINE
  8
0
  5
48552
 10
65.720056
 20
192.299467
 30
0.0
 11
65.720056
 21
191.549467
 31
0.0
  0
LINE
  8
0
  5
48553
 10
59.070056
 20
188.549467
 30
0.0
 11
59.070056
 21
190.549467
 31
0.0
  0
LINE
  8
0
  5
48554
 10
58.070056
 20
188.299467
 30
0.0
 11
58.070056
 21
190.549467
 31
0.0
  0
LINE
  8
0
  5
48555
 10
62.170056
 20
188.049467
 30
0.0
 11
64.220056
 21
188.049467
 31
0.0
  0
LINE
  8
0
  5
48556
 10
62.170056
 20
187.049467
 30
0.0
 11
64.720056
 21
187.049467
 31
0.0
  0
LINE
  8
0
  5
48557
 10
61.920056
 20
187.799467
 30
0.0
 11
61.920056
 21
187.299467
 31
0.0
  0
LINE
  8
0
  5
48558
 10
65.470056
 20
112.299467
 30
0.0
 11
65.220056
 21
112.299467
 31
0.0
  0
LINE
  8
0
  5
48559
 10
63.970056
 20
112.699467
 30
0.0
 11
63.970056
 21
113.149467
 31
0.0
  0
LINE
  8
0
  5
4855A
 10
64.220056
 20
114.799467
 30
0.0
 11
61.670056
 21
114.799467
 31
0.0
  0
LINE
  8
0
  5
4855B
 10
61.170056
 20
117.149467
 30
0.0
 11
61.170056
 21
116.549467
 31
0.0
  0
LINE
  8
0
  5
4855C
 10
60.920056
 20
115.549467
 30
0.0
 11
59.570056
 21
115.549467
 31
0.0
  0
LINE
  8
0
  5
4855D
 10
59.570056
 20
111.549467
 30
0.0
 11
64.470056
 21
111.549467
 31
0.0
  0
LINE
  8
0
  5
4855E
 10
59.570056
 20
112.549467
 30
0.0
 11
63.820056
 21
112.549467
 31
0.0
  0
LINE
  8
0
  5
4855F
 10
65.720056
 20
116.799467
 30
0.0
 11
65.720056
 21
116.299467
 31
0.0
  0
LINE
  8
0
  5
48560
 10
59.070056
 20
116.299467
 30
0.0
 11
60.920056
 21
116.299467
 31
0.0
  0
LINE
  8
0
  5
48561
 10
65.220056
 20
117.299467
 30
0.0
 11
61.320056
 21
117.299467
 31
0.0
  0
LINE
  8
0
  5
48562
 10
64.120056
 20
113.299467
 30
0.0
 11
66.220056
 21
113.299467
 31
0.0
  0
LINE
  8
0
  5
48563
 10
66.720056
 20
112.799467
 30
0.0
 11
66.720056
 21
111.299467
 31
0.0
  0
LINE
  8
0
  5
48564
 10
65.720056
 20
112.049467
 30
0.0
 11
65.720056
 21
111.299467
 31
0.0
  0
LINE
  8
0
  5
48565
 10
59.070056
 20
113.049467
 30
0.0
 11
59.070056
 21
115.049467
 31
0.0
  0
LINE
  8
0
  5
48566
 10
58.070056
 20
113.049467
 30
0.0
 11
58.070056
 21
115.299467
 31
0.0
  0
LINE
  8
0
  5
48567
 10
64.220056
 20
115.549467
 30
0.0
 11
62.170056
 21
115.549467
 31
0.0
  0
LINE
  8
0
  5
48568
 10
64.720056
 20
116.549467
 30
0.0
 11
62.170056
 21
116.549467
 31
0.0
  0
LINE
  8
0
  5
48569
 10
61.920056
 20
116.299467
 30
0.0
 11
61.920056
 21
115.799467
 31
0.0
  0
LINE
  8
0
  5
4856A
 10
58.320056
 20
147.549467
 30
0.0
 11
58.320056
 21
148.049467
 31
0.0
  0
LINE
  8
0
  5
4856B
 10
59.070056
 20
147.549467
 30
0.0
 11
59.070056
 21
148.049467
 31
0.0
  0
LINE
  8
0
  5
4856C
 10
41.920056
 20
147.549467
 30
0.0
 11
41.920056
 21
148.049467
 31
0.0
  0
LINE
  8
0
  5
4856D
 10
64.970056
 20
146.299467
 30
0.0
 11
65.720056
 21
146.299467
 31
0.0
  0
LINE
  8
0
  5
4856E
 10
41.920056
 20
145.799467
 30
0.0
 11
41.920056
 21
144.299467
 31
0.0
  0
LINE
  8
0
  5
4856F
 10
42.420056
 20
147.049467
 30
0.0
 11
57.820056
 21
147.049467
 31
0.0
  0
LINE
  8
0
  5
48570
 10
61.920056
 20
143.049467
 30
0.0
 11
61.920056
 21
142.549467
 31
0.0
  0
LINE
  8
0
  5
48571
 10
62.170056
 20
142.299467
 30
0.0
 11
64.720056
 21
142.299467
 31
0.0
  0
LINE
  8
0
  5
48572
 10
62.170056
 20
143.299467
 30
0.0
 11
64.220056
 21
143.299467
 31
0.0
  0
LINE
  8
0
  5
48573
 10
61.320056
 20
141.549467
 30
0.0
 11
65.220056
 21
141.549467
 31
0.0
  0
LINE
  8
0
  5
48574
 10
65.720056
 20
142.549467
 30
0.0
 11
65.720056
 21
142.049467
 31
0.0
  0
LINE
  8
0
  5
48575
 10
61.170056
 20
142.299467
 30
0.0
 11
61.170056
 21
141.699467
 31
0.0
  0
LINE
  8
0
  5
48576
 10
61.670056
 20
144.049467
 30
0.0
 11
64.220056
 21
144.049467
 31
0.0
  0
LINE
  8
0
  5
48577
 10
59.570056
 20
143.299467
 30
0.0
 11
60.920056
 21
143.299467
 31
0.0
  0
LINE
  8
0
  5
48578
 10
42.420056
 20
146.299467
 30
0.0
 11
57.570056
 21
146.299467
 31
0.0
  0
LINE
  8
0
  5
48579
 10
63.970056
 20
145.699467
 30
0.0
 11
63.970056
 21
146.149467
 31
0.0
  0
LINE
  8
0
  5
4857A
 10
60.920056
 20
142.549467
 30
0.0
 11
59.070056
 21
142.549467
 31
0.0
  0
LINE
  8
0
  5
4857B
 10
66.220056
 20
145.549467
 30
0.0
 11
64.120056
 21
145.549467
 31
0.0
  0
LINE
  8
0
  5
4857C
 10
66.720056
 20
148.049467
 30
0.0
 11
66.720056
 21
146.049467
 31
0.0
  0
LINE
  8
0
  5
4857D
 10
65.970056
 20
148.049467
 30
0.0
 11
65.970056
 21
146.549467
 31
0.0
  0
LINE
  8
0
  5
4857E
 10
58.070056
 20
143.549467
 30
0.0
 11
58.070056
 21
145.799467
 31
0.0
  0
LINE
  8
0
  5
4857F
 10
63.820056
 20
146.299467
 30
0.0
 11
59.570056
 21
146.299467
 31
0.0
  0
LINE
  8
0
  5
48580
 10
59.070056
 20
143.799467
 30
0.0
 11
59.070056
 21
145.799467
 31
0.0
  0
LINE
  8
0
  5
48581
 10
59.570056
 20
147.049467
 30
0.0
 11
64.220056
 21
147.049467
 31
0.0
  0
LINE
  8
0
  5
48582
 10
42.87198
 20
195.098506
 30
0.0
 11
42.095056
 21
194.649948
 31
0.0
  0
LINE
  8
0
  5
48583
 10
43.62198
 20
195.299467
 30
0.0
 11
44.720056
 21
195.299467
 31
0.0
  0
LINE
  8
0
  5
48584
 10
40.720056
 20
189.678147
 30
0.0
 11
40.720056
 21
189.299467
 31
0.0
  0
LINE
  8
0
  5
48585
 10
42.875721
 20
192.900193
 30
0.0
 11
42.095056
 21
193.35091
 31
0.0
  0
LINE
  8
0
  5
48586
 10
41.159396
 20
190.738807
 30
0.0
 11
42.927498
 21
192.50691
 31
0.0
  0
LINE
  8
0
  5
48587
 10
44.720056
 20
194.099467
 30
0.0
 11
43.570002
 21
194.099467
 31
0.0
  0
LINE
  8
0
  5
48588
 10
41.920056
 20
189.299467
 30
0.0
 11
41.920056
 21
189.678147
 31
0.0
  0
LINE
  8
0
  5
48589
 10
43.776026
 20
191.658382
 30
0.0
 11
42.007924
 21
189.890279
 31
0.0
  0
LINE
  8
0
  5
4858A
 10
45.020056
 20
128.221078
 30
0.0
 11
45.020056
 21
128.171078
 31
0.0
  0
LINE
  8
0
  5
4858B
 10
43.058907
 20
108.392507
 30
0.0
 11
43.220056
 21
108.299467
 31
0.0
  0
LINE
  8
0
  5
4858C
 10
43.364901
 20
108.299467
 30
0.0
 11
43.220056
 21
108.299467
 31
0.0
  0
LINE
  8
0
  5
4858D
 10
66.720056
 20
194.299467
 30
0.0
 11
66.720056
 21
192.299467
 31
0.0
  0
LINE
  8
0
  5
4858E
 10
65.720056
 20
193.849467
 30
0.0
 11
65.720056
 21
192.299467
 31
0.0
  0
LINE
  8
0
  5
4858F
 10
65.470056
 20
194.099467
 30
0.0
 11
44.720056
 21
194.099467
 31
0.0
  0
LINE
  8
0
  5
48590
 10
44.720056
 20
195.299467
 30
0.0
 11
65.720056
 21
195.299467
 31
0.0
  0
LINE
  8
0
  5
48591
 10
66.720056
 20
111.299467
 30
0.0
 11
66.720056
 21
109.299467
 31
0.0
  0
LINE
  8
0
  5
48592
 10
65.720056
 20
111.299467
 30
0.0
 11
65.720056
 21
109.749467
 31
0.0
  0
LINE
  8
0
  5
48593
 10
41.920056
 20
167.424467
 30
0.0
 11
41.920056
 21
151.799467
 31
0.0
  0
LINE
  8
0
  5
48594
 10
44.720056
 20
109.499467
 30
0.0
 11
65.470056
 21
109.499467
 31
0.0
  0
LINE
  8
0
  5
48595
 10
65.720056
 20
108.299467
 30
0.0
 11
44.720056
 21
108.299467
 31
0.0
  0
LINE
  8
0
  5
48596
 10
41.920056
 20
189.299467
 30
0.0
 11
41.920056
 21
173.424467
 31
0.0
  0
LINE
  8
0
  5
48597
 10
41.920056
 20
144.299467
 30
0.0
 11
41.920056
 21
132.424467
 31
0.0
  0
LINE
  8
0
  5
48598
 10
41.920056
 20
126.424467
 30
0.0
 11
41.920056
 21
114.299467
 31
0.0
  0
LINE
  8
0
  5
48599
 10
43.220056
 20
195.299467
 30
0.0
 11
43.058907
 21
195.206428
 31
0.0
  0
LINE
  8
0
  5
4859A
 10
43.220056
 20
195.299467
 30
0.0
 11
43.364901
 21
195.299467
 31
0.0
  0
LINE
  8
0
  5
4859B
 10
58.73883
 20
117.313628
 30
0.0
 11
61.020056
 21
117.273809
 31
0.0
  0
LINE
  8
0
  5
4859C
 10
60.278902
 20
116.424467
 30
0.0
 11
58.73883
 21
117.313628
 31
0.0
  0
LINE
  8
0
  5
4859D
 10
58.73883
 20
117.313628
 30
0.0
 11
58.73883
 21
141.535307
 31
0.0
  0
LINE
  8
0
  5
4859E
 10
63.220056
 20
145.674467
 30
0.0
 11
66.720056
 21
145.613375
 31
0.0
  0
LINE
  8
0
  5
4859F
 10
63.220056
 20
114.17462
 30
0.0
 11
63.220056
 21
113.174467
 31
0.0
  0
LINE
  8
0
  5
485A0
 10
63.220056
 20
113.174467
 30
0.0
 11
66.720056
 21
113.23556
 31
0.0
  0
LINE
  8
0
  5
485A1
 10
63.220056
 20
144.674315
 30
0.0
 11
64.113216
 21
144.158649
 31
0.0
  0
LINE
  8
0
  5
485A2
 10
65.720056
 20
114.218257
 30
0.0
 11
65.720056
 21
144.630677
 31
0.0
  0
LINE
  8
0
  5
485A3
 10
64.113216
 20
144.158649
 30
0.0
 11
65.720056
 21
144.130601
 31
0.0
  0
LINE
  8
0
  5
485A4
 10
63.220056
 20
144.674315
 30
0.0
 11
65.720056
 21
144.630677
 31
0.0
  0
LINE
  8
0
  5
485A5
 10
63.220056
 20
114.17462
 30
0.0
 11
65.720056
 21
114.218257
 31
0.0
  0
LINE
  8
0
  5
485A6
 10
61.020056
 20
142.424467
 30
0.0
 11
60.278902
 21
142.424467
 31
0.0
  0
LINE
  8
0
  5
485A7
 10
64.720056
 20
141.63971
 30
0.0
 11
63.865692
 21
141.624797
 31
0.0
  0
LINE
  8
0
  5
485A8
 10
65.720056
 20
141.657165
 30
0.0
 11
64.720056
 21
141.63971
 31
0.0
  0
LINE
  8
0
  5
485A9
 10
61.020056
 20
141.575126
 30
0.0
 11
63.865692
 21
141.624797
 31
0.0
  0
LINE
  8
0
  5
485AA
 10
61.020056
 20
141.674467
 30
0.0
 11
61.020056
 21
142.424467
 31
0.0
  0
LINE
  8
0
  5
485AB
 10
63.865692
 20
117.224138
 30
0.0
 11
64.720056
 21
117.209225
 31
0.0
  0
LINE
  8
0
  5
485AC
 10
61.020056
 20
141.575126
 30
0.0
 11
61.020056
 21
141.674467
 31
0.0
  0
LINE
  8
0
  5
485AD
 10
61.020056
 20
117.174467
 30
0.0
 11
61.020056
 21
116.424467
 31
0.0
  0
LINE
  8
0
  5
485AE
 10
61.020056
 20
117.174467
 30
0.0
 11
61.020056
 21
117.273809
 31
0.0
  0
LINE
  8
0
  5
485AF
 10
61.020056
 20
116.424467
 30
0.0
 11
60.278902
 21
116.424467
 31
0.0
  0
LINE
  8
0
  5
485B0
 10
63.220056
 20
114.17462
 30
0.0
 11
64.113216
 21
114.690286
 31
0.0
  0
LINE
  8
0
  5
485B1
 10
58.73883
 20
141.535307
 30
0.0
 11
61.020056
 21
141.575126
 31
0.0
  0
LINE
  8
0
  5
485B2
 10
60.278902
 20
142.424467
 30
0.0
 11
58.73883
 21
141.535307
 31
0.0
  0
LINE
  8
0
  5
485B3
 10
63.220056
 20
144.674315
 30
0.0
 11
63.220056
 21
145.674467
 31
0.0
  0
LINE
  8
0
  5
485B4
 10
58.73883
 20
117.313628
 30
0.0
 11
61.020056
 21
117.273809
 31
0.0
  0
LINE
  8
0
  5
485B5
 10
63.865692
 20
117.224138
 30
0.0
 11
61.020056
 21
117.273809
 31
0.0
  0
LINE
  8
0
  5
485B6
 10
64.720056
 20
117.209225
 30
0.0
 11
65.720056
 21
117.19177
 31
0.0
  0
LINE
  8
0
  5
485B7
 10
60.278902
 20
116.424467
 30
0.0
 11
58.73883
 21
117.313628
 31
0.0
  0
LINE
  8
0
  5
485B8
 10
64.113216
 20
114.690286
 30
0.0
 11
65.720056
 21
114.718334
 31
0.0
  0
LINE
  8
0
  5
485B9
 10
58.73883
 20
117.313628
 30
0.0
 11
58.73883
 21
141.535307
 31
0.0
  0
LINE
  8
0
  5
485BA
 10
63.220056
 20
190.424467
 30
0.0
 11
66.720056
 21
190.363375
 31
0.0
  0
LINE
  8
0
  5
485BB
 10
63.220056
 20
151.42462
 30
0.0
 11
63.220056
 21
150.424467
 31
0.0
  0
LINE
  8
0
  5
485BC
 10
63.220056
 20
150.424467
 30
0.0
 11
66.720056
 21
150.48556
 31
0.0
  0
LINE
  8
0
  5
485BD
 10
63.220056
 20
189.424315
 30
0.0
 11
64.113216
 21
188.908649
 31
0.0
  0
LINE
  8
0
  5
485BE
 10
65.720056
 20
151.468257
 30
0.0
 11
65.720056
 21
189.380677
 31
0.0
  0
LINE
  8
0
  5
485BF
 10
64.113216
 20
188.908649
 30
0.0
 11
65.720056
 21
188.880601
 31
0.0
  0
LINE
  8
0
  5
485C0
 10
63.220056
 20
189.424315
 30
0.0
 11
65.720056
 21
189.380677
 31
0.0
  0
LINE
  8
0
  5
485C1
 10
63.220056
 20
151.42462
 30
0.0
 11
65.720056
 21
151.468257
 31
0.0
  0
LINE
  8
0
  5
485C2
 10
61.020056
 20
187.174467
 30
0.0
 11
60.278902
 21
187.174467
 31
0.0
  0
LINE
  8
0
  5
485C3
 10
64.720056
 20
186.38971
 30
0.0
 11
63.865692
 21
186.374797
 31
0.0
  0
LINE
  8
0
  5
485C4
 10
65.720056
 20
186.407165
 30
0.0
 11
64.720056
 21
186.38971
 31
0.0
  0
LINE
  8
0
  5
485C5
 10
61.020056
 20
186.325126
 30
0.0
 11
63.865692
 21
186.374797
 31
0.0
  0
LINE
  8
0
  5
485C6
 10
61.020056
 20
186.424467
 30
0.0
 11
61.020056
 21
187.174467
 31
0.0
  0
LINE
  8
0
  5
485C7
 10
63.865692
 20
154.474138
 30
0.0
 11
64.720056
 21
154.459225
 31
0.0
  0
LINE
  8
0
  5
485C8
 10
61.020056
 20
186.325126
 30
0.0
 11
61.020056
 21
186.424467
 31
0.0
  0
LINE
  8
0
  5
485C9
 10
61.020056
 20
154.424467
 30
0.0
 11
61.020056
 21
153.674467
 31
0.0
  0
LINE
  8
0
  5
485CA
 10
61.020056
 20
154.424467
 30
0.0
 11
61.020056
 21
154.523809
 31
0.0
  0
LINE
  8
0
  5
485CB
 10
61.020056
 20
153.674467
 30
0.0
 11
60.278902
 21
153.674467
 31
0.0
  0
LINE
  8
0
  5
485CC
 10
63.220056
 20
151.42462
 30
0.0
 11
64.113216
 21
151.940286
 31
0.0
  0
LINE
  8
0
  5
485CD
 10
58.73883
 20
186.285307
 30
0.0
 11
61.020056
 21
186.325126
 31
0.0
  0
LINE
  8
0
  5
485CE
 10
60.278902
 20
187.174467
 30
0.0
 11
58.73883
 21
186.285307
 31
0.0
  0
LINE
  8
0
  5
485CF
 10
63.220056
 20
189.424315
 30
0.0
 11
63.220056
 21
190.424467
 31
0.0
  0
LINE
  8
0
  5
485D0
 10
58.73883
 20
154.563628
 30
0.0
 11
61.020056
 21
154.523809
 31
0.0
  0
LINE
  8
0
  5
485D1
 10
63.865692
 20
154.474138
 30
0.0
 11
61.020056
 21
154.523809
 31
0.0
  0
LINE
  8
0
  5
485D2
 10
64.720056
 20
154.459225
 30
0.0
 11
65.720056
 21
154.44177
 31
0.0
  0
LINE
  8
0
  5
485D3
 10
60.278902
 20
153.674467
 30
0.0
 11
58.73883
 21
154.563628
 31
0.0
  0
LINE
  8
0
  5
485D4
 10
64.113216
 20
151.940286
 30
0.0
 11
65.720056
 21
151.968334
 31
0.0
  0
LINE
  8
0
  5
485D5
 10
58.73883
 20
183.674467
 30
0.0
 11
58.73883
 21
186.285307
 31
0.0
  0
ARC
  8
0
  5
485D6
 10
58.509056
 20
155.18556
 30
0.0
 40
9.461
 50
330.213054
 51
0.0
  0
ARC
  8
0
  5
485D7
 10
58.509056
 20
185.663375
 30
0.0
 40
9.461
 50
0.0
 51
29.786946
  0
ARC
  8
0
  5
485D8
 10
58.509056
 20
140.913375
 30
0.0
 40
9.461
 50
0.0
 51
29.786946
  0
ARC
  8
0
  5
485D9
 10
58.509056
 20
117.813375
 30
0.0
 40
9.461
 50
330.213054
 51
0.0
  0
ARC
  8
0
  5
485DA
 10
43.670056
 20
126.924467
 30
0.0
 40
0.25
 50
270.0
 51
315.0
  0
ARC
  8
0
  5
485DB
 10
43.670056
 20
127.924467
 30
0.0
 40
0.25
 50
45.0
 51
180.0
  0
ARC
  8
0
  5
485DC
 10
43.670056
 20
131.924467
 30
0.0
 40
0.25
 50
90.0
 51
180.0
  0
ARC
  8
0
  5
485DD
 10
43.670056
 20
130.924467
 30
0.0
 40
0.25
 50
180.0
 51
315.0
  0
ARC
  8
0
  5
485DE
 10
43.670056
 20
131.924467
 30
0.0
 40
0.25
 50
45.0
 51
90.0
  0
ARC
  8
0
  5
485DF
 10
43.670056
 20
126.924467
 30
0.0
 40
0.25
 50
180.0
 51
270.0
  0
ARC
  8
0
  5
485E0
 10
43.670056
 20
167.924467
 30
0.0
 40
0.25
 50
270.0
 51
315.0
  0
ARC
  8
0
  5
485E1
 10
43.670056
 20
168.924467
 30
0.0
 40
0.25
 50
45.0
 51
180.0
  0
ARC
  8
0
  5
485E2
 10
43.670056
 20
172.924467
 30
0.0
 40
0.25
 50
90.0
 51
180.0
  0
ARC
  8
0
  5
485E3
 10
43.670056
 20
171.924467
 30
0.0
 40
0.25
 50
180.0
 51
315.0
  0
ARC
  8
0
  5
485E4
 10
43.670056
 20
172.924467
 30
0.0
 40
0.25
 50
45.0
 51
90.0
  0
ARC
  8
0
  5
485E5
 10
43.670056
 20
167.924467
 30
0.0
 40
0.25
 50
180.0
 51
270.0
  0
CIRCLE
  8
0
  5
485E6
 10
43.670056
 20
126.924467
 30
0.0
 40
0.25
  0
ARC
  8
0
  5
485E7
 10
64.220056
 20
149.549467
 30
0.0
 40
0.5
 50
270.0
 51
0.0
  0
ARC
  8
0
  5
485E8
 10
64.970056
 20
149.549467
 30
0.0
 40
0.25
 50
90.0
 51
180.0
  0
ARC
  8
0
  5
485E9
 10
57.820056
 20
148.549467
 30
0.0
 40
0.5
 50
0.0
 51
90.0
  0
ARC
  8
0
  5
485EA
 10
59.570056
 20
148.549467
 30
0.0
 40
0.5
 50
90.0
 51
180.0
  0
ARC
  8
0
  5
485EB
 10
42.420056
 20
148.549467
 30
0.0
 40
0.5
 50
90.0
 51
180.0
  0
ARC
  8
0
  5
485EC
 10
65.720056
 20
149.549467
 30
0.0
 40
0.25
 50
0.0
 51
90.0
  0
ARC
  8
0
  5
485ED
 10
42.420056
 20
150.299467
 30
0.0
 40
0.5
 50
180.0
 51
270.0
  0
ARC
  8
0
  5
485EE
 10
64.720056
 20
153.549467
 30
0.0
 40
0.25
 50
0.0
 51
90.0
  0
ARC
  8
0
  5
485EF
 10
62.170056
 20
153.549467
 30
0.0
 40
0.25
 50
90.0
 51
180.0
  0
ARC
  8
0
  5
485F0
 10
62.170056
 20
153.049467
 30
0.0
 40
0.25
 50
180.0
 51
270.0
  0
ARC
  8
0
  5
485F1
 10
64.220056
 20
153.549467
 30
0.0
 40
0.75
 50
270.0
 51
0.0
  0
ARC
  8
0
  5
485F2
 10
64.220056
 20
153.549467
 30
0.0
 40
1.5
 50
270.0
 51
0.0
  0
ARC
  8
0
  5
485F3
 10
60.920056
 20
153.799467
 30
0.0
 40
0.25
 50
270.0
 51
0.0
  0
ARC
  8
0
  5
485F4
 10
61.320056
 20
154.399467
 30
0.0
 40
0.15
 50
90.0
 51
180.0
  0
ARC
  8
0
  5
485F5
 10
65.220056
 20
154.049467
 30
0.0
 40
0.5
 50
0.0
 51
90.0
  0
ARC
  8
0
  5
485F6
 10
57.570056
 20
150.299467
 30
0.0
 40
0.5
 50
270.0
 51
0.0
  0
ARC
  8
0
  5
485F7
 10
59.570056
 20
150.299467
 30
0.0
 40
0.5
 50
180.0
 51
270.0
  0
ARC
  8
0
  5
485F8
 10
59.070056
 20
152.549467
 30
0.0
 40
1.0
 50
90.0
 51
180.0
  0
ARC
  8
0
  5
485F9
 10
59.570056
 20
152.299467
 30
0.0
 40
0.5
 50
90.0
 51
180.0
  0
ARC
  8
0
  5
485FA
 10
66.220056
 20
150.049467
 30
0.0
 40
0.5
 50
0.0
 51
90.0
  0
ARC
  8
0
  5
485FB
 10
61.670056
 20
152.549467
 30
0.0
 40
0.5
 50
180.0
 51
270.0
  0
ARC
  8
0
  5
485FC
 10
60.920056
 20
152.549467
 30
0.0
 40
0.25
 50
0.0
 51
90.0
  0
ARC
  8
0
  5
485FD
 10
63.820056
 20
149.949467
 30
0.0
 40
0.15
 50
270.0
 51
0.0
  0
ARC
  8
0
  5
485FE
 10
64.120056
 20
150.399467
 30
0.0
 40
0.15
 50
90.0
 51
180.0
  0
ARC
  8
0
  5
485FF
 10
42.470056
 20
109.598506
 30
0.0
 40
0.75
 50
180.0
 51
240.0
  0
ARC
  8
0
  5
48600
 10
42.470056
 20
109.598506
 30
0.0
 40
0.75
 50
120.0
 51
180.0
  0
ARC
  8
0
  5
48601
 10
42.750721
 20
110.915248
 30
0.0
 40
0.25
 50
300.0
 51
45.0
  0
ARC
  8
0
  5
48602
 10
42.220056
 20
113.920788
 30
0.0
 40
1.5
 50
180.0
 51
225.0
  0
ARC
  8
0
  5
48603
 10
43.62198
 20
109.799467
 30
0.0
 40
1.5
 50
240.0
 51
270.0
  0
ARC
  8
0
  5
48604
 10
42.220056
 20
113.920788
 30
0.0
 40
0.3
 50
180.0
 51
225.0
  0
ARC
  8
0
  5
48605
 10
42.750721
 20
110.915248
 30
0.0
 40
1.45
 50
301.908751
 51
45.0
  0
ARC
  8
0
  5
48606
 10
43.570002
 20
109.599467
 30
0.0
 40
0.1
 50
121.908751
 51
270.0
  0
ARC
  8
0
  5
48607
 10
44.275081
 20
128.229493
 30
0.0
 40
0.744975
 50
315.0
 51
0.0
  0
ARC
  8
0
  5
48608
 10
44.275081
 20
130.619442
 30
0.0
 40
0.744975
 50
270.0
 51
45.0
  0
ARC
  8
0
  5
48609
 10
44.275081
 20
128.229493
 30
0.0
 40
0.744975
 50
0.0
 51
90.0
  0
ARC
  8
0
  5
4860A
 10
42.370056
 20
129.424467
 30
0.0
 40
0.45
 50
180.0
 51
270.0
  0
ARC
  8
0
  5
4860B
 10
42.420056
 20
131.174467
 30
0.0
 40
0.5
 50
180.0
 51
270.0
  0
ARC
  8
0
  5
4860C
 10
42.420056
 20
127.674467
 30
0.0
 40
0.5
 50
90.0
 51
180.0
  0
ARC
  8
0
  5
4860D
 10
42.370056
 20
129.424467
 30
0.0
 40
0.45
 50
90.0
 51
180.0
  0
ARC
  8
0
  5
4860E
 10
44.275081
 20
169.229493
 30
0.0
 40
0.744975
 50
315.0
 51
0.0
  0
ARC
  8
0
  5
4860F
 10
44.275081
 20
171.619442
 30
0.0
 40
0.744975
 50
270.0
 51
45.0
  0
ARC
  8
0
  5
48610
 10
44.275081
 20
169.229493
 30
0.0
 40
0.744975
 50
0.0
 51
90.0
  0
ARC
  8
0
  5
48611
 10
42.370056
 20
170.424467
 30
0.0
 40
0.45
 50
180.0
 51
270.0
  0
ARC
  8
0
  5
48612
 10
42.420056
 20
172.174467
 30
0.0
 40
0.5
 50
180.0
 51
270.0
  0
ARC
  8
0
  5
48613
 10
42.420056
 20
168.674467
 30
0.0
 40
0.5
 50
90.0
 51
180.0
  0
ARC
  8
0
  5
48614
 10
42.370056
 20
170.424467
 30
0.0
 40
0.45
 50
90.0
 51
180.0
  0
ARC
  8
0
  5
48615
 10
64.470056
 20
191.549467
 30
0.0
 40
0.5
 50
0.0
 51
90.0
  0
ARC
  8
0
  5
48616
 10
65.470056
 20
191.549467
 30
0.0
 40
0.25
 50
270.0
 51
0.0
  0
ARC
  8
0
  5
48617
 10
65.220056
 20
191.549467
 30
0.0
 40
0.25
 50
180.0
 51
270.0
  0
ARC
  8
0
  5
48618
 10
59.070056
 20
188.299467
 30
0.0
 40
1.0
 50
180.0
 51
270.0
  0
ARC
  8
0
  5
48619
 10
59.570056
 20
190.549467
 30
0.0
 40
1.5
 50
90.0
 51
180.0
  0
ARC
  8
0
  5
4861A
 10
59.570056
 20
188.549467
 30
0.0
 40
0.5
 50
180.0
 51
270.0
  0
ARC
  8
0
  5
4861B
 10
59.570056
 20
190.549467
 30
0.0
 40
0.5
 50
90.0
 51
180.0
  0
ARC
  8
0
  5
4861C
 10
66.220056
 20
190.799467
 30
0.0
 40
0.5
 50
270.0
 51
0.0
  0
ARC
  8
0
  5
4861D
 10
65.220056
 20
186.799467
 30
0.0
 40
0.5
 50
270.0
 51
0.0
  0
ARC
  8
0
  5
4861E
 10
61.320056
 20
186.449467
 30
0.0
 40
0.15
 50
180.0
 51
270.0
  0
ARC
  8
0
  5
4861F
 10
60.920056
 20
187.049467
 30
0.0
 40
0.25
 50
0.0
 51
90.0
  0
ARC
  8
0
  5
48620
 10
64.220056
 20
187.299467
 30
0.0
 40
1.5
 50
0.0
 51
90.0
  0
ARC
  8
0
  5
48621
 10
64.220056
 20
187.299467
 30
0.0
 40
0.75
 50
0.0
 51
90.0
  0
ARC
  8
0
  5
48622
 10
62.170056
 20
187.799467
 30
0.0
 40
0.25
 50
90.0
 51
180.0
  0
ARC
  8
0
  5
48623
 10
62.170056
 20
187.299467
 30
0.0
 40
0.25
 50
180.0
 51
270.0
  0
ARC
  8
0
  5
48624
 10
64.720056
 20
187.299467
 30
0.0
 40
0.25
 50
270.0
 51
0.0
  0
ARC
  8
0
  5
48625
 10
61.670056
 20
188.299467
 30
0.0
 40
0.5
 50
90.0
 51
180.0
  0
ARC
  8
0
  5
48626
 10
60.920056
 20
188.299467
 30
0.0
 40
0.25
 50
270.0
 51
0.0
  0
ARC
  8
0
  5
48627
 10
64.120056
 20
190.449467
 30
0.0
 40
0.15
 50
180.0
 51
270.0
  0
ARC
  8
0
  5
48628
 10
63.820056
 20
190.899467
 30
0.0
 40
0.15
 50
0.0
 51
90.0
  0
ARC
  8
0
  5
48629
 10
64.470056
 20
112.049467
 30
0.0
 40
0.5
 50
270.0
 51
0.0
  0
ARC
  8
0
  5
4862A
 10
65.470056
 20
112.049467
 30
0.0
 40
0.25
 50
0.0
 51
90.0
  0
ARC
  8
0
  5
4862B
 10
65.220056
 20
112.049467
 30
0.0
 40
0.25
 50
90.0
 51
180.0
  0
ARC
  8
0
  5
4862C
 10
59.070056
 20
115.299467
 30
0.0
 40
1.0
 50
90.0
 51
180.0
  0
ARC
  8
0
  5
4862D
 10
59.570056
 20
113.049467
 30
0.0
 40
1.5
 50
180.0
 51
270.0
  0
ARC
  8
0
  5
4862E
 10
59.570056
 20
115.049467
 30
0.0
 40
0.5
 50
90.0
 51
180.0
  0
ARC
  8
0
  5
4862F
 10
59.570056
 20
113.049467
 30
0.0
 40
0.5
 50
180.0
 51
270.0
  0
ARC
  8
0
  5
48630
 10
66.220056
 20
112.799467
 30
0.0
 40
0.5
 50
0.0
 51
90.0
  0
ARC
  8
0
  5
48631
 10
65.220056
 20
116.799467
 30
0.0
 40
0.5
 50
0.0
 51
90.0
  0
ARC
  8
0
  5
48632
 10
61.320056
 20
117.149467
 30
0.0
 40
0.15
 50
90.0
 51
180.0
  0
ARC
  8
0
  5
48633
 10
60.920056
 20
116.549467
 30
0.0
 40
0.25
 50
270.0
 51
0.0
  0
ARC
  8
0
  5
48634
 10
64.220056
 20
116.299467
 30
0.0
 40
1.5
 50
270.0
 51
0.0
  0
ARC
  8
0
  5
48635
 10
64.220056
 20
116.299467
 30
0.0
 40
0.75
 50
270.0
 51
0.0
  0
ARC
  8
0
  5
48636
 10
62.170056
 20
115.799467
 30
0.0
 40
0.25
 50
180.0
 51
270.0
  0
ARC
  8
0
  5
48637
 10
62.170056
 20
116.299467
 30
0.0
 40
0.25
 50
90.0
 51
180.0
  0
ARC
  8
0
  5
48638
 10
64.720056
 20
116.299467
 30
0.0
 40
0.25
 50
0.0
 51
90.0
  0
ARC
  8
0
  5
48639
 10
61.670056
 20
115.299467
 30
0.0
 40
0.5
 50
180.0
 51
270.0
  0
ARC
  8
0
  5
4863A
 10
60.920056
 20
115.299467
 30
0.0
 40
0.25
 50
0.0
 51
90.0
  0
ARC
  8
0
  5
4863B
 10
64.120056
 20
113.149467
 30
0.0
 40
0.15
 50
90.0
 51
180.0
  0
ARC
  8
0
  5
4863C
 10
63.820056
 20
112.699467
 30
0.0
 40
0.15
 50
270.0
 51
0.0
  0
ARC
  8
0
  5
4863D
 10
64.220056
 20
146.549467
 30
0.0
 40
0.5
 50
0.0
 51
90.0
  0
ARC
  8
0
  5
4863E
 10
64.970056
 20
146.549467
 30
0.0
 40
0.25
 50
180.0
 51
270.0
  0
ARC
  8
0
  5
4863F
 10
57.820056
 20
147.549467
 30
0.0
 40
0.5
 50
270.0
 51
0.0
  0
ARC
  8
0
  5
48640
 10
59.570056
 20
147.549467
 30
0.0
 40
0.5
 50
180.0
 51
270.0
  0
ARC
  8
0
  5
48641
 10
42.420056
 20
147.549467
 30
0.0
 40
0.5
 50
180.0
 51
270.0
  0
ARC
  8
0
  5
48642
 10
65.720056
 20
146.549467
 30
0.0
 40
0.25
 50
270.0
 51
0.0
  0
ARC
  8
0
  5
48643
 10
42.420056
 20
145.799467
 30
0.0
 40
0.5
 50
90.0
 51
180.0
  0
ARC
  8
0
  5
48644
 10
64.720056
 20
142.549467
 30
0.0
 40
0.25
 50
270.0
 51
0.0
  0
ARC
  8
0
  5
48645
 10
62.170056
 20
142.549467
 30
0.0
 40
0.25
 50
180.0
 51
270.0
  0
ARC
  8
0
  5
48646
 10
62.170056
 20
143.049467
 30
0.0
 40
0.25
 50
90.0
 51
180.0
  0
ARC
  8
0
  5
48647
 10
64.220056
 20
142.549467
 30
0.0
 40
0.75
 50
0.0
 51
90.0
  0
ARC
  8
0
  5
48648
 10
64.220056
 20
142.549467
 30
0.0
 40
1.5
 50
0.0
 51
90.0
  0
ARC
  8
0
  5
48649
 10
60.920056
 20
142.299467
 30
0.0
 40
0.25
 50
0.0
 51
90.0
  0
ARC
  8
0
  5
4864A
 10
61.320056
 20
141.699467
 30
0.0
 40
0.15
 50
180.0
 51
270.0
  0
ARC
  8
0
  5
4864B
 10
65.220056
 20
142.049467
 30
0.0
 40
0.5
 50
270.0
 51
0.0
  0
ARC
  8
0
  5
4864C
 10
57.570056
 20
145.799467
 30
0.0
 40
0.5
 50
0.0
 51
90.0
  0
ARC
  8
0
  5
4864D
 10
59.570056
 20
145.799467
 30
0.0
 40
0.5
 50
90.0
 51
180.0
  0
ARC
  8
0
  5
4864E
 10
59.070056
 20
143.549467
 30
0.0
 40
1.0
 50
180.0
 51
270.0
  0
ARC
  8
0
  5
4864F
 10
59.570056
 20
143.799467
 30
0.0
 40
0.5
 50
180.0
 51
270.0
  0
ARC
  8
0
  5
48650
 10
66.220056
 20
146.049467
 30
0.0
 40
0.5
 50
270.0
 51
0.0
  0
ARC
  8
0
  5
48651
 10
61.670056
 20
143.549467
 30
0.0
 40
0.5
 50
90.0
 51
180.0
  0
ARC
  8
0
  5
48652
 10
60.920056
 20
143.549467
 30
0.0
 40
0.25
 50
270.0
 51
0.0
  0
ARC
  8
0
  5
48653
 10
63.820056
 20
146.149467
 30
0.0
 40
0.15
 50
0.0
 51
90.0
  0
ARC
  8
0
  5
48654
 10
64.120056
 20
145.699467
 30
0.0
 40
0.15
 50
180.0
 51
270.0
  0
ARC
  8
0
  5
48655
 10
42.470056
 20
194.000429
 30
0.0
 40
0.75
 50
120.0
 51
180.0
  0
ARC
  8
0
  5
48656
 10
42.470056
 20
194.000429
 30
0.0
 40
0.75
 50
180.0
 51
240.0
  0
ARC
  8
0
  5
48657
 10
42.750721
 20
192.683686
 30
0.0
 40
0.25
 50
315.0
 51
60.0
  0
ARC
  8
0
  5
48658
 10
42.220056
 20
189.678147
 30
0.0
 40
1.5
 50
135.0
 51
180.0
  0
ARC
  8
0
  5
48659
 10
43.62198
 20
193.799467
 30
0.0
 40
1.5
 50
90.0
 51
120.0
  0
ARC
  8
0
  5
4865A
 10
42.220056
 20
189.678147
 30
0.0
 40
0.3
 50
135.0
 51
180.0
  0
ARC
  8
0
  5
4865B
 10
42.750721
 20
192.683686
 30
0.0
 40
1.45
 50
315.0
 51
58.091249
  0
ARC
  8
0
  5
4865C
 10
43.570002
 20
193.999467
 30
0.0
 40
0.1
 50
90.0
 51
238.091249
  0
ARC
  8
0
  5
4865D
 10
65.470056
 20
193.849467
 30
0.0
 40
0.25
 50
0.0
 51
90.0
  0
ARC
  8
0
  5
4865E
 10
65.720056
 20
194.299467
 30
0.0
 40
1.0
 50
0.0
 51
90.0
  0
ARC
  8
0
  5
4865F
 10
65.470056
 20
109.749467
 30
0.0
 40
0.25
 50
270.0
 51
0.0
  0
ARC
  8
0
  5
48660
 10
65.720056
 20
109.299467
 30
0.0
 40
1.0
 50
270.0
 51
0.0
  0
LINE
  8
0
  5
48661
 10
28.220056
 20
204.453176
 30
0.0
 11
31.566347
 21
207.799467
 31
0.0
  0
LINE
  8
0
  5
48662
 10
28.220056
 20
200.917642
 30
0.0
 11
35.101881
 21
207.799467
 31
0.0
  0
LINE
  8
0
  5
48663
 10
28.220056
 20
197.382108
 30
0.0
 11
38.637415
 21
207.799467
 31
0.0
  0
LINE
  8
0
  5
48664
 10
28.220056
 20
193.846574
 30
0.0
 11
42.172949
 21
207.799467
 31
0.0
  0
LINE
  8
0
  5
48665
 10
28.220056
 20
190.31104
 30
0.0
 11
45.708483
 21
207.799467
 31
0.0
  0
LINE
  8
0
  5
48666
 10
28.220056
 20
186.775506
 30
0.0
 11
49.244017
 21
207.799467
 31
0.0
  0
LINE
  8
0
  5
48667
 10
28.220056
 20
183.239973
 30
0.0
 11
52.779551
 21
207.799467
 31
0.0
  0
LINE
  8
0
  5
48668
 10
43.815085
 20
195.299467
 30
0.0
 11
56.315085
 21
207.799467
 31
0.0
  0
LINE
  8
0
  5
48669
 10
28.220056
 20
179.704439
 30
0.0
 11
40.720056
 21
192.204439
 31
0.0
  0
LINE
  8
0
  5
4866A
 10
47.350619
 20
195.299467
 30
0.0
 11
59.850619
 21
207.799467
 31
0.0
  0
LINE
  8
0
  5
4866B
 10
28.220056
 20
176.168905
 30
0.0
 11
40.720056
 21
188.668905
 31
0.0
  0
LINE
  8
0
  5
4866C
 10
50.886152
 20
195.299467
 30
0.0
 11
63.386152
 21
207.799467
 31
0.0
  0
LINE
  8
0
  5
4866D
 10
28.220056
 20
172.633371
 30
0.0
 11
40.720056
 21
185.133371
 31
0.0
  0
LINE
  8
0
  5
4866E
 10
54.421686
 20
195.299467
 30
0.0
 11
66.720056
 21
207.597837
 31
0.0
  0
LINE
  8
0
  5
4866F
 10
28.220056
 20
169.097837
 30
0.0
 11
40.720056
 21
181.597837
 31
0.0
  0
LINE
  8
0
  5
48670
 10
57.95722
 20
195.299467
 30
0.0
 11
66.720056
 21
204.062303
 31
0.0
  0
LINE
  8
0
  5
48671
 10
28.220056
 20
165.562303
 30
0.0
 11
40.720056
 21
178.062303
 31
0.0
  0
LINE
  8
0
  5
48672
 10
61.492754
 20
195.299467
 30
0.0
 11
66.720056
 21
200.526769
 31
0.0
  0
LINE
  8
0
  5
48673
 10
28.220056
 20
162.026769
 30
0.0
 11
40.720056
 21
174.526769
 31
0.0
  0
LINE
  8
0
  5
48674
 10
65.028288
 20
195.299467
 30
0.0
 11
66.720056
 21
196.991235
 31
0.0
  0
LINE
  8
0
  5
48675
 10
28.220056
 20
158.491235
 30
0.0
 11
40.720056
 21
170.991235
 31
0.0
  0
LINE
  8
0
  5
48676
 10
28.220056
 20
154.955701
 30
0.0
 11
40.720056
 21
167.455701
 31
0.0
  0
LINE
  8
0
  5
48677
 10
28.220056
 20
151.420167
 30
0.0
 11
40.720056
 21
163.920167
 31
0.0
  0
LINE
  8
0
  5
48678
 10
28.220056
 20
147.884633
 30
0.0
 11
40.720056
 21
160.384633
 31
0.0
  0
LINE
  8
0
  5
48679
 10
28.220056
 20
144.3491
 30
0.0
 11
40.720056
 21
156.8491
 31
0.0
  0
LINE
  8
0
  5
4867A
 10
28.220056
 20
140.813566
 30
0.0
 11
40.720056
 21
153.313566
 31
0.0
  0
LINE
  8
0
  5
4867B
 10
28.220056
 20
137.278032
 30
0.0
 11
40.720056
 21
149.778032
 31
0.0
  0
LINE
  8
0
  5
4867C
 10
28.220056
 20
133.742498
 30
0.0
 11
40.720056
 21
146.242498
 31
0.0
  0
LINE
  8
0
  5
4867D
 10
28.220056
 20
130.206964
 30
0.0
 11
40.720056
 21
142.706964
 31
0.0
  0
LINE
  8
0
  5
4867E
 10
28.220056
 20
126.67143
 30
0.0
 11
40.720056
 21
139.17143
 31
0.0
  0
LINE
  8
0
  5
4867F
 10
28.220056
 20
123.135896
 30
0.0
 11
40.720056
 21
135.635896
 31
0.0
  0
LINE
  8
0
  5
48680
 10
28.220056
 20
119.600362
 30
0.0
 11
40.720056
 21
132.100362
 31
0.0
  0
LINE
  8
0
  5
48681
 10
28.220056
 20
116.064828
 30
0.0
 11
40.720056
 21
128.564828
 31
0.0
  0
LINE
  8
0
  5
48682
 10
28.220056
 20
112.529294
 30
0.0
 11
40.720056
 21
125.029294
 31
0.0
  0
LINE
  8
0
  5
48683
 10
28.220056
 20
108.993761
 30
0.0
 11
40.720056
 21
121.493761
 31
0.0
  0
LINE
  8
0
  5
48684
 10
28.220056
 20
105.458227
 30
0.0
 11
40.720056
 21
117.958227
 31
0.0
  0
LINE
  8
0
  5
48685
 10
28.220056
 20
101.922693
 30
0.0
 11
40.720056
 21
114.422693
 31
0.0
  0
LINE
  8
0
  5
48686
 10
28.220056
 20
98.387159
 30
0.0
 11
40.720056
 21
110.887159
 31
0.0
  0
LINE
  8
0
  5
48687
 10
29.167898
 20
95.799467
 30
0.0
 11
41.667898
 21
108.299467
 31
0.0
  0
LINE
  8
0
  5
48688
 10
32.703432
 20
95.799467
 30
0.0
 11
45.203432
 21
108.299467
 31
0.0
  0
LINE
  8
0
  5
48689
 10
36.238966
 20
95.799467
 30
0.0
 11
48.738966
 21
108.299467
 31
0.0
  0
LINE
  8
0
  5
4868A
 10
39.7745
 20
95.799467
 30
0.0
 11
52.2745
 21
108.299467
 31
0.0
  0
LINE
  8
0
  5
4868B
 10
43.310034
 20
95.799467
 30
0.0
 11
55.810034
 21
108.299467
 31
0.0
  0
LINE
  8
0
  5
4868C
 10
46.845568
 20
95.799467
 30
0.0
 11
59.345568
 21
108.299467
 31
0.0
  0
LINE
  8
0
  5
4868D
 10
50.381102
 20
95.799467
 30
0.0
 11
62.881102
 21
108.299467
 31
0.0
  0
LINE
  8
0
  5
4868E
 10
53.916636
 20
95.799467
 30
0.0
 11
66.416636
 21
108.299467
 31
0.0
  0
LINE
  8
0
  5
4868F
 10
57.45217
 20
95.799467
 30
0.0
 11
66.720056
 21
105.067354
 31
0.0
  0
LINE
  8
0
  5
48690
 10
60.987704
 20
95.799467
 30
0.0
 11
66.720056
 21
101.53182
 31
0.0
  0
LINE
  8
0
  5
48691
 10
64.523237
 20
95.799467
 30
0.0
 11
66.720056
 21
97.996286
 31
0.0
  0
ENDSEC
  0
EOF
