  0
SECTION
  2
HEADER
  9
$ACADVER
  1
AC1009
  9
$INSBASE
 10
0.0
 20
0.0
 30
0.0
  9
$EXTMIN
 10
28.712702
 20
81.001272
 30
0.0
  9
$EXTMAX
 10
68.769863
 20
193.001272
 30
0.0
  9
$LIMMIN
 10
22.695767
 20
78.970485
  9
$LIMMAX
 10
74.131531
 20
194.170361
  9
$ORTHOMODE
 70
     1
  9
$REGENMODE
 70
     1
  9
$FILLMODE
 70
     1
  9
$QTEXTMODE
 70
     0
  9
$MIRRTEXT
 70
     1
  9
$DRAGMODE
 70
     2
  9
$LTSCALE
 40
1.0
  9
$OSMODE
 70
     1
  9
$ATTMODE
 70
     1
  9
$TEXTSIZE
 40
0.2
  9
$TRACEWID
 40
0.05
  9
$TEXTSTYLE
  7
STANDARD
  9
$CLAYER
  8
0
  9
$CELTYPE
  6
BYLAYER
  9
$CECOLOR
 62
   256
  9
$DIMSCALE
 40
4.5
  9
$DIMASZ
 40
0.18
  9
$DIMEXO
 40
0.0625
  9
$DIMDLI
 40
0.38
  9
$DIMRND
 40
0.0
  9
$DIMDLE
 40
0.0
  9
$DIMEXE
 40
0.18
  9
$DIMTP
 40
0.0
  9
$DIMTM
 40
0.0
  9
$DIMTXT
 40
0.45
  9
$DIMCEN
 40
0.09
  9
$DIMTSZ
 40
0.0
  9
$DIMTOL
 70
     0
  9
$DIMLIM
 70
     0
  9
$DIMTIH
 70
     1
  9
$DIMTOH
 70
     1
  9
$DIMSE1
 70
     0
  9
$DIMSE2
 70
     0
  9
$DIMTAD
 70
     1
  9
$DIMZIN
 70
     0
  9
$DIMBLK
  1

  9
$DIMASO
 70
     1
  9
$DIMSHO
 70
     1
  9
$DIMPOST
  1

  9
$DIMAPOST
  1

  9
$DIMALT
 70
     0
  9
$DIMALTD
 70
     2
  9
$DIMALTF
 40
25.4
  9
$DIMLFAC
 40
1.0
  9
$DIMTOFL
 70
     0
  9
$DIMTVP
 40
0.0
  9
$DIMTIX
 70
     0
  9
$DIMSOXD
 70
     0
  9
$DIMSAH
 70
     0
  9
$DIMBLK1
  1

  9
$DIMBLK2
  1

  9
$DIMSTYLE
  2
*UNNAMED
  9
$DIMCLRD
 70
     0
  9
$DIMCLRE
 70
     0
  9
$DIMCLRT
 70
     0
  9
$DIMTFAC
 40
1.0
  9
$DIMGAP
 40
0.09
  9
$LUNITS
 70
     2
  9
$LUPREC
 70
     4
  9
$SKETCHINC
 40
0.1
  9
$FILLETRAD
 40
0.0
  9
$AUNITS
 70
     0
  9
$AUPREC
 70
     0
  9
$MENU
  1
acad
  9
$ELEVATION
 40
0.0
  9
$PELEVATION
 40
0.0
  9
$THICKNESS
 40
0.0
  9
$LIMCHECK
 70
     0
  9
$BLIPMODE
 70
     1
  9
$CHAMFERA
 40
0.0
  9
$CHAMFERB
 40
0.0
  9
$SKPOLY
 70
     0
  9
$TDCREATE
 40
2451219.395964467
  9
$TDUPDATE
 40
2451219.396855671
  9
$TDINDWG
 40
0.0003591435
  9
$TDUSRTIMER
 40
0.0003591435
  9
$USRTIMER
 70
     1
  9
$ANGBASE
 50
0.0
  9
$ANGDIR
 70
     0
  9
$PDMODE
 70
     0
  9
$PDSIZE
 40
0.0
  9
$PLINEWID
 40
0.0
  9
$COORDS
 70
     1
  9
$SPLFRAME
 70
     0
  9
$SPLINETYPE
 70
     6
  9
$SPLINESEGS
 70
     8
  9
$ATTDIA
 70
     0
  9
$ATTREQ
 70
     1
  9
$HANDLING
 70
     1
  9
$HANDSEED
  5
4835F
  9
$SURFTAB1
 70
     6
  9
$SURFTAB2
 70
     6
  9
$SURFTYPE
 70
     6
  9
$SURFU
 70
     6
  9
$SURFV
 70
     6
  9
$UCSNAME
  2

  9
$UCSORG
 10
22.69576688006707
 20
78.97048549658403
 30
0.0
  9
$UCSXDIR
 10
1.0
 20
0.0
 30
0.0
  9
$UCSYDIR
 10
0.0
 20
1.0
 30
0.0
  9
$PUCSNAME
  2

  9
$PUCSORG
 10
0.0
 20
0.0
 30
0.0
  9
$PUCSXDIR
 10
1.0
 20
0.0
 30
0.0
  9
$PUCSYDIR
 10
0.0
 20
1.0
 30
0.0
  9
$USERI1
 70
     0
  9
$USERI2
 70
     0
  9
$USERI3
 70
     0
  9
$USERI4
 70
     0
  9
$USERI5
 70
     0
  9
$USERR1
 40
0.0
  9
$USERR2
 40
0.0
  9
$USERR3
 40
0.0
  9
$USERR4
 40
0.0
  9
$USERR5
 40
0.0
  9
$WORLDVIEW
 70
     1
  9
$SHADEDGE
 70
     3
  9
$SHADEDIF
 70
    70
  9
$TILEMODE
 70
     1
  9
$MAXACTVP
 70
    16
  9
$PINSBASE
 10
0.0
 20
0.0
 30
0.0
  9
$PLIMCHECK
 70
     0
  9
$PEXTMIN
 10
1.000000E+20
 20
1.000000E+20
 30
1.000000E+20
  9
$PEXTMAX
 10
-1.000000E+20
 20
-1.000000E+20
 30
-1.000000E+20
  9
$PLIMMIN
 10
0.0
 20
0.0
  9
$PLIMMAX
 10
12.0
 20
9.0
  9
$UNITMODE
 70
     0
  9
$VISRETAIN
 70
     0
  9
$PLINEGEN
 70
     0
  9
$PSLTSCALE
 70
     1
  9
$TREEDEPTH
 70
  3020
  9
$DWGCODEPAGE
  3
dummy
  0
ENDSEC
  0
SECTION
  2
TABLES
  0
TABLE
  2
VPORT
 70
     2
  0
VPORT
  2
*ACTIVE
 70
     0
 10
0.0
 20
0.0
 11
1.0
 21
1.0
 12
118.212645
 22
136.570423
 13
0.0
 23
0.0
 14
1.0
 24
1.0
 15
0.0
 25
0.0
 16
0.0
 26
0.0
 36
1.0
 17
0.0
 27
0.0
 37
0.0
 40
115.199876
 41
1.658281
 42
50.0
 43
0.0
 44
0.0
 50
0.0
 51
0.0
 71
     0
 72
   100
 73
     1
 74
     1
 75
     0
 76
     0
 77
     0
 78
     0
  0
ENDTAB
  0
TABLE
  2
LTYPE
 70
     1
  0
LTYPE
  2
CONTINUOUS
 70
    64
  3
Solid line
 72
    65
 73
     0
 40
0.0
  0
ENDTAB
  0
TABLE
  2
LAYER
 70
     1
  0
LAYER
  2
0
 70
    64
 62
     7
  6
CONTINUOUS
  0
ENDTAB
  0
TABLE
  2
STYLE
 70
     1
  0
STYLE
  2
STANDARD
 70
     0
 40
0.0
 41
1.0
 50
0.0
 71
     0
 42
0.2
  3
txt
  4

  0
ENDTAB
  0
TABLE
  2
VIEW
 70
     0
  0
ENDTAB
  0
TABLE
  2
UCS
 70
     0
  0
ENDTAB
  0
TABLE
  2
APPID
 70
     1
  0
APPID
  2
ACAD
 70
    64
  0
ENDTAB
  0
TABLE
  2
DIMSTYLE
 70
     0
  0
ENDTAB
  0
ENDSEC
  0
SECTION
  2
BLOCKS
  0
BLOCK
  8
0
  5
3675A
  2
73830
 70
    64
 10
440.848374
 20
1407.449189
 30
0.0
  3
73830
  0
ENDBLK
  8
0
  5
3675B
  0
BLOCK
  8
0
  5
3675C
  2
DF
 70
    64
 10
922.739764
 20
276.264907
 30
0.0
  3
DF
  0
ENDBLK
  8
0
  5
3675D
  0
BLOCK
  8
0
  5
3675E
  2
IU
 70
    64
 10
924.839764
 20
266.864907
 30
0.0
  3
IU
  0
ENDBLK
  8
0
  5
3675F
  0
ENDSEC
  0
SECTION
  2
ENTITIES
  0
INSERT
  8
0
  5
3AA11
  2
73830
 10
177.999828
 20
709.671176
 30
0.0
 41
0.5
 42
0.5
 43
0.5
  0
INSERT
  8
0
  5
3AA12
  2
DF
 10
418.945523
 20
144.079035
 30
0.0
 41
0.5
 42
0.5
 43
0.5
  0
INSERT
  8
0
  5
3AA13
  2
IU
 10
419.995523
 20
139.379035
 30
0.0
 41
0.5
 42
0.5
 43
0.5
  0
INSERT
  8
0
  5
3AC95
  2
73830
 10
238.823284
 20
747.308767
 30
0.0
 41
0.5
 42
0.5
 43
0.5
  0
INSERT
  8
0
  5
3AC96
  2
DF
 10
479.768979
 20
181.716626
 30
0.0
 41
0.5
 42
0.5
 43
0.5
  0
INSERT
  8
0
  5
3AC97
  2
IU
 10
480.818979
 20
177.016626
 30
0.0
 41
0.5
 42
0.5
 43
0.5
  0
VIEWPORT
  8
0
  5
4635C
 67
     1
 68
    -1
 10
6.0
 20
4.5
 30
0.0
 40
12.0
 41
9.0
 69
     1
1001
ACAD
1000
MVIEW
1002
{
1070
    16
1010
0.0
1020
0.0
1030
0.0
1010
0.0
1020
0.0
1030
1.0
1040
0.0
1040
9.0
1040
6.0
1040
4.5
1040
50.0
1040
0.0
1040
0.0
1070
     0
1070
   100
1070
     1
1070
     1
1070
     0
1070
     0
1070
     0
1070
     0
1040
0.0
1040
0.0
1040
0.0
1040
1.0
1040
1.0
1040
0.0
1040
0.0
1070
     0
1002
{
1002
}
1002
}
  0
LINE
  8
0
  5
481D6
 10
41.212702
 20
81.001272
 30
0.0
 11
41.212702
 21
99.501272
 31
0.0
  0
LINE
  8
0
  5
481D7
 10
41.212702
 20
193.001272
 30
0.0
 11
41.212702
 21
174.879951
 31
0.0
  0
LINE
  8
0
  5
481D8
 10
67.212702
 20
135.687364
 30
0.0
 11
67.212702
 21
175.565179
 31
0.0
  0
LINE
  8
0
  5
481D9
 10
68.462702
 20
140.387364
 30
0.0
 11
68.462702
 21
170.865179
 31
0.0
  0
LINE
  8
0
  5
481DA
 10
68.462702
 20
103.015179
 30
0.0
 11
68.462702
 21
126.115179
 31
0.0
  0
LINE
  8
0
  5
481DB
 10
67.212702
 20
98.315179
 30
0.0
 11
67.212702
 21
130.815179
 31
0.0
  0
LINE
  8
0
  5
481DC
 10
59.231477
 20
102.501272
 30
0.0
 11
51.212702
 21
102.501272
 31
0.0
  0
LINE
  8
0
  5
481DD
 10
51.212702
 20
102.501272
 30
0.0
 11
51.212702
 21
126.751272
 31
0.0
  0
LINE
  8
0
  5
481DE
 10
51.212702
 20
126.751272
 30
0.0
 11
59.231477
 21
126.737111
 31
0.0
  0
LINE
  8
0
  5
481DF
 10
59.231477
 20
142.376272
 30
0.0
 11
59.231477
 21
168.876272
 31
0.0
  0
LINE
  8
0
  5
481E0
 10
59.231477
 20
168.876272
 30
0.0
 11
51.212702
 21
168.876272
 31
0.0
  0
LINE
  8
0
  5
481E1
 10
51.212702
 20
168.876272
 30
0.0
 11
51.212702
 21
142.376272
 31
0.0
  0
LINE
  8
0
  5
481E2
 10
59.231477
 20
139.765432
 30
0.0
 11
59.231477
 21
142.376272
 31
0.0
  0
LINE
  8
0
  5
481E3
 10
51.212702
 20
142.376272
 30
0.0
 11
59.231477
 21
142.376272
 31
0.0
  0
LINE
  8
0
  5
481E4
 10
58.812702
 20
133.251272
 30
0.0
 11
58.812702
 21
133.751272
 31
0.0
  0
LINE
  8
0
  5
481E5
 10
59.562702
 20
133.251272
 30
0.0
 11
59.562702
 21
133.751272
 31
0.0
  0
LINE
  8
0
  5
481E6
 10
42.412702
 20
133.251272
 30
0.0
 11
42.412702
 21
133.751272
 31
0.0
  0
LINE
  8
0
  5
481E7
 10
66.212702
 20
135.001272
 30
0.0
 11
65.462702
 21
135.001272
 31
0.0
  0
LINE
  8
0
  5
481E8
 10
42.412702
 20
137.001272
 30
0.0
 11
42.412702
 21
135.501272
 31
0.0
  0
LINE
  8
0
  5
481E9
 10
58.312702
 20
134.251272
 30
0.0
 11
42.912702
 21
134.251272
 31
0.0
  0
LINE
  8
0
  5
481EA
 10
62.412702
 20
138.751272
 30
0.0
 11
62.412702
 21
138.251272
 31
0.0
  0
LINE
  8
0
  5
481EB
 10
65.212702
 20
139.001272
 30
0.0
 11
62.662702
 21
139.001272
 31
0.0
  0
LINE
  8
0
  5
481EC
 10
64.712702
 20
138.001272
 30
0.0
 11
62.662702
 21
138.001272
 31
0.0
  0
LINE
  8
0
  5
481ED
 10
65.712702
 20
139.751272
 30
0.0
 11
61.812702
 21
139.751272
 31
0.0
  0
LINE
  8
0
  5
481EE
 10
66.212702
 20
139.251272
 30
0.0
 11
66.212702
 21
138.751272
 31
0.0
  0
LINE
  8
0
  5
481EF
 10
61.662702
 20
139.601272
 30
0.0
 11
61.662702
 21
139.001272
 31
0.0
  0
LINE
  8
0
  5
481F0
 10
64.712702
 20
137.251272
 30
0.0
 11
62.162702
 21
137.251272
 31
0.0
  0
LINE
  8
0
  5
481F1
 10
61.412702
 20
138.001272
 30
0.0
 11
60.062702
 21
138.001272
 31
0.0
  0
LINE
  8
0
  5
481F2
 10
58.062702
 20
135.001272
 30
0.0
 11
42.912702
 21
135.001272
 31
0.0
  0
LINE
  8
0
  5
481F3
 10
64.462702
 20
135.151272
 30
0.0
 11
64.462702
 21
135.601272
 31
0.0
  0
LINE
  8
0
  5
481F4
 10
59.562702
 20
138.751272
 30
0.0
 11
61.412702
 21
138.751272
 31
0.0
  0
LINE
  8
0
  5
481F5
 10
64.612702
 20
135.751272
 30
0.0
 11
66.712702
 21
135.751272
 31
0.0
  0
LINE
  8
0
  5
481F6
 10
67.212702
 20
135.251272
 30
0.0
 11
67.212702
 21
133.251272
 31
0.0
  0
LINE
  8
0
  5
481F7
 10
66.462702
 20
134.751272
 30
0.0
 11
66.462702
 21
133.251272
 31
0.0
  0
LINE
  8
0
  5
481F8
 10
58.562702
 20
135.501272
 30
0.0
 11
58.562702
 21
137.751272
 31
0.0
  0
LINE
  8
0
  5
481F9
 10
60.062702
 20
135.001272
 30
0.0
 11
64.312702
 21
135.001272
 31
0.0
  0
LINE
  8
0
  5
481FA
 10
59.562702
 20
135.501272
 30
0.0
 11
59.562702
 21
137.501272
 31
0.0
  0
LINE
  8
0
  5
481FB
 10
64.712702
 20
134.251272
 30
0.0
 11
60.062702
 21
134.251272
 31
0.0
  0
LINE
  8
0
  5
481FC
 10
42.587702
 20
94.150791
 30
0.0
 11
43.364626
 21
93.702233
 31
0.0
  0
LINE
  8
0
  5
481FD
 10
45.212702
 20
93.501272
 30
0.0
 11
44.114626
 21
93.501272
 31
0.0
  0
LINE
  8
0
  5
481FE
 10
41.212702
 20
99.501272
 30
0.0
 11
41.212702
 21
99.122592
 31
0.0
  0
LINE
  8
0
  5
481FF
 10
42.587702
 20
95.449829
 30
0.0
 11
43.368368
 21
95.900546
 31
0.0
  0
LINE
  8
0
  5
48200
 10
43.420144
 20
96.293829
 30
0.0
 11
41.652042
 21
98.061932
 31
0.0
  0
LINE
  8
0
  5
48201
 10
44.062648
 20
94.701272
 30
0.0
 11
45.212702
 21
94.701272
 31
0.0
  0
LINE
  8
0
  5
48202
 10
42.412702
 20
99.122592
 30
0.0
 11
42.412702
 21
99.501272
 31
0.0
  0
LINE
  8
0
  5
48203
 10
42.50057
 20
98.91046
 30
0.0
 11
44.268673
 21
97.142357
 31
0.0
  0
LINE
  8
0
  5
48204
 10
42.412702
 20
116.376272
 30
0.0
 11
42.412702
 21
117.626272
 31
0.0
  0
LINE
  8
0
  5
48205
 10
42.412702
 20
112.876272
 30
0.0
 11
42.412702
 21
111.626272
 31
0.0
  0
LINE
  8
0
  5
48206
 10
42.912702
 20
113.376272
 30
0.0
 11
44.917727
 21
113.376272
 31
0.0
  0
LINE
  8
0
  5
48207
 10
42.862702
 20
114.176272
 30
0.0
 11
44.767727
 21
114.176272
 31
0.0
  0
LINE
  8
0
  5
48208
 10
45.294504
 20
112.90452
 30
0.0
 11
44.339479
 21
111.949495
 31
0.0
  0
LINE
  8
0
  5
48209
 10
43.912702
 20
112.126272
 30
0.0
 11
43.912702
 21
113.126272
 31
0.0
  0
LINE
  8
0
  5
4820A
 10
44.339479
 20
113.303048
 30
0.0
 11
44.591991
 21
113.050536
 31
0.0
  0
LINE
  8
0
  5
4820B
 10
44.591991
 20
113.050536
 30
0.0
 11
44.917727
 21
113.376272
 31
0.0
  0
LINE
  8
0
  5
4820C
 10
44.917727
 20
115.876272
 30
0.0
 11
42.912702
 21
115.876272
 31
0.0
  0
LINE
  8
0
  5
4820D
 10
44.767727
 20
115.076272
 30
0.0
 11
42.862702
 21
115.076272
 31
0.0
  0
LINE
  8
0
  5
4820E
 10
44.339479
 20
117.303048
 30
0.0
 11
45.294504
 21
116.348023
 31
0.0
  0
LINE
  8
0
  5
4820F
 10
43.912702
 20
116.126272
 30
0.0
 11
43.912702
 21
117.126272
 31
0.0
  0
LINE
  8
0
  5
48210
 10
44.591991
 20
116.202007
 30
0.0
 11
44.339479
 21
115.949495
 31
0.0
  0
LINE
  8
0
  5
48211
 10
44.917727
 20
115.876272
 30
0.0
 11
44.591991
 21
116.202007
 31
0.0
  0
LINE
  8
0
  5
48212
 10
42.412702
 20
157.376272
 30
0.0
 11
42.412702
 21
158.626272
 31
0.0
  0
LINE
  8
0
  5
48213
 10
42.412702
 20
153.876272
 30
0.0
 11
42.412702
 21
152.626272
 31
0.0
  0
LINE
  8
0
  5
48214
 10
42.912702
 20
154.376272
 30
0.0
 11
44.917727
 21
154.376272
 31
0.0
  0
LINE
  8
0
  5
48215
 10
42.862702
 20
155.176272
 30
0.0
 11
44.767727
 21
155.176272
 31
0.0
  0
LINE
  8
0
  5
48216
 10
45.294504
 20
153.90452
 30
0.0
 11
44.339479
 21
152.949495
 31
0.0
  0
LINE
  8
0
  5
48217
 10
43.912702
 20
153.126272
 30
0.0
 11
43.912702
 21
154.126272
 31
0.0
  0
LINE
  8
0
  5
48218
 10
44.339479
 20
154.303048
 30
0.0
 11
44.591991
 21
154.050536
 31
0.0
  0
LINE
  8
0
  5
48219
 10
44.591991
 20
154.050536
 30
0.0
 11
44.917727
 21
154.376272
 31
0.0
  0
LINE
  8
0
  5
4821A
 10
44.917727
 20
156.876272
 30
0.0
 11
42.912702
 21
156.876272
 31
0.0
  0
LINE
  8
0
  5
4821B
 10
44.767727
 20
156.076272
 30
0.0
 11
42.862702
 21
156.076272
 31
0.0
  0
LINE
  8
0
  5
4821C
 10
44.339479
 20
158.303048
 30
0.0
 11
45.294504
 21
157.348023
 31
0.0
  0
LINE
  8
0
  5
4821D
 10
43.912702
 20
157.126272
 30
0.0
 11
43.912702
 21
158.126272
 31
0.0
  0
LINE
  8
0
  5
4821E
 10
44.591991
 20
157.202007
 30
0.0
 11
44.339479
 21
156.949495
 31
0.0
  0
LINE
  8
0
  5
4821F
 10
44.917727
 20
156.876272
 30
0.0
 11
44.591991
 21
157.202007
 31
0.0
  0
LINE
  8
0
  5
48220
 10
65.712702
 20
176.501272
 30
0.0
 11
65.962702
 21
176.501272
 31
0.0
  0
LINE
  8
0
  5
48221
 10
64.462702
 20
175.651272
 30
0.0
 11
64.462702
 21
176.101272
 31
0.0
  0
LINE
  8
0
  5
48222
 10
62.162702
 20
174.001272
 30
0.0
 11
64.712702
 21
174.001272
 31
0.0
  0
LINE
  8
0
  5
48223
 10
61.662702
 20
172.251272
 30
0.0
 11
61.662702
 21
171.651272
 31
0.0
  0
LINE
  8
0
  5
48224
 10
60.062702
 20
173.251272
 30
0.0
 11
61.412702
 21
173.251272
 31
0.0
  0
LINE
  8
0
  5
48225
 10
64.962702
 20
177.251272
 30
0.0
 11
60.062702
 21
177.251272
 31
0.0
  0
LINE
  8
0
  5
48226
 10
64.312702
 20
176.251272
 30
0.0
 11
60.062702
 21
176.251272
 31
0.0
  0
LINE
  8
0
  5
48227
 10
66.212702
 20
172.501272
 30
0.0
 11
66.212702
 21
172.001272
 31
0.0
  0
LINE
  8
0
  5
48228
 10
61.412702
 20
172.501272
 30
0.0
 11
59.562702
 21
172.501272
 31
0.0
  0
LINE
  8
0
  5
48229
 10
61.812702
 20
171.501272
 30
0.0
 11
65.712702
 21
171.501272
 31
0.0
  0
LINE
  8
0
  5
4822A
 10
66.712702
 20
175.501272
 30
0.0
 11
64.612702
 21
175.501272
 31
0.0
  0
LINE
  8
0
  5
4822B
 10
67.212702
 20
177.501272
 30
0.0
 11
67.212702
 21
176.001272
 31
0.0
  0
LINE
  8
0
  5
4822C
 10
66.212702
 20
177.501272
 30
0.0
 11
66.212702
 21
176.751272
 31
0.0
  0
LINE
  8
0
  5
4822D
 10
59.562702
 20
173.751272
 30
0.0
 11
59.562702
 21
175.751272
 31
0.0
  0
LINE
  8
0
  5
4822E
 10
58.562702
 20
173.501272
 30
0.0
 11
58.562702
 21
175.751272
 31
0.0
  0
LINE
  8
0
  5
4822F
 10
62.662702
 20
173.251272
 30
0.0
 11
64.712702
 21
173.251272
 31
0.0
  0
LINE
  8
0
  5
48230
 10
62.662702
 20
172.251272
 30
0.0
 11
65.212702
 21
172.251272
 31
0.0
  0
LINE
  8
0
  5
48231
 10
62.412702
 20
173.001272
 30
0.0
 11
62.412702
 21
172.501272
 31
0.0
  0
LINE
  8
0
  5
48232
 10
65.962702
 20
97.501272
 30
0.0
 11
65.712702
 21
97.501272
 31
0.0
  0
LINE
  8
0
  5
48233
 10
64.462702
 20
97.901272
 30
0.0
 11
64.462702
 21
98.351272
 31
0.0
  0
LINE
  8
0
  5
48234
 10
64.712702
 20
100.001272
 30
0.0
 11
62.162702
 21
100.001272
 31
0.0
  0
LINE
  8
0
  5
48235
 10
61.662702
 20
102.351272
 30
0.0
 11
61.662702
 21
101.751272
 31
0.0
  0
LINE
  8
0
  5
48236
 10
61.412702
 20
100.751272
 30
0.0
 11
60.062702
 21
100.751272
 31
0.0
  0
LINE
  8
0
  5
48237
 10
60.062702
 20
96.751272
 30
0.0
 11
64.962702
 21
96.751272
 31
0.0
  0
LINE
  8
0
  5
48238
 10
60.062702
 20
97.751272
 30
0.0
 11
64.312702
 21
97.751272
 31
0.0
  0
LINE
  8
0
  5
48239
 10
66.212702
 20
102.001272
 30
0.0
 11
66.212702
 21
101.501272
 31
0.0
  0
LINE
  8
0
  5
4823A
 10
59.562702
 20
101.501272
 30
0.0
 11
61.412702
 21
101.501272
 31
0.0
  0
LINE
  8
0
  5
4823B
 10
65.712702
 20
102.501272
 30
0.0
 11
61.812702
 21
102.501272
 31
0.0
  0
LINE
  8
0
  5
4823C
 10
64.612702
 20
98.501272
 30
0.0
 11
66.712702
 21
98.501272
 31
0.0
  0
LINE
  8
0
  5
4823D
 10
67.212702
 20
98.001272
 30
0.0
 11
67.212702
 21
96.501272
 31
0.0
  0
LINE
  8
0
  5
4823E
 10
66.212702
 20
97.251272
 30
0.0
 11
66.212702
 21
96.501272
 31
0.0
  0
LINE
  8
0
  5
4823F
 10
59.562702
 20
98.251272
 30
0.0
 11
59.562702
 21
100.251272
 31
0.0
  0
LINE
  8
0
  5
48240
 10
58.562702
 20
98.251272
 30
0.0
 11
58.562702
 21
100.501272
 31
0.0
  0
LINE
  8
0
  5
48241
 10
64.712702
 20
100.751272
 30
0.0
 11
62.662702
 21
100.751272
 31
0.0
  0
LINE
  8
0
  5
48242
 10
65.212702
 20
101.751272
 30
0.0
 11
62.662702
 21
101.751272
 31
0.0
  0
LINE
  8
0
  5
48243
 10
62.412702
 20
101.501272
 30
0.0
 11
62.412702
 21
101.001272
 31
0.0
  0
LINE
  8
0
  5
48244
 10
58.812702
 20
132.751272
 30
0.0
 11
58.812702
 21
133.251272
 31
0.0
  0
LINE
  8
0
  5
48245
 10
59.562702
 20
132.751272
 30
0.0
 11
59.562702
 21
133.251272
 31
0.0
  0
LINE
  8
0
  5
48246
 10
42.412702
 20
132.751272
 30
0.0
 11
42.412702
 21
133.251272
 31
0.0
  0
LINE
  8
0
  5
48247
 10
65.462702
 20
131.501272
 30
0.0
 11
66.212702
 21
131.501272
 31
0.0
  0
LINE
  8
0
  5
48248
 10
42.412702
 20
131.001272
 30
0.0
 11
42.412702
 21
129.501272
 31
0.0
  0
LINE
  8
0
  5
48249
 10
42.912702
 20
132.251272
 30
0.0
 11
58.312702
 21
132.251272
 31
0.0
  0
LINE
  8
0
  5
4824A
 10
62.412702
 20
128.251272
 30
0.0
 11
62.412702
 21
127.751272
 31
0.0
  0
LINE
  8
0
  5
4824B
 10
62.662702
 20
127.501272
 30
0.0
 11
65.212702
 21
127.501272
 31
0.0
  0
LINE
  8
0
  5
4824C
 10
62.662702
 20
128.501272
 30
0.0
 11
64.712702
 21
128.501272
 31
0.0
  0
LINE
  8
0
  5
4824D
 10
61.812702
 20
126.751272
 30
0.0
 11
65.712702
 21
126.751272
 31
0.0
  0
LINE
  8
0
  5
4824E
 10
66.212702
 20
127.751272
 30
0.0
 11
66.212702
 21
127.251272
 31
0.0
  0
LINE
  8
0
  5
4824F
 10
61.662702
 20
127.501272
 30
0.0
 11
61.662702
 21
126.901272
 31
0.0
  0
LINE
  8
0
  5
48250
 10
62.162702
 20
129.251272
 30
0.0
 11
64.712702
 21
129.251272
 31
0.0
  0
LINE
  8
0
  5
48251
 10
60.062702
 20
128.501272
 30
0.0
 11
61.412702
 21
128.501272
 31
0.0
  0
LINE
  8
0
  5
48252
 10
42.912702
 20
131.501272
 30
0.0
 11
58.062702
 21
131.501272
 31
0.0
  0
LINE
  8
0
  5
48253
 10
64.462702
 20
130.901272
 30
0.0
 11
64.462702
 21
131.351272
 31
0.0
  0
LINE
  8
0
  5
48254
 10
61.412702
 20
127.751272
 30
0.0
 11
59.562702
 21
127.751272
 31
0.0
  0
LINE
  8
0
  5
48255
 10
66.712702
 20
130.751272
 30
0.0
 11
64.612702
 21
130.751272
 31
0.0
  0
LINE
  8
0
  5
48256
 10
67.212702
 20
133.251272
 30
0.0
 11
67.212702
 21
131.251272
 31
0.0
  0
LINE
  8
0
  5
48257
 10
66.462702
 20
133.251272
 30
0.0
 11
66.462702
 21
131.751272
 31
0.0
  0
LINE
  8
0
  5
48258
 10
58.562702
 20
128.751272
 30
0.0
 11
58.562702
 21
131.001272
 31
0.0
  0
LINE
  8
0
  5
48259
 10
64.312702
 20
131.501272
 30
0.0
 11
60.062702
 21
131.501272
 31
0.0
  0
LINE
  8
0
  5
4825A
 10
59.562702
 20
129.001272
 30
0.0
 11
59.562702
 21
131.001272
 31
0.0
  0
LINE
  8
0
  5
4825B
 10
60.062702
 20
132.251272
 30
0.0
 11
64.712702
 21
132.251272
 31
0.0
  0
LINE
  8
0
  5
4825C
 10
43.364626
 20
180.30031
 30
0.0
 11
42.587702
 21
179.851752
 31
0.0
  0
LINE
  8
0
  5
4825D
 10
44.114626
 20
180.501272
 30
0.0
 11
45.212702
 21
180.501272
 31
0.0
  0
LINE
  8
0
  5
4825E
 10
41.212702
 20
174.879951
 30
0.0
 11
41.212702
 21
174.501272
 31
0.0
  0
LINE
  8
0
  5
4825F
 10
43.368368
 20
178.101997
 30
0.0
 11
42.587702
 21
178.552714
 31
0.0
  0
LINE
  8
0
  5
48260
 10
41.652042
 20
175.940611
 30
0.0
 11
43.420144
 21
177.708714
 31
0.0
  0
LINE
  8
0
  5
48261
 10
45.212702
 20
179.301272
 30
0.0
 11
44.062648
 21
179.301272
 31
0.0
  0
LINE
  8
0
  5
48262
 10
42.412702
 20
174.501272
 30
0.0
 11
42.412702
 21
174.879951
 31
0.0
  0
LINE
  8
0
  5
48263
 10
44.268673
 20
176.860186
 30
0.0
 11
42.50057
 21
175.092083
 31
0.0
  0
LINE
  8
0
  5
48264
 10
45.512702
 20
113.422882
 30
0.0
 11
45.512702
 21
113.372882
 31
0.0
  0
LINE
  8
0
  5
48265
 10
43.551554
 20
93.594311
 30
0.0
 11
43.712702
 21
93.501272
 31
0.0
  0
LINE
  8
0
  5
48266
 10
43.857547
 20
93.501272
 30
0.0
 11
43.712702
 21
93.501272
 31
0.0
  0
LINE
  8
0
  5
48267
 10
67.212702
 20
179.501272
 30
0.0
 11
67.212702
 21
177.501272
 31
0.0
  0
LINE
  8
0
  5
48268
 10
66.212702
 20
179.051272
 30
0.0
 11
66.212702
 21
177.501272
 31
0.0
  0
LINE
  8
0
  5
48269
 10
65.962702
 20
179.301272
 30
0.0
 11
45.212702
 21
179.301272
 31
0.0
  0
LINE
  8
0
  5
4826A
 10
45.212702
 20
180.501272
 30
0.0
 11
66.212702
 21
180.501272
 31
0.0
  0
LINE
  8
0
  5
4826B
 10
67.212702
 20
96.501272
 30
0.0
 11
67.212702
 21
94.501272
 31
0.0
  0
LINE
  8
0
  5
4826C
 10
66.212702
 20
96.501272
 30
0.0
 11
66.212702
 21
94.951272
 31
0.0
  0
LINE
  8
0
  5
4826D
 10
42.412702
 20
152.626272
 30
0.0
 11
42.412702
 21
137.001272
 31
0.0
  0
LINE
  8
0
  5
4826E
 10
45.212702
 20
94.701272
 30
0.0
 11
65.962702
 21
94.701272
 31
0.0
  0
LINE
  8
0
  5
4826F
 10
66.212702
 20
93.501272
 30
0.0
 11
45.212702
 21
93.501272
 31
0.0
  0
LINE
  8
0
  5
48270
 10
41.212702
 20
99.501272
 30
0.0
 11
41.212702
 21
174.501272
 31
0.0
  0
LINE
  8
0
  5
48271
 10
42.412702
 20
174.501272
 30
0.0
 11
42.412702
 21
158.626272
 31
0.0
  0
LINE
  8
0
  5
48272
 10
42.412702
 20
129.501272
 30
0.0
 11
42.412702
 21
117.626272
 31
0.0
  0
LINE
  8
0
  5
48273
 10
42.412702
 20
111.626272
 30
0.0
 11
42.412702
 21
99.501272
 31
0.0
  0
LINE
  8
0
  5
48274
 10
43.712702
 20
180.501272
 30
0.0
 11
43.551554
 21
180.408232
 31
0.0
  0
LINE
  8
0
  5
48275
 10
43.712702
 20
180.501272
 30
0.0
 11
43.857547
 21
180.501272
 31
0.0
  0
LINE
  8
0
  5
48276
 10
59.231477
 20
102.515432
 30
0.0
 11
61.512702
 21
102.475613
 31
0.0
  0
LINE
  8
0
  5
48277
 10
60.771548
 20
101.626272
 30
0.0
 11
59.231477
 21
102.515432
 31
0.0
  0
LINE
  8
0
  5
48278
 10
59.231477
 20
102.515432
 30
0.0
 11
59.231477
 21
126.737111
 31
0.0
  0
LINE
  8
0
  5
48279
 10
63.712702
 20
130.876272
 30
0.0
 11
67.212702
 21
130.815179
 31
0.0
  0
LINE
  8
0
  5
4827A
 10
63.712702
 20
99.376424
 30
0.0
 11
63.712702
 21
98.376272
 31
0.0
  0
LINE
  8
0
  5
4827B
 10
63.712702
 20
98.376272
 30
0.0
 11
67.212702
 21
98.437364
 31
0.0
  0
LINE
  8
0
  5
4827C
 10
63.712702
 20
129.876119
 30
0.0
 11
64.605862
 21
129.360453
 31
0.0
  0
LINE
  8
0
  5
4827D
 10
66.212702
 20
99.420062
 30
0.0
 11
66.212702
 21
129.832482
 31
0.0
  0
LINE
  8
0
  5
4827E
 10
64.605862
 20
129.360453
 30
0.0
 11
66.212702
 21
129.332405
 31
0.0
  0
LINE
  8
0
  5
4827F
 10
63.712702
 20
129.876119
 30
0.0
 11
66.212702
 21
129.832482
 31
0.0
  0
LINE
  8
0
  5
48280
 10
63.712702
 20
99.376424
 30
0.0
 11
66.212702
 21
99.420062
 31
0.0
  0
LINE
  8
0
  5
48281
 10
61.512702
 20
127.626272
 30
0.0
 11
60.771548
 21
127.626272
 31
0.0
  0
LINE
  8
0
  5
48282
 10
65.212702
 20
126.841514
 30
0.0
 11
64.358339
 21
126.826601
 31
0.0
  0
LINE
  8
0
  5
48283
 10
66.212702
 20
126.858969
 30
0.0
 11
65.212702
 21
126.841514
 31
0.0
  0
LINE
  8
0
  5
48284
 10
61.512702
 20
126.77693
 30
0.0
 11
64.358339
 21
126.826601
 31
0.0
  0
LINE
  8
0
  5
48285
 10
61.512702
 20
126.876272
 30
0.0
 11
61.512702
 21
127.626272
 31
0.0
  0
LINE
  8
0
  5
48286
 10
64.358339
 20
102.425942
 30
0.0
 11
65.212702
 21
102.411029
 31
0.0
  0
LINE
  8
0
  5
48287
 10
61.512702
 20
126.77693
 30
0.0
 11
61.512702
 21
126.876272
 31
0.0
  0
LINE
  8
0
  5
48288
 10
61.512702
 20
102.376272
 30
0.0
 11
61.512702
 21
101.626272
 31
0.0
  0
LINE
  8
0
  5
48289
 10
61.512702
 20
102.376272
 30
0.0
 11
61.512702
 21
102.475613
 31
0.0
  0
LINE
  8
0
  5
4828A
 10
61.512702
 20
101.626272
 30
0.0
 11
60.771548
 21
101.626272
 31
0.0
  0
LINE
  8
0
  5
4828B
 10
63.712702
 20
99.376424
 30
0.0
 11
64.605862
 21
99.89209
 31
0.0
  0
LINE
  8
0
  5
4828C
 10
59.231477
 20
126.737111
 30
0.0
 11
61.512702
 21
126.77693
 31
0.0
  0
LINE
  8
0
  5
4828D
 10
60.771548
 20
127.626272
 30
0.0
 11
59.231477
 21
126.737111
 31
0.0
  0
LINE
  8
0
  5
4828E
 10
63.712702
 20
129.876119
 30
0.0
 11
63.712702
 21
130.876272
 31
0.0
  0
LINE
  8
0
  5
4828F
 10
59.231477
 20
102.515432
 30
0.0
 11
61.512702
 21
102.475613
 31
0.0
  0
LINE
  8
0
  5
48290
 10
64.358339
 20
102.425942
 30
0.0
 11
61.512702
 21
102.475613
 31
0.0
  0
LINE
  8
0
  5
48291
 10
65.212702
 20
102.411029
 30
0.0
 11
66.212702
 21
102.393574
 31
0.0
  0
LINE
  8
0
  5
48292
 10
60.771548
 20
101.626272
 30
0.0
 11
59.231477
 21
102.515432
 31
0.0
  0
LINE
  8
0
  5
48293
 10
64.605862
 20
99.89209
 30
0.0
 11
66.212702
 21
99.920138
 31
0.0
  0
LINE
  8
0
  5
48294
 10
59.231477
 20
102.515432
 30
0.0
 11
59.231477
 21
126.737111
 31
0.0
  0
LINE
  8
0
  5
48295
 10
63.712702
 20
175.626272
 30
0.0
 11
67.212702
 21
175.565179
 31
0.0
  0
LINE
  8
0
  5
48296
 10
63.712702
 20
136.626424
 30
0.0
 11
63.712702
 21
135.626272
 31
0.0
  0
LINE
  8
0
  5
48297
 10
63.712702
 20
135.626272
 30
0.0
 11
67.212702
 21
135.687364
 31
0.0
  0
LINE
  8
0
  5
48298
 10
63.712702
 20
174.626119
 30
0.0
 11
64.605862
 21
174.110453
 31
0.0
  0
LINE
  8
0
  5
48299
 10
66.212702
 20
136.670062
 30
0.0
 11
66.212702
 21
174.582482
 31
0.0
  0
LINE
  8
0
  5
4829A
 10
64.605862
 20
174.110453
 30
0.0
 11
66.212702
 21
174.082405
 31
0.0
  0
LINE
  8
0
  5
4829B
 10
63.712702
 20
174.626119
 30
0.0
 11
66.212702
 21
174.582482
 31
0.0
  0
LINE
  8
0
  5
4829C
 10
63.712702
 20
136.626424
 30
0.0
 11
66.212702
 21
136.670062
 31
0.0
  0
LINE
  8
0
  5
4829D
 10
61.512702
 20
172.376272
 30
0.0
 11
60.771548
 21
172.376272
 31
0.0
  0
LINE
  8
0
  5
4829E
 10
65.212702
 20
171.591514
 30
0.0
 11
64.358339
 21
171.576601
 31
0.0
  0
LINE
  8
0
  5
4829F
 10
66.212702
 20
171.608969
 30
0.0
 11
65.212702
 21
171.591514
 31
0.0
  0
LINE
  8
0
  5
482A0
 10
61.512702
 20
171.52693
 30
0.0
 11
64.358339
 21
171.576601
 31
0.0
  0
LINE
  8
0
  5
482A1
 10
61.512702
 20
171.626272
 30
0.0
 11
61.512702
 21
172.376272
 31
0.0
  0
LINE
  8
0
  5
482A2
 10
64.358339
 20
139.675942
 30
0.0
 11
65.212702
 21
139.661029
 31
0.0
  0
LINE
  8
0
  5
482A3
 10
61.512702
 20
171.52693
 30
0.0
 11
61.512702
 21
171.626272
 31
0.0
  0
LINE
  8
0
  5
482A4
 10
61.512702
 20
139.626272
 30
0.0
 11
61.512702
 21
138.876272
 31
0.0
  0
LINE
  8
0
  5
482A5
 10
61.512702
 20
139.626272
 30
0.0
 11
61.512702
 21
139.725613
 31
0.0
  0
LINE
  8
0
  5
482A6
 10
61.512702
 20
138.876272
 30
0.0
 11
60.771548
 21
138.876272
 31
0.0
  0
LINE
  8
0
  5
482A7
 10
63.712702
 20
136.626424
 30
0.0
 11
64.605862
 21
137.14209
 31
0.0
  0
LINE
  8
0
  5
482A8
 10
59.231477
 20
171.487111
 30
0.0
 11
61.512702
 21
171.52693
 31
0.0
  0
LINE
  8
0
  5
482A9
 10
60.771548
 20
172.376272
 30
0.0
 11
59.231477
 21
171.487111
 31
0.0
  0
LINE
  8
0
  5
482AA
 10
63.712702
 20
174.626119
 30
0.0
 11
63.712702
 21
175.626272
 31
0.0
  0
LINE
  8
0
  5
482AB
 10
59.231477
 20
139.765432
 30
0.0
 11
61.512702
 21
139.725613
 31
0.0
  0
LINE
  8
0
  5
482AC
 10
64.358339
 20
139.675942
 30
0.0
 11
61.512702
 21
139.725613
 31
0.0
  0
LINE
  8
0
  5
482AD
 10
65.212702
 20
139.661029
 30
0.0
 11
66.212702
 21
139.643574
 31
0.0
  0
LINE
  8
0
  5
482AE
 10
60.771548
 20
138.876272
 30
0.0
 11
59.231477
 21
139.765432
 31
0.0
  0
LINE
  8
0
  5
482AF
 10
64.605862
 20
137.14209
 30
0.0
 11
66.212702
 21
137.170138
 31
0.0
  0
LINE
  8
0
  5
482B0
 10
59.231477
 20
168.876272
 30
0.0
 11
59.231477
 21
171.487111
 31
0.0
  0
ARC
  8
0
  5
482B1
 10
59.001702
 20
140.387364
 30
0.0
 40
9.461
 50
330.213054
 51
0.0
  0
ARC
  8
0
  5
482B2
 10
59.001702
 20
170.865179
 30
0.0
 40
9.461
 50
0.0
 51
29.786946
  0
ARC
  8
0
  5
482B3
 10
59.001702
 20
126.115179
 30
0.0
 40
9.461
 50
0.0
 51
29.786946
  0
ARC
  8
0
  5
482B4
 10
59.001702
 20
103.015179
 30
0.0
 40
9.461
 50
330.213054
 51
0.0
  0
ARC
  8
0
  5
482B5
 10
44.162702
 20
112.126272
 30
0.0
 40
0.25
 50
270.0
 51
315.0
  0
ARC
  8
0
  5
482B6
 10
44.162702
 20
113.126272
 30
0.0
 40
0.25
 50
45.0
 51
180.0
  0
ARC
  8
0
  5
482B7
 10
44.162702
 20
117.126272
 30
0.0
 40
0.25
 50
90.0
 51
180.0
  0
ARC
  8
0
  5
482B8
 10
44.162702
 20
116.126272
 30
0.0
 40
0.25
 50
180.0
 51
315.0
  0
ARC
  8
0
  5
482B9
 10
44.162702
 20
117.126272
 30
0.0
 40
0.25
 50
45.0
 51
90.0
  0
ARC
  8
0
  5
482BA
 10
44.162702
 20
112.126272
 30
0.0
 40
0.25
 50
180.0
 51
270.0
  0
ARC
  8
0
  5
482BB
 10
44.162702
 20
153.126272
 30
0.0
 40
0.25
 50
270.0
 51
315.0
  0
ARC
  8
0
  5
482BC
 10
44.162702
 20
154.126272
 30
0.0
 40
0.25
 50
45.0
 51
180.0
  0
ARC
  8
0
  5
482BD
 10
44.162702
 20
158.126272
 30
0.0
 40
0.25
 50
90.0
 51
180.0
  0
ARC
  8
0
  5
482BE
 10
44.162702
 20
157.126272
 30
0.0
 40
0.25
 50
180.0
 51
315.0
  0
ARC
  8
0
  5
482BF
 10
44.162702
 20
158.126272
 30
0.0
 40
0.25
 50
45.0
 51
90.0
  0
ARC
  8
0
  5
482C0
 10
44.162702
 20
153.126272
 30
0.0
 40
0.25
 50
180.0
 51
270.0
  0
CIRCLE
  8
0
  5
482C1
 10
44.162702
 20
112.126272
 30
0.0
 40
0.25
  0
ARC
  8
0
  5
482C2
 10
64.712702
 20
134.751272
 30
0.0
 40
0.5
 50
270.0
 51
0.0
  0
ARC
  8
0
  5
482C3
 10
65.462702
 20
134.751272
 30
0.0
 40
0.25
 50
90.0
 51
180.0
  0
ARC
  8
0
  5
482C4
 10
58.312702
 20
133.751272
 30
0.0
 40
0.5
 50
0.0
 51
90.0
  0
ARC
  8
0
  5
482C5
 10
60.062702
 20
133.751272
 30
0.0
 40
0.5
 50
90.0
 51
180.0
  0
ARC
  8
0
  5
482C6
 10
42.912702
 20
133.751272
 30
0.0
 40
0.5
 50
90.0
 51
180.0
  0
ARC
  8
0
  5
482C7
 10
66.212702
 20
134.751272
 30
0.0
 40
0.25
 50
0.0
 51
90.0
  0
ARC
  8
0
  5
482C8
 10
42.912702
 20
135.501272
 30
0.0
 40
0.5
 50
180.0
 51
270.0
  0
ARC
  8
0
  5
482C9
 10
65.212702
 20
138.751272
 30
0.0
 40
0.25
 50
0.0
 51
90.0
  0
ARC
  8
0
  5
482CA
 10
62.662702
 20
138.751272
 30
0.0
 40
0.25
 50
90.0
 51
180.0
  0
ARC
  8
0
  5
482CB
 10
62.662702
 20
138.251272
 30
0.0
 40
0.25
 50
180.0
 51
270.0
  0
ARC
  8
0
  5
482CC
 10
64.712702
 20
138.751272
 30
0.0
 40
0.75
 50
270.0
 51
0.0
  0
ARC
  8
0
  5
482CD
 10
64.712702
 20
138.751272
 30
0.0
 40
1.5
 50
270.0
 51
0.0
  0
ARC
  8
0
  5
482CE
 10
61.412702
 20
139.001272
 30
0.0
 40
0.25
 50
270.0
 51
0.0
  0
ARC
  8
0
  5
482CF
 10
61.812702
 20
139.601272
 30
0.0
 40
0.15
 50
90.0
 51
180.0
  0
ARC
  8
0
  5
482D0
 10
65.712702
 20
139.251272
 30
0.0
 40
0.5
 50
0.0
 51
90.0
  0
ARC
  8
0
  5
482D1
 10
58.062702
 20
135.501272
 30
0.0
 40
0.5
 50
270.0
 51
0.0
  0
ARC
  8
0
  5
482D2
 10
60.062702
 20
135.501272
 30
0.0
 40
0.5
 50
180.0
 51
270.0
  0
ARC
  8
0
  5
482D3
 10
59.562702
 20
137.751272
 30
0.0
 40
1.0
 50
90.0
 51
180.0
  0
ARC
  8
0
  5
482D4
 10
60.062702
 20
137.501272
 30
0.0
 40
0.5
 50
90.0
 51
180.0
  0
ARC
  8
0
  5
482D5
 10
66.712702
 20
135.251272
 30
0.0
 40
0.5
 50
0.0
 51
90.0
  0
ARC
  8
0
  5
482D6
 10
62.162702
 20
137.751272
 30
0.0
 40
0.5
 50
180.0
 51
270.0
  0
ARC
  8
0
  5
482D7
 10
61.412702
 20
137.751272
 30
0.0
 40
0.25
 50
0.0
 51
90.0
  0
ARC
  8
0
  5
482D8
 10
64.312702
 20
135.151272
 30
0.0
 40
0.15
 50
270.0
 51
0.0
  0
ARC
  8
0
  5
482D9
 10
64.612702
 20
135.601272
 30
0.0
 40
0.15
 50
90.0
 51
180.0
  0
ARC
  8
0
  5
482DA
 10
42.962702
 20
94.80031
 30
0.0
 40
0.75
 50
180.0
 51
240.0
  0
ARC
  8
0
  5
482DB
 10
42.962702
 20
94.80031
 30
0.0
 40
0.75
 50
120.0
 51
180.0
  0
ARC
  8
0
  5
482DC
 10
43.243368
 20
96.117053
 30
0.0
 40
0.25
 50
300.0
 51
45.0
  0
ARC
  8
0
  5
482DD
 10
42.712702
 20
99.122592
 30
0.0
 40
1.5
 50
180.0
 51
225.0
  0
ARC
  8
0
  5
482DE
 10
44.114626
 20
95.001272
 30
0.0
 40
1.5
 50
240.0
 51
270.0
  0
ARC
  8
0
  5
482DF
 10
42.712702
 20
99.122592
 30
0.0
 40
0.3
 50
180.0
 51
225.0
  0
ARC
  8
0
  5
482E0
 10
43.243368
 20
96.117053
 30
0.0
 40
1.45
 50
301.908751
 51
45.0
  0
ARC
  8
0
  5
482E1
 10
44.062648
 20
94.801272
 30
0.0
 40
0.1
 50
121.908751
 51
270.0
  0
ARC
  8
0
  5
482E2
 10
44.767727
 20
113.431297
 30
0.0
 40
0.744975
 50
315.0
 51
0.0
  0
ARC
  8
0
  5
482E3
 10
44.767727
 20
115.821246
 30
0.0
 40
0.744975
 50
270.0
 51
45.0
  0
ARC
  8
0
  5
482E4
 10
44.767727
 20
113.431297
 30
0.0
 40
0.744975
 50
0.0
 51
90.0
  0
ARC
  8
0
  5
482E5
 10
42.862702
 20
114.626272
 30
0.0
 40
0.45
 50
180.0
 51
270.0
  0
ARC
  8
0
  5
482E6
 10
42.912702
 20
116.376272
 30
0.0
 40
0.5
 50
180.0
 51
270.0
  0
ARC
  8
0
  5
482E7
 10
42.912702
 20
112.876272
 30
0.0
 40
0.5
 50
90.0
 51
180.0
  0
ARC
  8
0
  5
482E8
 10
42.862702
 20
114.626272
 30
0.0
 40
0.45
 50
90.0
 51
180.0
  0
ARC
  8
0
  5
482E9
 10
44.767727
 20
154.431297
 30
0.0
 40
0.744975
 50
315.0
 51
0.0
  0
ARC
  8
0
  5
482EA
 10
44.767727
 20
156.821246
 30
0.0
 40
0.744975
 50
270.0
 51
45.0
  0
ARC
  8
0
  5
482EB
 10
44.767727
 20
154.431297
 30
0.0
 40
0.744975
 50
0.0
 51
90.0
  0
ARC
  8
0
  5
482EC
 10
42.862702
 20
155.626272
 30
0.0
 40
0.45
 50
180.0
 51
270.0
  0
ARC
  8
0
  5
482ED
 10
42.912702
 20
157.376272
 30
0.0
 40
0.5
 50
180.0
 51
270.0
  0
ARC
  8
0
  5
482EE
 10
42.912702
 20
153.876272
 30
0.0
 40
0.5
 50
90.0
 51
180.0
  0
ARC
  8
0
  5
482EF
 10
42.862702
 20
155.626272
 30
0.0
 40
0.45
 50
90.0
 51
180.0
  0
ARC
  8
0
  5
482F0
 10
64.962702
 20
176.751272
 30
0.0
 40
0.5
 50
0.0
 51
90.0
  0
ARC
  8
0
  5
482F1
 10
65.962702
 20
176.751272
 30
0.0
 40
0.25
 50
270.0
 51
0.0
  0
ARC
  8
0
  5
482F2
 10
65.712702
 20
176.751272
 30
0.0
 40
0.25
 50
180.0
 51
270.0
  0
ARC
  8
0
  5
482F3
 10
59.562702
 20
173.501272
 30
0.0
 40
1.0
 50
180.0
 51
270.0
  0
ARC
  8
0
  5
482F4
 10
60.062702
 20
175.751272
 30
0.0
 40
1.5
 50
90.0
 51
180.0
  0
ARC
  8
0
  5
482F5
 10
60.062702
 20
173.751272
 30
0.0
 40
0.5
 50
180.0
 51
270.0
  0
ARC
  8
0
  5
482F6
 10
60.062702
 20
175.751272
 30
0.0
 40
0.5
 50
90.0
 51
180.0
  0
ARC
  8
0
  5
482F7
 10
66.712702
 20
176.001272
 30
0.0
 40
0.5
 50
270.0
 51
0.0
  0
ARC
  8
0
  5
482F8
 10
65.712702
 20
172.001272
 30
0.0
 40
0.5
 50
270.0
 51
0.0
  0
ARC
  8
0
  5
482F9
 10
61.812702
 20
171.651272
 30
0.0
 40
0.15
 50
180.0
 51
270.0
  0
ARC
  8
0
  5
482FA
 10
61.412702
 20
172.251272
 30
0.0
 40
0.25
 50
0.0
 51
90.0
  0
ARC
  8
0
  5
482FB
 10
64.712702
 20
172.501272
 30
0.0
 40
1.5
 50
0.0
 51
90.0
  0
ARC
  8
0
  5
482FC
 10
64.712702
 20
172.501272
 30
0.0
 40
0.75
 50
0.0
 51
90.0
  0
ARC
  8
0
  5
482FD
 10
62.662702
 20
173.001272
 30
0.0
 40
0.25
 50
90.0
 51
180.0
  0
ARC
  8
0
  5
482FE
 10
62.662702
 20
172.501272
 30
0.0
 40
0.25
 50
180.0
 51
270.0
  0
ARC
  8
0
  5
482FF
 10
65.212702
 20
172.501272
 30
0.0
 40
0.25
 50
270.0
 51
0.0
  0
ARC
  8
0
  5
48300
 10
62.162702
 20
173.501272
 30
0.0
 40
0.5
 50
90.0
 51
180.0
  0
ARC
  8
0
  5
48301
 10
61.412702
 20
173.501272
 30
0.0
 40
0.25
 50
270.0
 51
0.0
  0
ARC
  8
0
  5
48302
 10
64.612702
 20
175.651272
 30
0.0
 40
0.15
 50
180.0
 51
270.0
  0
ARC
  8
0
  5
48303
 10
64.312702
 20
176.101272
 30
0.0
 40
0.15
 50
0.0
 51
90.0
  0
ARC
  8
0
  5
48304
 10
64.962702
 20
97.251272
 30
0.0
 40
0.5
 50
270.0
 51
0.0
  0
ARC
  8
0
  5
48305
 10
65.962702
 20
97.251272
 30
0.0
 40
0.25
 50
0.0
 51
90.0
  0
ARC
  8
0
  5
48306
 10
65.712702
 20
97.251272
 30
0.0
 40
0.25
 50
90.0
 51
180.0
  0
ARC
  8
0
  5
48307
 10
59.562702
 20
100.501272
 30
0.0
 40
1.0
 50
90.0
 51
180.0
  0
ARC
  8
0
  5
48308
 10
60.062702
 20
98.251272
 30
0.0
 40
1.5
 50
180.0
 51
270.0
  0
ARC
  8
0
  5
48309
 10
60.062702
 20
100.251272
 30
0.0
 40
0.5
 50
90.0
 51
180.0
  0
ARC
  8
0
  5
4830A
 10
60.062702
 20
98.251272
 30
0.0
 40
0.5
 50
180.0
 51
270.0
  0
ARC
  8
0
  5
4830B
 10
66.712702
 20
98.001272
 30
0.0
 40
0.5
 50
0.0
 51
90.0
  0
ARC
  8
0
  5
4830C
 10
65.712702
 20
102.001272
 30
0.0
 40
0.5
 50
0.0
 51
90.0
  0
ARC
  8
0
  5
4830D
 10
61.812702
 20
102.351272
 30
0.0
 40
0.15
 50
90.0
 51
180.0
  0
ARC
  8
0
  5
4830E
 10
61.412702
 20
101.751272
 30
0.0
 40
0.25
 50
270.0
 51
0.0
  0
ARC
  8
0
  5
4830F
 10
64.712702
 20
101.501272
 30
0.0
 40
1.5
 50
270.0
 51
0.0
  0
ARC
  8
0
  5
48310
 10
64.712702
 20
101.501272
 30
0.0
 40
0.75
 50
270.0
 51
0.0
  0
ARC
  8
0
  5
48311
 10
62.662702
 20
101.001272
 30
0.0
 40
0.25
 50
180.0
 51
270.0
  0
ARC
  8
0
  5
48312
 10
62.662702
 20
101.501272
 30
0.0
 40
0.25
 50
90.0
 51
180.0
  0
ARC
  8
0
  5
48313
 10
65.212702
 20
101.501272
 30
0.0
 40
0.25
 50
0.0
 51
90.0
  0
ARC
  8
0
  5
48314
 10
62.162702
 20
100.501272
 30
0.0
 40
0.5
 50
180.0
 51
270.0
  0
ARC
  8
0
  5
48315
 10
61.412702
 20
100.501272
 30
0.0
 40
0.25
 50
0.0
 51
90.0
  0
ARC
  8
0
  5
48316
 10
64.612702
 20
98.351272
 30
0.0
 40
0.15
 50
90.0
 51
180.0
  0
ARC
  8
0
  5
48317
 10
64.312702
 20
97.901272
 30
0.0
 40
0.15
 50
270.0
 51
0.0
  0
ARC
  8
0
  5
48318
 10
64.712702
 20
131.751272
 30
0.0
 40
0.5
 50
0.0
 51
90.0
  0
ARC
  8
0
  5
48319
 10
65.462702
 20
131.751272
 30
0.0
 40
0.25
 50
180.0
 51
270.0
  0
ARC
  8
0
  5
4831A
 10
58.312702
 20
132.751272
 30
0.0
 40
0.5
 50
270.0
 51
0.0
  0
ARC
  8
0
  5
4831B
 10
60.062702
 20
132.751272
 30
0.0
 40
0.5
 50
180.0
 51
270.0
  0
ARC
  8
0
  5
4831C
 10
42.912702
 20
132.751272
 30
0.0
 40
0.5
 50
180.0
 51
270.0
  0
ARC
  8
0
  5
4831D
 10
66.212702
 20
131.751272
 30
0.0
 40
0.25
 50
270.0
 51
0.0
  0
ARC
  8
0
  5
4831E
 10
42.912702
 20
131.001272
 30
0.0
 40
0.5
 50
90.0
 51
180.0
  0
ARC
  8
0
  5
4831F
 10
65.212702
 20
127.751272
 30
0.0
 40
0.25
 50
270.0
 51
0.0
  0
ARC
  8
0
  5
48320
 10
62.662702
 20
127.751272
 30
0.0
 40
0.25
 50
180.0
 51
270.0
  0
ARC
  8
0
  5
48321
 10
62.662702
 20
128.251272
 30
0.0
 40
0.25
 50
90.0
 51
180.0
  0
ARC
  8
0
  5
48322
 10
64.712702
 20
127.751272
 30
0.0
 40
0.75
 50
0.0
 51
90.0
  0
ARC
  8
0
  5
48323
 10
64.712702
 20
127.751272
 30
0.0
 40
1.5
 50
0.0
 51
90.0
  0
ARC
  8
0
  5
48324
 10
61.412702
 20
127.501272
 30
0.0
 40
0.25
 50
0.0
 51
90.0
  0
ARC
  8
0
  5
48325
 10
61.812702
 20
126.901272
 30
0.0
 40
0.15
 50
180.0
 51
270.0
  0
ARC
  8
0
  5
48326
 10
65.712702
 20
127.251272
 30
0.0
 40
0.5
 50
270.0
 51
0.0
  0
ARC
  8
0
  5
48327
 10
58.062702
 20
131.001272
 30
0.0
 40
0.5
 50
0.0
 51
90.0
  0
ARC
  8
0
  5
48328
 10
60.062702
 20
131.001272
 30
0.0
 40
0.5
 50
90.0
 51
180.0
  0
ARC
  8
0
  5
48329
 10
59.562702
 20
128.751272
 30
0.0
 40
1.0
 50
180.0
 51
270.0
  0
ARC
  8
0
  5
4832A
 10
60.062702
 20
129.001272
 30
0.0
 40
0.5
 50
180.0
 51
270.0
  0
ARC
  8
0
  5
4832B
 10
66.712702
 20
131.251272
 30
0.0
 40
0.5
 50
270.0
 51
0.0
  0
ARC
  8
0
  5
4832C
 10
62.162702
 20
128.751272
 30
0.0
 40
0.5
 50
90.0
 51
180.0
  0
ARC
  8
0
  5
4832D
 10
61.412702
 20
128.751272
 30
0.0
 40
0.25
 50
270.0
 51
0.0
  0
ARC
  8
0
  5
4832E
 10
64.312702
 20
131.351272
 30
0.0
 40
0.15
 50
0.0
 51
90.0
  0
ARC
  8
0
  5
4832F
 10
64.612702
 20
130.901272
 30
0.0
 40
0.15
 50
180.0
 51
270.0
  0
ARC
  8
0
  5
48330
 10
42.962702
 20
179.202233
 30
0.0
 40
0.75
 50
120.0
 51
180.0
  0
ARC
  8
0
  5
48331
 10
42.962702
 20
179.202233
 30
0.0
 40
0.75
 50
180.0
 51
240.0
  0
ARC
  8
0
  5
48332
 10
43.243368
 20
177.885491
 30
0.0
 40
0.25
 50
315.0
 51
60.0
  0
ARC
  8
0
  5
48333
 10
42.712702
 20
174.879951
 30
0.0
 40
1.5
 50
135.0
 51
180.0
  0
ARC
  8
0
  5
48334
 10
44.114626
 20
179.001272
 30
0.0
 40
1.5
 50
90.0
 51
120.0
  0
ARC
  8
0
  5
48335
 10
42.712702
 20
174.879951
 30
0.0
 40
0.3
 50
135.0
 51
180.0
  0
ARC
  8
0
  5
48336
 10
43.243368
 20
177.885491
 30
0.0
 40
1.45
 50
315.0
 51
58.091249
  0
ARC
  8
0
  5
48337
 10
44.062648
 20
179.201272
 30
0.0
 40
0.1
 50
90.0
 51
238.091249
  0
ARC
  8
0
  5
48338
 10
65.962702
 20
179.051272
 30
0.0
 40
0.25
 50
0.0
 51
90.0
  0
ARC
  8
0
  5
48339
 10
66.212702
 20
179.501272
 30
0.0
 40
1.0
 50
0.0
 51
90.0
  0
ARC
  8
0
  5
4833A
 10
65.962702
 20
94.951272
 30
0.0
 40
0.25
 50
270.0
 51
0.0
  0
ARC
  8
0
  5
4833B
 10
66.212702
 20
94.501272
 30
0.0
 40
1.0
 50
270.0
 51
0.0
  0
LINE
  8
0
  5
4833C
 10
28.712702
 20
189.65498
 30
0.0
 11
32.058994
 21
193.001272
 31
0.0
  0
LINE
  8
0
  5
4833D
 10
28.712702
 20
186.119446
 30
0.0
 11
35.594528
 21
193.001272
 31
0.0
  0
LINE
  8
0
  5
4833E
 10
28.712702
 20
182.583912
 30
0.0
 11
39.130061
 21
193.001272
 31
0.0
  0
LINE
  8
0
  5
4833F
 10
28.712702
 20
179.048378
 30
0.0
 11
41.212702
 21
191.548378
 31
0.0
  0
LINE
  8
0
  5
48340
 10
28.712702
 20
175.512844
 30
0.0
 11
41.212702
 21
188.012844
 31
0.0
  0
LINE
  8
0
  5
48341
 10
28.712702
 20
171.977311
 30
0.0
 11
41.212702
 21
184.477311
 31
0.0
  0
LINE
  8
0
  5
48342
 10
28.712702
 20
168.441777
 30
0.0
 11
41.212702
 21
180.941777
 31
0.0
  0
LINE
  8
0
  5
48343
 10
28.712702
 20
164.906243
 30
0.0
 11
41.212702
 21
177.406243
 31
0.0
  0
LINE
  8
0
  5
48344
 10
28.712702
 20
161.370709
 30
0.0
 11
41.212702
 21
173.870709
 31
0.0
  0
LINE
  8
0
  5
48345
 10
28.712702
 20
157.835175
 30
0.0
 11
41.212702
 21
170.335175
 31
0.0
  0
LINE
  8
0
  5
48346
 10
28.712702
 20
154.299641
 30
0.0
 11
41.212702
 21
166.799641
 31
0.0
  0
LINE
  8
0
  5
48347
 10
28.712702
 20
150.764107
 30
0.0
 11
41.212702
 21
163.264107
 31
0.0
  0
LINE
  8
0
  5
48348
 10
28.712702
 20
147.228573
 30
0.0
 11
41.212702
 21
159.728573
 31
0.0
  0
LINE
  8
0
  5
48349
 10
28.712702
 20
143.693039
 30
0.0
 11
41.212702
 21
156.193039
 31
0.0
  0
LINE
  8
0
  5
4834A
 10
28.712702
 20
140.157505
 30
0.0
 11
41.212702
 21
152.657505
 31
0.0
  0
LINE
  8
0
  5
4834B
 10
28.712702
 20
136.621971
 30
0.0
 11
41.212702
 21
149.121971
 31
0.0
  0
LINE
  8
0
  5
4834C
 10
28.712702
 20
133.086438
 30
0.0
 11
41.212702
 21
145.586438
 31
0.0
  0
LINE
  8
0
  5
4834D
 10
28.712702
 20
129.550904
 30
0.0
 11
41.212702
 21
142.050904
 31
0.0
  0
LINE
  8
0
  5
4834E
 10
28.712702
 20
126.01537
 30
0.0
 11
41.212702
 21
138.51537
 31
0.0
  0
LINE
  8
0
  5
4834F
 10
28.712702
 20
122.479836
 30
0.0
 11
41.212702
 21
134.979836
 31
0.0
  0
LINE
  8
0
  5
48350
 10
28.712702
 20
118.944302
 30
0.0
 11
41.212702
 21
131.444302
 31
0.0
  0
LINE
  8
0
  5
48351
 10
28.712702
 20
115.408768
 30
0.0
 11
41.212702
 21
127.908768
 31
0.0
  0
LINE
  8
0
  5
48352
 10
28.712702
 20
111.873234
 30
0.0
 11
41.212702
 21
124.373234
 31
0.0
  0
LINE
  8
0
  5
48353
 10
28.712702
 20
108.3377
 30
0.0
 11
41.212702
 21
120.8377
 31
0.0
  0
LINE
  8
0
  5
48354
 10
28.712702
 20
104.802166
 30
0.0
 11
41.212702
 21
117.302166
 31
0.0
  0
LINE
  8
0
  5
48355
 10
28.712702
 20
101.266632
 30
0.0
 11
41.212702
 21
113.766632
 31
0.0
  0
LINE
  8
0
  5
48356
 10
28.712702
 20
97.731098
 30
0.0
 11
41.212702
 21
110.231098
 31
0.0
  0
LINE
  8
0
  5
48357
 10
28.712702
 20
94.195565
 30
0.0
 11
41.212702
 21
106.695565
 31
0.0
  0
LINE
  8
0
  5
48358
 10
28.712702
 20
90.660031
 30
0.0
 11
41.212702
 21
103.160031
 31
0.0
  0
LINE
  8
0
  5
48359
 10
28.712702
 20
87.124497
 30
0.0
 11
41.212702
 21
99.624497
 31
0.0
  0
LINE
  8
0
  5
4835A
 10
28.712702
 20
83.588963
 30
0.0
 11
41.212702
 21
96.088963
 31
0.0
  0
LINE
  8
0
  5
4835B
 10
29.660545
 20
81.001272
 30
0.0
 11
41.212702
 21
92.553429
 31
0.0
  0
LINE
  8
0
  5
4835C
 10
33.196079
 20
81.001272
 30
0.0
 11
41.212702
 21
89.017895
 31
0.0
  0
LINE
  8
0
  5
4835D
 10
36.731613
 20
81.001272
 30
0.0
 11
41.212702
 21
85.482361
 31
0.0
  0
LINE
  8
0
  5
4835E
 10
40.267146
 20
81.001272
 30
0.0
 11
41.212702
 21
81.946827
 31
0.0
  0
ENDSEC
  0
EOF
