  0
SECTION
  2
HEADER
  9
$ACADVER
  1
AC1009
  9
$INSBASE
 10
0.0
 20
0.0
 30
0.0
  9
$EXTMIN
 10
111.086112
 20
253.05511
 30
0.0
  9
$EXTMAX
 10
128.255858
 20
265.625554
 30
0.0
  9
$LIMMIN
 10
110.667273
 20
252.717306
  9
$LIMMAX
 10
128.820475
 20
265.899661
  9
$ORTHOMODE
 70
     0
  9
$REGENMODE
 70
     1
  9
$FILLMODE
 70
     1
  9
$QTEXTMODE
 70
     0
  9
$MIRRTEXT
 70
     1
  9
$DRAGMODE
 70
     2
  9
$LTSCALE
 40
1.0
  9
$OSMODE
 70
    23
  9
$ATTMODE
 70
     1
  9
$TEXTSIZE
 40
0.2
  9
$TRACEWID
 40
0.05
  9
$TEXTSTYLE
  7
STANDARD
  9
$CLAYER
  8
0
  9
$CELTYPE
  6
BYLAYER
  9
$CECOLOR
 62
   256
  9
$DIMSCALE
 40
4.5
  9
$DIMASZ
 40
0.18
  9
$DIMEXO
 40
0.0625
  9
$DIMDLI
 40
0.38
  9
$DIMRND
 40
0.0
  9
$DIMDLE
 40
0.0
  9
$DIMEXE
 40
0.18
  9
$DIMTP
 40
0.0
  9
$DIMTM
 40
0.0
  9
$DIMTXT
 40
0.45
  9
$DIMCEN
 40
0.09
  9
$DIMTSZ
 40
0.0
  9
$DIMTOL
 70
     0
  9
$DIMLIM
 70
     0
  9
$DIMTIH
 70
     1
  9
$DIMTOH
 70
     1
  9
$DIMSE1
 70
     0
  9
$DIMSE2
 70
     0
  9
$DIMTAD
 70
     1
  9
$DIMZIN
 70
     0
  9
$DIMBLK
  1

  9
$DIMASO
 70
     1
  9
$DIMSHO
 70
     1
  9
$DIMPOST
  1

  9
$DIMAPOST
  1

  9
$DIMALT
 70
     0
  9
$DIMALTD
 70
     2
  9
$DIMALTF
 40
25.4
  9
$DIMLFAC
 40
1.0
  9
$DIMTOFL
 70
     0
  9
$DIMTVP
 40
0.0
  9
$DIMTIX
 70
     0
  9
$DIMSOXD
 70
     0
  9
$DIMSAH
 70
     0
  9
$DIMBLK1
  1

  9
$DIMBLK2
  1

  9
$DIMSTYLE
  2
*UNNAMED
  9
$DIMCLRD
 70
     0
  9
$DIMCLRE
 70
     0
  9
$DIMCLRT
 70
     0
  9
$DIMTFAC
 40
1.0
  9
$DIMGAP
 40
0.09
  9
$LUNITS
 70
     2
  9
$LUPREC
 70
     4
  9
$SKETCHINC
 40
0.1
  9
$FILLETRAD
 40
0.0
  9
$AUNITS
 70
     0
  9
$AUPREC
 70
     0
  9
$MENU
  1
acad
  9
$ELEVATION
 40
0.0
  9
$PELEVATION
 40
0.0
  9
$THICKNESS
 40
0.0
  9
$LIMCHECK
 70
     0
  9
$BLIPMODE
 70
     1
  9
$CHAMFERA
 40
0.0
  9
$CHAMFERB
 40
0.0
  9
$SKPOLY
 70
     0
  9
$TDCREATE
 40
2451219.390219560
  9
$TDUPDATE
 40
2451219.392021064
  9
$TDINDWG
 40
0.0015217593
  9
$TDUSRTIMER
 40
0.0015217593
  9
$USRTIMER
 70
     1
  9
$ANGBASE
 50
0.0
  9
$ANGDIR
 70
     0
  9
$PDMODE
 70
     0
  9
$PDSIZE
 40
0.0
  9
$PLINEWID
 40
0.0
  9
$COORDS
 70
     1
  9
$SPLFRAME
 70
     0
  9
$SPLINETYPE
 70
     6
  9
$SPLINESEGS
 70
     8
  9
$ATTDIA
 70
     0
  9
$ATTREQ
 70
     1
  9
$HANDLING
 70
     1
  9
$HANDSEED
  5
4A6F5
  9
$SURFTAB1
 70
     6
  9
$SURFTAB2
 70
     6
  9
$SURFTYPE
 70
     6
  9
$SURFU
 70
     6
  9
$SURFV
 70
     6
  9
$UCSNAME
  2

  9
$UCSORG
 10
110.6011398636206
 20
252.5851518868943
 30
0.0
  9
$UCSXDIR
 10
1.0
 20
0.0
 30
0.0
  9
$UCSYDIR
 10
0.0
 20
1.0
 30
0.0
  9
$PUCSNAME
  2

  9
$PUCSORG
 10
0.0
 20
0.0
 30
0.0
  9
$PUCSXDIR
 10
1.0
 20
0.0
 30
0.0
  9
$PUCSYDIR
 10
0.0
 20
1.0
 30
0.0
  9
$USERI1
 70
     0
  9
$USERI2
 70
     0
  9
$USERI3
 70
     0
  9
$USERI4
 70
     0
  9
$USERI5
 70
     0
  9
$USERR1
 40
0.0
  9
$USERR2
 40
0.0
  9
$USERR3
 40
0.0
  9
$USERR4
 40
0.0
  9
$USERR5
 40
0.0
  9
$WORLDVIEW
 70
     1
  9
$SHADEDGE
 70
     3
  9
$SHADEDIF
 70
    70
  9
$TILEMODE
 70
     1
  9
$MAXACTVP
 70
    16
  9
$PINSBASE
 10
0.0
 20
0.0
 30
0.0
  9
$PLIMCHECK
 70
     0
  9
$PEXTMIN
 10
1.000000E+20
 20
1.000000E+20
 30
1.000000E+20
  9
$PEXTMAX
 10
-1.000000E+20
 20
-1.000000E+20
 30
-1.000000E+20
  9
$PLIMMIN
 10
0.0
 20
0.0
  9
$PLIMMAX
 10
12.0
 20
9.0
  9
$UNITMODE
 70
     0
  9
$VISRETAIN
 70
     0
  9
$PLINEGEN
 70
     0
  9
$PSLTSCALE
 70
     1
  9
$TREEDEPTH
 70
  3020
  9
$DWGCODEPAGE
  3
dummy
  0
ENDSEC
  0
SECTION
  2
TABLES
  0
TABLE
  2
VPORT
 70
     2
  0
VPORT
  2
*ACTIVE
 70
     0
 10
0.0
 20
0.0
 11
1.0
 21
1.0
 12
121.597297
 22
259.308484
 13
0.0
 23
0.0
 14
1.0
 24
1.0
 15
0.0
 25
0.0
 16
0.0
 26
0.0
 36
1.0
 17
0.0
 27
0.0
 37
0.0
 40
13.182355
 41
1.658281
 42
50.0
 43
0.0
 44
0.0
 50
0.0
 51
0.0
 71
     0
 72
   100
 73
     1
 74
     1
 75
     0
 76
     0
 77
     0
 78
     0
  0
ENDTAB
  0
TABLE
  2
LTYPE
 70
     1
  0
LTYPE
  2
CONTINUOUS
 70
    64
  3
Solid line
 72
    65
 73
     0
 40
0.0
  0
ENDTAB
  0
TABLE
  2
LAYER
 70
     2
  0
LAYER
  2
0
 70
    64
 62
     7
  6
CONTINUOUS
  0
LAYER
  2
933A07
 70
    64
 62
     7
  6
CONTINUOUS
  0
ENDTAB
  0
TABLE
  2
STYLE
 70
     1
  0
STYLE
  2
STANDARD
 70
     0
 40
0.0
 41
1.0
 50
0.0
 71
     0
 42
0.2
  3
txt
  4

  0
ENDTAB
  0
TABLE
  2
VIEW
 70
     0
  0
ENDTAB
  0
TABLE
  2
UCS
 70
     0
  0
ENDTAB
  0
TABLE
  2
APPID
 70
     3
  0
APPID
  2
ACAD
 70
    64
  0
APPID
  2
AVE_RENDER
 70
    64
  0
APPID
  2
AVE_MATERIAL
 70
    64
  0
ENDTAB
  0
TABLE
  2
DIMSTYLE
 70
     0
  0
ENDTAB
  0
ENDSEC
  0
SECTION
  2
BLOCKS
  0
BLOCK
  8
0
  5
3675A
  2
73830
 70
    64
 10
440.848374
 20
1407.449189
 30
0.0
  3
73830
  0
ENDBLK
  8
0
  5
3675B
  0
BLOCK
  8
0
  5
3675C
  2
DF
 70
    64
 10
922.739764
 20
276.264907
 30
0.0
  3
DF
  0
ENDBLK
  8
0
  5
3675D
  0
BLOCK
  8
0
  5
3675E
  2
IU
 70
    64
 10
924.839764
 20
266.864907
 30
0.0
  3
IU
  0
ENDBLK
  8
0
  5
3675F
  0
BLOCK
  8
0
  5
463B4
  2
AVE_RENDER
 70
    64
 10
0.0
 20
0.0
 30
0.0
  1
AVE_RENDER
  3
AVE_RENDER
  0
ENDBLK
  8
0
  5
463B5
  0
BLOCK
  8
0
  5
463C2
  2
AVE_GLOBAL
 70
    64
 10
0.0
 20
0.0
 30
0.0
  1
AVE_GLOBAL
  3
AVE_GLOBAL
  0
ENDBLK
  8
0
  5
463C3
  0
ENDSEC
  0
SECTION
  2
ENTITIES
  0
INSERT
  8
0
  5
3AA11
  2
73830
 10
177.999828
 20
709.671176
 30
0.0
 41
0.5
 42
0.5
 43
0.5
  0
INSERT
  8
0
  5
3AA12
  2
DF
 10
418.945523
 20
144.079035
 30
0.0
 41
0.5
 42
0.5
 43
0.5
  0
INSERT
  8
0
  5
3AA13
  2
IU
 10
419.995523
 20
139.379035
 30
0.0
 41
0.5
 42
0.5
 43
0.5
  0
INSERT
  8
0
  5
3AC95
  2
73830
 10
238.823284
 20
747.308767
 30
0.0
 41
0.5
 42
0.5
 43
0.5
  0
INSERT
  8
0
  5
3AC96
  2
DF
 10
479.768979
 20
181.716626
 30
0.0
 41
0.5
 42
0.5
 43
0.5
  0
INSERT
  8
0
  5
3AC97
  2
IU
 10
480.818979
 20
177.016626
 30
0.0
 41
0.5
 42
0.5
 43
0.5
  0
INSERT
  8
933A07
 62
     1
  5
463B6
  2
AVE_RENDER
 10
0.0
 20
0.0
 30
0.0
1001
AVE_RENDER
1002
{
1070
     7
1000
Pref
1070
    30
1070
    20
1070
     1
1070
     0
1000

1070
    10
1070
     1
1070
    10
1040
1.0
1070
     1
1040
0.3
1040
0.7
1040
0.0
1040
10.0
1010
-1.0
1020
-1.0
1030
-1.0
1040
0.3
1070
    49
1070
     0
1070
     0
1010
1.0
1020
1.0
1030
1.0
1040
45.0
1070
     1
1070
     0
1000
WCS
1040
0.0
1070
     0
1040
10.0
1002
}
  0
INSERT
  8
933A07
 62
     3
  5
463B7
  2
AVE_RENDER
 10
0.0
 20
0.0
 30
0.0
1001
AVE_RENDER
1002
{
1070
     0
1000
Full Opt
1070
     0
1070
     1
1070
     1
1070
     1
1070
     0
1070
     0
1070
     0
1070
     1
1070
     1
1040
0.0001
1040
0.0001
1002
}
  0
INSERT
  8
933A07
 62
     4
  5
463B8
  2
AVE_RENDER
 10
0.0
 20
0.0
 30
0.0
1001
AVE_RENDER
1002
{
1070
     0
1000
Quick Opt
1070
     0
1070
     1
1070
     1
1070
     1
1070
     0
1070
     0
1070
     1
1002
}
  0
INSERT
  8
933A07
 62
     5
  5
463B9
  2
AVE_RENDER
 10
0.0
 20
0.0
 30
0.0
1001
AVE_RENDER
1002
{
1070
     1
1000
Scanl Opt
1070
     2
1070
     0
1070
     2
1040
2.0
1040
4.0
1070
     0
1070
     1
1070
     0
1040
0.03
1002
}
  0
INSERT
  8
933A07
 62
     6
  5
463BA
  2
AVE_RENDER
 10
0.0
 20
0.0
 30
0.0
1001
AVE_RENDER
1002
{
1070
     2
1000
Raytr Opt
1070
     2
1070
     0
1070
     2
1040
2.0
1040
4.0
1070
     0
1070
     1
1070
     1
1040
0.03
1070
     3
1040
0.03
1002
}
  0
INSERT
  8
933A07
 62
     7
  5
463BB
  2
AVE_RENDER
 10
0.0
 20
0.0
 30
0.0
1001
AVE_RENDER
1002
{
1070
     0
1000
RFile Opt
1070
     1
1070
   640
1070
   480
1070
 10000
1070
     1
1070
     8
1070
     8
1070
     0
1070
     0
1070
     0
1070
     0
1070
     0
1070
     0
1070
     0
1002
}
  0
INSERT
  8
933A07
 62
     8
  5
463BC
  2
AVE_RENDER
 10
0.0
 20
0.0
 30
0.0
1001
AVE_RENDER
1002
{
1070
     0
1000
Fog Opt
1070
     0
1070
     0
1040
0.0
1040
1.0
1040
0.0
1040
1.0
1010
0.5
1020
0.5
1030
0.5
1002
}
  0
INSERT
  8
933A07
 62
     9
  5
463BD
  2
AVE_RENDER
 10
0.0
 20
0.0
 30
0.0
1001
AVE_RENDER
1002
{
1070
     0
1000
BG Opt
1070
     0
1070
     1
1010
0.0
1020
0.0
1030
0.0
1010
1.0
1020
0.0
1030
0.0
1010
0.0
1020
1.0
1030
0.0
1010
0.0
1020
0.0
1030
1.0
1040
0.5
1040
0.33
1040
0.0
1000

1070
     1
1000

1070
     1
1070
     1
1040
1.0
1040
1.0
1040
0.0
1040
0.0
1070
     0
1002
}
  0
INSERT
  8
933A07
 62
     1
  5
463C4
  2
AVE_GLOBAL
 10
0.0
 20
0.0
 30
0.0
1001
AVE_MATERIAL
1002
{
1000
*GLOBAL*
1000
1
1000
Acabado global.
1002
{
1002
}
1002
{
1070
    63
1002
{
1002
{
1010
-1.0
1020
-1.0
1030
-1.0
1002
}
1040
0.1
1000

1040
0.0
1002
{
1002
}
1040
0.0
1002
{
1002
}
1040
0.0
1002
}
1002
{
1002
{
1010
-1.0
1020
-1.0
1030
-1.0
1002
}
1040
0.7
1000

1040
0.0
1002
{
1002
}
1040
0.0
1002
{
1002
}
1040
0.0
1002
}
1002
{
1002
{
1010
-1.0
1020
-1.0
1030
-1.0
1002
}
1040
0.2
1000

1040
0.0
1002
{
1002
}
1040
0.0
1002
{
1002
}
1040
0.0
1002
}
1002
{
1070
     0
1002
{
1070
     1
1002
{
1040
1.0
1040
1.0
1000

1040
0.0
1002
{
1002
}
1040
0.0
1002
{
1002
}
1040
0.0
1002
}
1002
}
1040
1.0
1040
0.0
1040
0.0
1002
}
1002
{
1040
1.0
1040
1.0
1000

1040
0.0
1002
{
1002
}
1040
0.0
1002
{
1002
}
1040
0.0
1002
}
1002
{
1040
0.5
1040
1.0
1000

1040
0.0
1002
{
1002
}
1040
0.0
1002
{
1002
}
1040
0.0
1002
}
1002
{
1070
     0
1040
0.0
1002
{
1002
}
1040
1.0
1002
{
1002
}
1040
0.0
1002
}
1002
{
1040
0.0
1002
{
1002
{
1010
0.0
1020
0.0
1030
0.0
1002
}
1040
1.0
1000

1040
0.0
1002
{
1002
}
1040
0.0
1002
{
1002
}
1040
0.0
1002
}
1002
}
1002
{
1002
{
1070
     1
1002
{
1040
0.0
1040
1.0
1000

1040
0.0
1002
{
1002
}
1040
0.0
1002
{
1002
}
1040
0.0
1002
}
1002
}
1040
0.0
1002
{
1002
}
1010
1.0
1020
0.0
1030
0.0
1010
0.0
1020
1.0
1030
0.0
1010
0.0
1020
0.0
1030
1.0
1070
     0
1002
}
1002
{
1002
{
1040
1.0
1040
1.0
1002
{
1070
     1
1002
{
1040
1.0
1040
1.0
1000

1040
0.0
1002
{
1002
}
1040
0.0
1002
{
1002
}
1040
0.0
1002
}
1002
}
1002
}
1070
     0
1040
0.0
1002
{
1002
}
1002
}
1002
{
1002
}
1002
}
1002
{
1071
        3
1070
     3
1070
     0
1002
{
1070
     2
1070
     0
1070
     0
1040
0.0
1002
}
1070
     0
1070
     2
1002
{
1002
}
1002
}
1002
{
1040
8030.0
1040
190.300003
1040
0.305
1040
228.0
1040
545.0
1040
14.0
1040
17.4
1040
0.456
1002
}
1002
}
  0
LINE
  8
0
  5
47925
 10
120.612993
 20
258.225879
 30
0.0
 11
120.145268
 21
257.904057
 31
0.0
  0
LINE
  8
0
  5
47926
 10
120.145268
 20
257.819182
 30
0.0
 11
120.145268
 21
257.904057
 31
0.0
  0
LINE
  8
0
  5
47927
 10
120.145268
 20
257.904057
 30
0.0
 11
120.485865
 21
257.74539
 31
0.0
  0
LINE
  8
0
  5
47928
 10
120.145268
 20
257.819182
 30
0.0
 11
120.317618
 21
257.629627
 31
0.0
  0
LINE
  8
0
  5
47929
 10
120.789193
 20
258.143796
 30
0.0
 11
120.612993
 21
258.225879
 31
0.0
  0
LINE
  8
0
  5
4792A
 10
117.684659
 20
257.814339
 30
0.0
 11
117.880766
 21
257.718758
 31
0.0
  0
LINE
  8
0
  5
4792B
 10
118.910276
 20
260.44888
 30
0.0
 11
118.910276
 21
260.533767
 31
0.0
  0
LINE
  8
0
  5
4792C
 10
119.678681
 20
261.062475
 30
0.0
 11
119.678681
 21
261.054767
 31
0.0
  0
LINE
  8
0
  5
4792D
 10
118.106128
 20
260.247358
 30
0.0
 11
117.988091
 21
260.304541
 31
0.0
  0
LINE
  8
0
  5
4792E
 10
117.880766
 20
256.00909
 30
0.0
 11
117.812389
 21
256.084293
 31
0.0
  0
LINE
  8
0
  5
4792F
 10
117.880766
 20
258.336399
 30
0.0
 11
117.55942
 21
258.502332
 31
0.0
  0
LINE
  8
0
  5
47930
 10
117.880766
 20
257.528918
 30
0.0
 11
117.55942
 21
257.685541
 31
0.0
  0
LINE
  8
0
  5
47931
 10
118.563672
 20
258.200898
 30
0.0
 11
118.563672
 21
259.202421
 31
0.0
  0
LINE
  8
0
  5
47932
 10
118.631672
 20
259.249209
 30
0.0
 11
118.631672
 21
258.247686
 31
0.0
  0
LINE
  8
0
  5
47933
 10
118.563672
 20
258.200898
 30
0.0
 11
118.420337
 21
258.270337
 31
0.0
  0
LINE
  8
0
  5
47934
 10
118.563672
 20
258.200898
 30
0.0
 11
118.631672
 21
258.247686
 31
0.0
  0
LINE
  8
0
  5
47935
 10
118.300892
 20
258.81199
 30
0.0
 11
118.420337
 21
258.754124
 31
0.0
  0
LINE
  8
0
  5
47936
 10
117.880766
 20
258.66297
 30
0.0
 11
117.980993
 21
258.731932
 31
0.0
  0
LINE
  8
0
  5
47937
 10
118.300892
 20
259.329726
 30
0.0
 11
118.300892
 21
258.81199
 31
0.0
  0
LINE
  8
0
  5
47938
 10
118.100439
 20
258.674066
 30
0.0
 11
118.300892
 21
258.81199
 31
0.0
  0
LINE
  8
0
  5
47939
 10
117.980993
 20
258.731932
 30
0.0
 11
118.100439
 21
258.674066
 31
0.0
  0
LINE
  8
0
  5
4793A
 10
118.420337
 20
258.754124
 30
0.0
 11
118.119657
 21
258.547238
 31
0.0
  0
LINE
  8
0
  5
4793B
 10
118.420337
 20
258.270337
 30
0.0
 11
118.420337
 21
258.754124
 31
0.0
  0
LINE
  8
0
  5
4793C
 10
118.300892
 20
255.544309
 30
0.0
 11
118.300892
 21
255.921994
 31
0.0
  0
LINE
  8
0
  5
4793D
 10
118.420337
 20
256.487966
 30
0.0
 11
118.420337
 21
256.004179
 31
0.0
  0
LINE
  8
0
  5
4793E
 10
118.563672
 20
256.418527
 30
0.0
 11
118.563672
 21
255.417004
 31
0.0
  0
LINE
  8
0
  5
4793F
 10
118.563672
 20
256.418527
 30
0.0
 11
118.631672
 21
256.465315
 31
0.0
  0
LINE
  8
0
  5
47940
 10
118.563672
 20
256.418527
 30
0.0
 11
118.420337
 21
256.487966
 31
0.0
  0
LINE
  8
0
  5
47941
 10
118.520564
 20
256.556928
 30
0.0
 11
118.420337
 21
256.487966
 31
0.0
  0
LINE
  8
0
  5
47942
 10
118.6542
 20
259.432771
 30
0.0
 11
118.6542
 21
255.647354
 31
0.0
  0
LINE
  8
0
  5
47943
 10
118.300892
 20
255.544309
 30
0.0
 11
118.563672
 21
255.417004
 31
0.0
  0
LINE
  8
0
  5
47944
 10
118.631672
 20
255.463792
 30
0.0
 11
118.563672
 21
255.417004
 31
0.0
  0
LINE
  8
0
  5
47945
 10
118.6542
 20
255.647354
 30
0.0
 11
118.631672
 21
255.631854
 31
0.0
  0
LINE
  8
0
  5
47946
 10
118.6542
 20
255.647354
 30
0.0
 11
118.81346
 21
255.5702
 31
0.0
  0
LINE
  8
0
  5
47947
 10
118.187132
 20
255.713076
 30
0.0
 11
118.300892
 21
255.653834
 31
0.0
  0
LINE
  8
0
  5
47948
 10
118.631672
 20
255.481576
 30
0.0
 11
118.814845
 21
255.386186
 31
0.0
  0
LINE
  8
0
  5
47949
 10
117.739828
 20
260.187164
 30
0.0
 11
117.739828
 21
260.272039
 31
0.0
  0
LINE
  8
0
  5
4794A
 10
118.187132
 20
255.843721
 30
0.0
 11
118.187132
 21
255.713076
 31
0.0
  0
LINE
  8
0
  5
4794B
 10
119.413833
 20
255.68624
 30
0.0
 11
119.581865
 21
255.615121
 31
0.0
  0
LINE
  8
0
  5
4794C
 10
119.413833
 20
255.68624
 30
0.0
 11
119.413833
 21
255.813456
 31
0.0
  0
LINE
  8
0
  5
4794D
 10
118.631672
 20
255.463792
 30
0.0
 11
118.631672
 21
256.465315
 31
0.0
  0
LINE
  8
0
  5
4794E
 10
118.631672
 20
256.465315
 30
0.0
 11
118.520564
 21
256.556928
 31
0.0
  0
LINE
  8
0
  5
4794F
 10
118.420337
 20
256.004179
 30
0.0
 11
118.119657
 21
255.797294
 31
0.0
  0
LINE
  8
0
  5
47950
 10
118.119657
 20
255.797294
 30
0.0
 11
117.880766
 21
255.913026
 31
0.0
  0
LINE
  8
0
  5
47951
 10
117.880766
 20
258.66297
 30
0.0
 11
117.880766
 21
255.913026
 31
0.0
  0
LINE
  8
0
  5
47952
 10
118.119657
 20
258.547238
 30
0.0
 11
117.880766
 21
258.66297
 31
0.0
  0
LINE
  8
0
  5
47953
 10
118.119657
 20
258.547238
 30
0.0
 11
118.119657
 21
255.797294
 31
0.0
  0
LINE
  8
0
  5
47954
 10
118.106128
 20
260.002894
 30
0.0
 11
117.739828
 21
260.187164
 31
0.0
  0
LINE
  8
0
  5
47955
 10
122.305467
 20
258.993104
 30
0.0
 11
122.305467
 21
257.991581
 31
0.0
  0
LINE
  8
0
  5
47956
 10
122.237467
 20
257.944793
 30
0.0
 11
122.237467
 21
258.946316
 31
0.0
  0
LINE
  8
0
  5
47957
 10
122.237467
 20
258.946316
 30
0.0
 11
122.087531
 21
258.986682
 31
0.0
  0
LINE
  8
0
  5
47958
 10
122.305467
 20
258.993104
 30
0.0
 11
122.162133
 21
259.062543
 31
0.0
  0
LINE
  8
0
  5
47959
 10
122.305467
 20
258.993104
 30
0.0
 11
122.237467
 21
258.946316
 31
0.0
  0
LINE
  8
0
  5
4795A
 10
122.237467
 20
257.944793
 30
0.0
 11
122.087531
 21
257.985159
 31
0.0
  0
LINE
  8
0
  5
4795B
 10
122.237467
 20
257.944793
 30
0.0
 11
122.305467
 21
257.991581
 31
0.0
  0
LINE
  8
0
  5
4795C
 10
122.042687
 20
261.904303
 30
0.0
 11
121.961442
 21
261.848401
 31
0.0
  0
LINE
  8
0
  5
4795D
 10
118.455816
 20
260.626363
 30
0.0
 11
118.573852
 21
260.56918
 31
0.0
  0
LINE
  8
0
  5
4795E
 10
120.897789
 20
260.469875
 30
0.0
 11
121.024427
 21
260.600112
 31
0.0
  0
LINE
  8
0
  5
4795F
 10
120.897789
 20
260.469875
 30
0.0
 11
120.583933
 21
260.622847
 31
0.0
  0
LINE
  8
0
  5
47960
 10
121.509206
 20
258.095951
 30
0.0
 11
121.993986
 21
257.860414
 31
0.0
  0
LINE
  8
0
  5
47961
 10
121.024427
 20
258.348082
 30
0.0
 11
121.024427
 21
259.507623
 31
0.0
  0
LINE
  8
0
  5
47962
 10
121.509206
 20
260.366642
 30
0.0
 11
121.024427
 21
260.600112
 31
0.0
  0
LINE
  8
0
  5
47963
 10
121.844746
 20
261.509221
 30
0.0
 11
121.993986
 21
261.442183
 31
0.0
  0
LINE
  8
0
  5
47964
 10
121.509206
 20
259.389252
 30
0.0
 11
121.509206
 21
260.366642
 31
0.0
  0
LINE
  8
0
  5
47965
 10
121.382569
 20
260.236406
 30
0.0
 11
121.509206
 21
260.366642
 31
0.0
  0
LINE
  8
0
  5
47966
 10
121.382569
 20
260.236406
 30
0.0
 11
121.382569
 21
259.34522
 31
0.0
  0
LINE
  8
0
  5
47967
 10
120.897789
 20
259.565048
 30
0.0
 11
120.897789
 21
260.469875
 31
0.0
  0
LINE
  8
0
  5
47968
 10
121.382569
 20
260.236406
 30
0.0
 11
120.897789
 21
260.469875
 31
0.0
  0
LINE
  8
0
  5
47969
 10
121.382569
 20
259.34522
 30
0.0
 11
120.897789
 21
259.565048
 31
0.0
  0
LINE
  8
0
  5
4796A
 10
121.382569
 20
259.34522
 30
0.0
 11
121.509206
 21
259.389252
 31
0.0
  0
LINE
  8
0
  5
4796B
 10
120.897789
 20
259.565048
 30
0.0
 11
120.583933
 21
259.727114
 31
0.0
  0
LINE
  8
0
  5
4796C
 10
120.583933
 20
260.622847
 30
0.0
 11
120.639344
 21
260.679833
 31
0.0
  0
LINE
  8
0
  5
4796D
 10
120.583933
 20
260.622847
 30
0.0
 11
120.583933
 21
259.727114
 31
0.0
  0
LINE
  8
0
  5
4796E
 10
120.710571
 20
258.384208
 30
0.0
 11
120.710571
 21
259.661722
 31
0.0
  0
LINE
  8
0
  5
4796F
 10
121.024427
 20
260.944792
 30
0.0
 11
121.024427
 21
260.600112
 31
0.0
  0
LINE
  8
0
  5
47970
 10
120.731195
 20
260.743031
 30
0.0
 11
121.024427
 21
260.600112
 31
0.0
  0
LINE
  8
0
  5
47971
 10
118.106128
 20
260.120046
 30
0.0
 11
118.106128
 21
260.247358
 31
0.0
  0
LINE
  8
0
  5
47972
 10
118.573852
 20
260.56918
 30
0.0
 11
118.106128
 21
260.247358
 31
0.0
  0
LINE
  8
0
  5
47973
 10
118.573852
 20
260.441868
 30
0.0
 11
118.573852
 21
260.56918
 31
0.0
  0
LINE
  8
0
  5
47974
 10
121.509206
 20
258.112544
 30
0.0
 11
121.024427
 21
258.348082
 31
0.0
  0
LINE
  8
0
  5
47976
 10
120.447085
 20
257.823518
 30
0.0
 11
120.447085
 21
257.908406
 31
0.0
  0
LINE
  8
0
  5
47977
 10
121.973902
 20
257.574935
 30
0.0
 11
121.987304
 21
257.569026
 31
0.0
  0
LINE
  8
0
  5
47978
 10
119.678681
 20
257.29481
 30
0.0
 11
119.678681
 21
257.379698
 31
0.0
  0
LINE
  8
0
  5
47979
 10
118.242504
 20
259.88282
 30
0.0
 11
118.106128
 21
260.002894
 31
0.0
  0
LINE
  8
0
  5
4797A
 10
118.106128
 20
260.120046
 30
0.0
 11
118.106128
 21
260.002894
 31
0.0
  0
LINE
  8
0
  5
4797C
 10
121.509206
 20
258.095951
 30
0.0
 11
121.509206
 21
258.112544
 31
0.0
  0
LINE
  8
0
  5
4797E
 10
121.375591
 20
257.834292
 30
0.0
 11
121.860371
 21
257.598755
 31
0.0
  0
LINE
  8
0
  5
4797F
 10
118.907169
 20
255.728096
 30
0.0
 11
119.04062
 21
255.658599
 31
0.0
  0
LINE
  8
0
  5
47980
 10
121.375591
 20
257.834292
 30
0.0
 11
118.907005
 21
256.135759
 31
0.0
  0
LINE
  8
0
  5
47981
 10
119.835609
 20
257.297975
 30
0.0
 11
119.678681
 21
257.379698
 31
0.0
  0
LINE
  8
0
  5
47982
 10
119.678681
 20
257.379698
 30
0.0
 11
120.079587
 21
257.655545
 31
0.0
  0
LINE
  8
0
  5
47983
 10
120.079587
 20
257.655545
 30
0.0
 11
120.24118
 21
257.577033
 31
0.0
  0
LINE
  8
0
  5
47984
 10
120.604013
 20
257.826683
 30
0.0
 11
120.24118
 21
257.577033
 31
0.0
  0
LINE
  8
0
  5
47985
 10
120.447085
 20
257.908406
 30
0.0
 11
120.604013
 21
257.826683
 31
0.0
  0
LINE
  8
0
  5
47986
 10
120.991023
 20
258.282667
 30
0.0
 11
120.447085
 21
257.908406
 31
0.0
  0
LINE
  8
0
  5
47987
 10
121.475803
 20
258.04713
 30
0.0
 11
120.991023
 21
258.282667
 31
0.0
  0
LINE
  8
0
  5
47988
 10
118.907005
 20
256.279645
 30
0.0
 11
121.475803
 21
258.04713
 31
0.0
  0
LINE
  8
0
  5
47989
 10
119.311183
 20
257.126838
 30
0.0
 11
118.910276
 21
256.85099
 31
0.0
  0
LINE
  8
0
  5
4798A
 10
119.472776
 20
257.048325
 30
0.0
 11
119.311183
 21
257.126838
 31
0.0
  0
LINE
  8
0
  5
4798B
 10
119.835609
 20
257.297975
 30
0.0
 11
119.472776
 21
257.048325
 31
0.0
  0
LINE
  8
0
  5
4798C
 10
117.739828
 20
260.272039
 30
0.0
 11
118.207553
 21
260.593861
 31
0.0
  0
LINE
  8
0
  5
4798D
 10
118.207553
 20
260.593861
 30
0.0
 11
118.455816
 21
260.626363
 31
0.0
  0
LINE
  8
0
  5
4798E
 10
117.988091
 20
260.304541
 30
0.0
 11
118.455816
 21
260.626363
 31
0.0
  0
LINE
  8
0
  5
4798F
 10
117.988091
 20
260.304541
 30
0.0
 11
117.739828
 21
260.272039
 31
0.0
  0
LINE
  8
0
  5
47990
 10
122.305467
 20
258.677379
 30
0.0
 11
122.462813
 21
258.785642
 31
0.0
  0
LINE
  8
0
  5
47991
 10
122.087531
 20
259.011212
 30
0.0
 11
122.162133
 21
259.062543
 31
0.0
  0
LINE
  8
0
  5
47992
 10
122.042687
 20
261.904303
 30
0.0
 11
122.305467
 21
261.776998
 31
0.0
  0
LINE
  8
0
  5
47993
 10
122.305467
 20
260.775475
 30
0.0
 11
122.237467
 21
260.728687
 31
0.0
  0
LINE
  8
0
  5
47994
 10
122.237467
 20
261.73021
 30
0.0
 11
122.305467
 21
261.776998
 31
0.0
  0
LINE
  8
0
  5
47995
 10
122.305467
 20
260.775475
 30
0.0
 11
122.305467
 21
261.776998
 31
0.0
  0
LINE
  8
0
  5
47996
 10
122.237467
 20
261.73021
 30
0.0
 11
122.086147
 21
261.770949
 31
0.0
  0
LINE
  8
0
  5
47997
 10
122.237467
 20
261.73021
 30
0.0
 11
122.237467
 21
260.728687
 31
0.0
  0
LINE
  8
0
  5
47998
 10
122.237467
 20
260.728687
 30
0.0
 11
122.087531
 21
260.769053
 31
0.0
  0
LINE
  8
0
  5
47999
 10
122.305467
 20
261.427323
 30
0.0
 11
122.462813
 21
261.535586
 31
0.0
  0
LINE
  8
0
  5
4799A
 10
122.462813
 20
261.535586
 30
0.0
 11
122.462813
 21
258.785642
 31
0.0
  0
LINE
  8
0
  5
4799B
 10
122.462813
 20
261.535586
 30
0.0
 11
122.305467
 21
261.611813
 31
0.0
  0
LINE
  8
0
  5
4799C
 10
122.086147
 20
261.609042
 30
0.0
 11
122.087531
 21
261.608371
 31
0.0
  0
LINE
  8
0
  5
4799D
 10
121.439774
 20
262.082731
 30
0.0
 11
122.086147
 21
261.792385
 31
0.0
  0
LINE
  8
0
  5
4799E
 10
121.558277
 20
261.898397
 30
0.0
 11
121.987304
 21
261.724376
 31
0.0
  0
LINE
  8
0
  5
4799F
 10
120.951629
 20
261.31059
 30
0.0
 11
120.792368
 21
261.387744
 31
0.0
  0
LINE
  8
0
  5
479A0
 10
121.168637
 20
261.646639
 30
0.0
 11
121.319127
 21
261.56345
 31
0.0
  0
LINE
  8
0
  5
479A1
 10
121.168637
 20
261.646639
 30
0.0
 11
120.792368
 21
261.387744
 31
0.0
  0
LINE
  8
0
  5
479A2
 10
120.792368
 20
261.085961
 30
0.0
 11
120.792368
 21
261.387744
 31
0.0
  0
LINE
  8
0
  5
479A3
 10
120.979292
 20
262.096953
 30
0.0
 11
121.315178
 21
262.005575
 31
0.0
  0
LINE
  8
0
  5
479A4
 10
121.315178
 20
262.005575
 30
0.0
 11
121.558277
 21
261.898397
 31
0.0
  0
LINE
  8
0
  5
479A5
 10
121.558277
 20
261.898397
 30
0.0
 11
121.987304
 21
261.709245
 31
0.0
  0
LINE
  8
0
  5
479A6
 10
120.921927
 20
261.476888
 30
0.0
 11
120.717168
 21
261.594109
 31
0.0
  0
LINE
  8
0
  5
479A7
 10
120.792368
 20
256.74684
 30
0.0
 11
120.792368
 21
256.634754
 31
0.0
  0
LINE
  8
0
  5
479A8
 10
120.951629
 20
256.5576
 30
0.0
 11
120.792368
 21
256.634754
 31
0.0
  0
LINE
  8
0
  5
479A9
 10
118.300892
 20
259.329726
 30
0.0
 11
118.540221
 21
259.494398
 31
0.0
  0
LINE
  8
0
  5
479AA
 10
118.814845
 20
259.356569
 30
0.0
 11
118.540221
 21
259.494398
 31
0.0
  0
LINE
  8
0
  5
479AB
 10
118.6542
 20
259.432771
 30
0.0
 11
118.81346
 21
259.355617
 31
0.0
  0
LINE
  8
0
  5
479AC
 10
118.6542
 20
259.432771
 30
0.0
 11
118.520564
 21
259.340822
 31
0.0
  0
LINE
  8
0
  5
479AD
 10
118.631672
 20
259.249209
 30
0.0
 11
118.520564
 21
259.340822
 31
0.0
  0
LINE
  8
0
  5
479AE
 10
118.631672
 20
259.249209
 30
0.0
 11
118.563672
 21
259.202421
 31
0.0
  0
LINE
  8
0
  5
479AF
 10
118.300892
 20
259.329726
 30
0.0
 11
118.563672
 21
259.202421
 31
0.0
  0
LINE
  8
0
  5
479B0
 10
119.009234
 20
260.410376
 30
0.0
 11
118.957516
 21
260.45591
 31
0.0
  0
LINE
  8
0
  5
479B1
 10
118.957516
 20
260.558563
 30
0.0
 11
118.957516
 21
260.45591
 31
0.0
  0
LINE
  8
0
  5
479B2
 10
121.439774
 20
262.082731
 30
0.0
 11
121.322772
 21
262.002227
 31
0.0
  0
LINE
  8
0
  5
479B3
 10
118.187132
 20
259.668657
 30
0.0
 11
118.187132
 21
259.844721
 31
0.0
  0
LINE
  8
0
  5
479B4
 10
118.957516
 20
260.558563
 30
0.0
 11
119.078458
 21
260.458006
 31
0.0
  0
LINE
  8
0
  5
479B5
 10
118.957516
 20
260.558563
 30
0.0
 11
120.350868
 21
261.517272
 31
0.0
  0
LINE
  8
0
  5
479B6
 10
120.350868
 20
261.517272
 30
0.0
 11
120.548449
 21
261.469447
 31
0.0
  0
LINE
  8
0
  5
479B7
 10
120.717168
 20
261.585535
 30
0.0
 11
120.548449
 21
261.469447
 31
0.0
  0
LINE
  8
0
  5
479B8
 10
120.717168
 20
261.585535
 30
0.0
 11
120.921509
 21
261.476601
 31
0.0
  0
LINE
  8
0
  5
479B9
 10
120.951629
 20
261.011769
 30
0.0
 11
120.792368
 21
261.085961
 31
0.0
  0
LINE
  8
0
  5
479BA
 10
119.152837
 20
260.243311
 30
0.0
 11
119.413833
 21
260.137447
 31
0.0
  0
LINE
  8
0
  5
479BB
 10
118.917332
 20
260.347142
 30
0.0
 11
119.078458
 21
260.458006
 31
0.0
  0
LINE
  8
0
  5
479BC
 10
119.413833
 20
260.43923
 30
0.0
 11
119.413833
 21
260.137447
 31
0.0
  0
LINE
  8
0
  5
479BD
 10
119.949362
 20
260.620971
 30
0.0
 11
119.790102
 21
260.698126
 31
0.0
  0
LINE
  8
0
  5
479BE
 10
119.413833
 20
260.43923
 30
0.0
 11
119.581865
 21
260.368111
 31
0.0
  0
LINE
  8
0
  5
479BF
 10
119.413833
 20
260.43923
 30
0.0
 11
119.790102
 21
260.698126
 31
0.0
  0
LINE
  8
0
  5
479C1
 10
121.993986
 20
261.442183
 30
0.0
 11
121.993986
 21
257.860414
 31
0.0
  0
LINE
  8
0
  5
479C3
 10
119.04062
 20
259.579816
 30
0.0
 11
121.860371
 21
261.519972
 31
0.0
  0
LINE
  8
0
  5
479C5
 10
118.907005
 20
259.318157
 30
0.0
 11
118.907005
 21
255.736388
 31
0.0
  0
LINE
  8
0
  5
479C7
 10
119.04062
 20
255.658599
 30
0.0
 11
121.860371
 21
257.598755
 31
0.0
  0
LINE
  8
0
  5
479C8
 10
119.949362
 20
256.166801
 30
0.0
 11
119.949362
 21
255.867981
 31
0.0
  0
LINE
  8
0
  5
479C9
 10
119.581865
 20
255.615121
 30
0.0
 11
119.949362
 21
255.867981
 31
0.0
  0
LINE
  8
0
  5
479CA
 10
119.581865
 20
255.929072
 30
0.0
 11
119.581865
 21
255.615121
 31
0.0
  0
LINE
  8
0
  5
479CB
 10
119.581865
 20
255.929072
 30
0.0
 11
118.913687
 21
255.469326
 31
0.0
  0
LINE
  8
0
  5
479CC
 10
118.913687
 20
255.469326
 30
0.0
 11
118.913687
 21
255.454195
 31
0.0
  0
LINE
  8
0
  5
479CD
 10
118.814845
 20
255.386186
 30
0.0
 11
118.913687
 21
255.454195
 31
0.0
  0
LINE
  8
0
  5
479CE
 10
118.814845
 20
255.386186
 30
0.0
 11
118.814845
 21
255.571152
 31
0.0
  0
LINE
  8
0
  5
479CF
 10
118.81346
 20
255.5702
 30
0.0
 11
118.814845
 21
255.571152
 31
0.0
  0
LINE
  8
0
  5
479D0
 10
118.81346
 20
255.5702
 30
0.0
 11
118.81346
 21
259.355617
 31
0.0
  0
LINE
  8
0
  5
479D1
 10
118.81346
 20
259.355617
 30
0.0
 11
118.814845
 21
259.356569
 31
0.0
  0
LINE
  8
0
  5
479D2
 10
118.814845
 20
259.541535
 30
0.0
 11
118.814845
 21
259.356569
 31
0.0
  0
LINE
  8
0
  5
479D3
 10
119.581865
 20
260.05416
 30
0.0
 11
119.581865
 21
260.368111
 31
0.0
  0
LINE
  8
0
  5
479D4
 10
119.581865
 20
260.368111
 30
0.0
 11
119.949362
 21
260.620971
 31
0.0
  0
LINE
  8
0
  5
479D5
 10
119.949362
 20
260.322151
 30
0.0
 11
119.949362
 21
260.620971
 31
0.0
  0
LINE
  8
0
  5
479D6
 10
119.949362
 20
260.322151
 30
0.0
 11
120.951629
 21
261.011769
 31
0.0
  0
LINE
  8
0
  5
479D7
 10
120.951629
 20
261.011769
 30
0.0
 11
120.951629
 21
261.31059
 31
0.0
  0
LINE
  8
0
  5
479D8
 10
121.319127
 20
261.56345
 30
0.0
 11
120.951629
 21
261.31059
 31
0.0
  0
LINE
  8
0
  5
479D9
 10
121.319127
 20
261.249499
 30
0.0
 11
121.319127
 21
261.56345
 31
0.0
  0
LINE
  8
0
  5
479DA
 10
121.319127
 20
261.249499
 30
0.0
 11
121.987304
 21
261.709245
 31
0.0
  0
LINE
  8
0
  5
479DB
 10
121.987304
 20
261.709245
 30
0.0
 11
121.987304
 21
261.724376
 31
0.0
  0
LINE
  8
0
  5
479DC
 10
122.086147
 20
261.792385
 30
0.0
 11
121.987304
 21
261.724376
 31
0.0
  0
LINE
  8
0
  5
479DD
 10
122.086147
 20
261.792385
 30
0.0
 11
122.086147
 21
261.607419
 31
0.0
  0
LINE
  8
0
  5
479DE
 10
122.087531
 20
261.608371
 30
0.0
 11
122.086147
 21
261.607419
 31
0.0
  0
LINE
  8
0
  5
479DF
 10
122.087531
 20
257.822954
 30
0.0
 11
122.087531
 21
261.608371
 31
0.0
  0
LINE
  8
0
  5
479E0
 10
122.087531
 20
257.822954
 30
0.0
 11
122.086147
 21
257.822002
 31
0.0
  0
LINE
  8
0
  5
479E1
 10
122.086147
 20
257.637036
 30
0.0
 11
122.086147
 21
257.822002
 31
0.0
  0
LINE
  8
0
  5
479E2
 10
122.086147
 20
257.637036
 30
0.0
 11
121.987304
 21
257.569026
 31
0.0
  0
LINE
  8
0
  5
479E3
 10
121.987304
 20
257.584157
 30
0.0
 11
121.987304
 21
257.569026
 31
0.0
  0
LINE
  8
0
  5
479E4
 10
121.319127
 20
257.124411
 30
0.0
 11
121.987304
 21
257.584157
 31
0.0
  0
LINE
  8
0
  5
479E5
 10
121.319127
 20
257.124411
 30
0.0
 11
121.319127
 21
256.81046
 31
0.0
  0
LINE
  8
0
  5
479E6
 10
121.319127
 20
256.81046
 30
0.0
 11
120.951629
 21
256.5576
 31
0.0
  0
LINE
  8
0
  5
479E7
 10
120.951629
 20
256.85642
 30
0.0
 11
120.951629
 21
256.5576
 31
0.0
  0
LINE
  8
0
  5
479E8
 10
119.949362
 20
256.166801
 30
0.0
 11
120.951629
 21
256.85642
 31
0.0
  0
LINE
  8
0
  5
479E9
 10
119.581865
 20
260.05416
 30
0.0
 11
119.152837
 21
260.243311
 31
0.0
  0
LINE
  8
0
  5
479EA
 10
119.581865
 20
260.05416
 30
0.0
 11
118.913687
 21
259.594414
 31
0.0
  0
LINE
  8
0
  5
479EB
 10
118.106128
 20
260.120046
 30
0.0
 11
118.311728
 21
259.939024
 31
0.0
  0
LINE
  8
0
  5
479EC
 10
118.106128
 20
260.120046
 30
0.0
 11
118.573852
 21
260.441868
 31
0.0
  0
LINE
  8
0
  5
479ED
 10
118.909738
 20
260.35049
 30
0.0
 11
118.573852
 21
260.441868
 31
0.0
  0
LINE
  8
0
  5
479EE
 10
119.152837
 20
260.243311
 30
0.0
 11
118.909738
 21
260.35049
 31
0.0
  0
LINE
  8
0
  5
479EF
 10
120.979292
 20
262.096953
 30
0.0
 11
120.511568
 21
261.775131
 31
0.0
  0
LINE
  8
0
  5
479F0
 10
120.511568
 20
261.775131
 30
0.0
 11
120.511568
 21
261.902443
 31
0.0
  0
LINE
  8
0
  5
479F1
 10
120.145268
 20
261.927124
 30
0.0
 11
120.145268
 21
261.842249
 31
0.0
  0
LINE
  8
0
  5
479F2
 10
120.511568
 20
261.902443
 30
0.0
 11
120.979292
 21
262.224265
 31
0.0
  0
LINE
  8
0
  5
479F3
 10
120.393531
 20
261.959626
 30
0.0
 11
120.511568
 21
261.902443
 31
0.0
  0
LINE
  8
0
  5
479F4
 10
120.861255
 20
262.281449
 30
0.0
 11
120.393531
 21
261.959626
 31
0.0
  0
LINE
  8
0
  5
479F5
 10
120.145268
 20
261.927124
 30
0.0
 11
120.393531
 21
261.959626
 31
0.0
  0
LINE
  8
0
  5
479F6
 10
120.612993
 20
262.248946
 30
0.0
 11
120.145268
 21
261.927124
 31
0.0
  0
LINE
  8
0
  5
479F7
 10
120.979292
 20
262.096953
 30
0.0
 11
120.979292
 21
262.224265
 31
0.0
  0
LINE
  8
0
  5
479F8
 10
120.979292
 20
262.224265
 30
0.0
 11
120.861255
 21
262.281449
 31
0.0
  0
LINE
  8
0
  5
479F9
 10
120.861255
 20
262.281449
 30
0.0
 11
120.612993
 21
262.248946
 31
0.0
  0
LINE
  8
0
  5
479FA
 10
120.145268
 20
261.842249
 30
0.0
 11
120.511568
 21
261.657979
 31
0.0
  0
LINE
  8
0
  5
479FB
 10
120.511568
 20
261.657979
 30
0.0
 11
120.647944
 21
261.537905
 31
0.0
  0
LINE
  8
0
  5
479FC
 10
120.511568
 20
261.775131
 30
0.0
 11
120.511568
 21
261.657979
 31
0.0
  0
LINE
  8
0
  5
479FD
 10
120.717168
 20
261.594109
 30
0.0
 11
120.511568
 21
261.775131
 31
0.0
  0
LINE
  8
0
  5
479FE
 10
120.717168
 20
261.594109
 30
0.0
 11
120.717168
 21
261.585535
 31
0.0
  0
LINE
  8
0
  5
479FF
 10
118.910276
 20
260.44888
 30
0.0
 11
118.994716
 21
260.408095
 31
0.0
  0
LINE
  8
0
  5
47A00
 10
120.447085
 20
261.506295
 30
0.0
 11
120.498187
 21
261.481613
 31
0.0
  0
LINE
  8
0
  5
47A01
 10
120.447085
 20
261.591183
 30
0.0
 11
120.447085
 21
261.506295
 31
0.0
  0
LINE
  8
0
  5
47A02
 10
118.910276
 20
256.85099
 30
0.0
 11
118.910276
 21
256.766102
 31
0.0
  0
LINE
  8
0
  5
47A03
 10
118.910276
 20
256.85099
 30
0.0
 11
119.067204
 21
256.769268
 31
0.0
  0
LINE
  8
0
  5
47A04
 10
118.907005
 20
256.659041
 30
0.0
 11
119.067204
 21
256.769268
 31
0.0
  0
LINE
  8
0
  5
47A05
 10
117.55942
 20
256.21603
 30
0.0
 11
117.880766
 21
256.048685
 31
0.0
  0
LINE
  8
0
  5
47A06
 10
120.954203
 20
258.257333
 30
0.0
 11
120.710571
 21
258.384208
 31
0.0
  0
LINE
  8
0
  5
47A07
 10
120.447085
 20
257.823518
 30
0.0
 11
120.53379
 21
257.778365
 31
0.0
  0
LINE
  8
0
  5
47A08
 10
119.765385
 20
257.249658
 30
0.0
 11
119.678681
 21
257.29481
 31
0.0
  0
LINE
  8
0
  5
47A09
 10
118.910276
 20
256.766102
 30
0.0
 11
118.996981
 21
256.72095
 31
0.0
  0
LINE
  8
0
  5
47A0A
 10
118.913687
 20
259.594414
 30
0.0
 11
118.913687
 21
259.609545
 31
0.0
  0
LINE
  8
0
  5
47A0B
 10
118.311728
 20
259.93045
 30
0.0
 11
118.311728
 21
259.939024
 31
0.0
  0
LINE
  8
0
  5
47A0C
 10
118.311728
 20
259.939024
 30
0.0
 11
118.529449
 21
259.814383
 31
0.0
  0
LINE
  8
0
  5
47A0D
 10
118.529449
 20
259.814383
 30
0.0
 11
118.913687
 21
259.609545
 31
0.0
  0
LINE
  8
0
  5
47A0E
 10
118.814845
 20
259.541535
 30
0.0
 11
118.913687
 21
259.609545
 31
0.0
  0
LINE
  8
0
  5
47A0F
 10
118.187132
 20
259.844721
 30
0.0
 11
118.814845
 21
259.541535
 31
0.0
  0
LINE
  8
0
  5
47A10
 10
118.187132
 20
259.844721
 30
0.0
 11
118.311728
 21
259.93045
 31
0.0
  0
LINE
  8
0
  5
47A11
 10
118.311728
 20
259.93045
 30
0.0
 11
118.529449
 21
259.814383
 31
0.0
  0
LINE
  8
0
  5
47A12
 10
117.965437
 20
259.883662
 30
0.0
 11
117.64225
 21
260.028835
 31
0.0
  0
LINE
  8
0
  5
47A13
 10
117.965437
 20
259.883662
 30
0.0
 11
118.120427
 21
259.990304
 31
0.0
  0
LINE
  8
0
  5
47A14
 10
119.004319
 20
260.414702
 30
0.0
 11
118.910505
 21
260.350152
 31
0.0
  0
LINE
  8
0
  5
47A15
 10
118.910276
 20
260.533767
 30
0.0
 11
118.957516
 21
260.51095
 31
0.0
  0
LINE
  8
0
  5
47A16
 10
118.910276
 20
260.533767
 30
0.0
 11
119.311183
 21
260.809615
 31
0.0
  0
LINE
  8
0
  5
47A17
 10
119.317961
 20
260.80657
 30
0.0
 11
119.311183
 21
260.809615
 31
0.0
  0
LINE
  8
0
  5
47A18
 10
119.685263
 20
261.059296
 30
0.0
 11
119.678681
 21
261.062475
 31
0.0
  0
LINE
  8
0
  5
47A19
 10
120.079587
 20
261.338323
 30
0.0
 11
119.678681
 21
261.062475
 31
0.0
  0
LINE
  8
0
  5
47A1A
 10
120.079587
 20
261.338323
 30
0.0
 11
120.086365
 21
261.335278
 31
0.0
  0
LINE
  8
0
  5
47A1B
 10
120.540161
 20
261.471453
 30
0.0
 11
120.604013
 21
261.515386
 31
0.0
  0
LINE
  8
0
  5
47A1C
 10
120.447085
 20
261.591183
 30
0.0
 11
120.604013
 21
261.515386
 31
0.0
  0
LINE
  8
0
  5
47A1D
 10
120.525866
 20
261.645389
 30
0.0
 11
120.447085
 21
261.591183
 31
0.0
  0
LINE
  8
0
  5
47A1E
 10
120.979292
 20
262.113512
 30
0.0
 11
121.07277
 21
262.071522
 31
0.0
  0
LINE
  8
0
  5
47A1F
 10
117.55942
 20
259.971843
 30
0.0
 11
118.187132
 21
259.668657
 31
0.0
  0
LINE
  8
0
  5
47A20
 10
117.684659
 20
257.814339
 30
0.0
 11
117.55942
 21
257.685541
 31
0.0
  0
LINE
  8
0
  5
47A21
 10
117.55942
 20
256.21603
 30
0.0
 11
117.55942
 21
257.685541
 31
0.0
  0
LINE
  8
0
  5
47A22
 10
117.64225
 20
260.028835
 30
0.0
 11
117.55942
 21
259.971843
 31
0.0
  0
LINE
  8
0
  5
47A23
 10
117.55942
 20
259.971843
 30
0.0
 11
117.55942
 21
258.502332
 31
0.0
  0
LINE
  8
0
  5
47A24
 10
117.684659
 20
258.437663
 30
0.0
 11
117.684659
 21
257.814339
 31
0.0
  0
LINE
  8
0
  5
47A25
 10
123.733039
 20
258.831158
 30
0.0
 11
123.885745
 21
258.755758
 31
0.0
  0
LINE
  8
0
  5
47A26
 10
123.713627
 20
253.05511
 30
0.0
 11
123.657886
 21
253.082114
 31
0.0
  0
LINE
  8
0
  5
47A27
 10
124.445522
 20
259.686746
 30
0.0
 11
124.445522
 21
259.792788
 31
0.0
  0
LINE
  8
0
  5
47A28
 10
124.54079
 20
254.625429
 30
0.0
 11
124.710335
 21
254.647626
 31
0.0
  0
LINE
  8
0
  5
47A29
 10
124.15089
 20
259.832223
 30
0.0
 11
124.358731
 21
259.834834
 31
0.0
  0
LINE
  8
0
  5
47A2A
 10
124.54079
 20
254.358401
 30
0.0
 11
124.54079
 21
257.940119
 31
0.0
  0
LINE
  8
0
  5
47A2C
 10
123.912703
 20
253.75649
 30
0.0
 11
123.912703
 21
257.677707
 31
0.0
  0
LINE
  8
0
  5
47A2D
 10
123.844163
 20
259.379016
 30
0.0
 11
123.844163
 21
259.272975
 31
0.0
  0
LINE
  8
0
  5
47A2E
 10
123.54953
 20
259.418452
 30
0.0
 11
123.757371
 21
259.421063
 31
0.0
  0
LINE
  8
0
  5
47A2F
 10
124.790516
 20
254.702796
 30
0.0
 11
124.710335
 21
254.647626
 31
0.0
  0
LINE
  8
0
  5
47A30
 10
124.710335
 20
254.647626
 30
0.0
 11
124.747767
 21
254.62984
 31
0.0
  0
LINE
  8
0
  5
47A31
 10
124.54079
 20
254.670101
 30
0.0
 11
124.790516
 21
254.702796
 31
0.0
  0
LINE
  8
0
  5
47A32
 10
124.790516
 20
254.702796
 30
0.0
 11
124.827948
 21
254.68501
 31
0.0
  0
LINE
  8
0
  5
47A33
 10
123.733039
 20
258.933012
 30
0.0
 11
123.733039
 21
258.831158
 31
0.0
  0
LINE
  8
0
  5
47A34
 10
123.733039
 20
258.831158
 30
0.0
 11
123.253439
 21
259.11287
 31
0.0
  0
LINE
  8
0
  5
47A35
 10
123.657886
 20
253.556193
 30
0.0
 11
123.253439
 21
253.785641
 31
0.0
  0
LINE
  8
0
  5
47A36
 10
124.616423
 20
254.539468
 30
0.0
 11
124.54079
 21
254.575405
 31
0.0
  0
LINE
  8
0
  5
47A37
 10
124.358731
 20
259.834834
 30
0.0
 11
123.757371
 21
259.421063
 31
0.0
  0
LINE
  8
0
  5
47A38
 10
124.445522
 20
259.792788
 30
0.0
 11
124.358731
 21
259.834834
 31
0.0
  0
LINE
  8
0
  5
47A39
 10
124.445522
 20
259.792788
 30
0.0
 11
123.844163
 21
259.379016
 31
0.0
  0
LINE
  8
0
  5
47A3A
 10
123.757371
 20
259.421063
 30
0.0
 11
123.844163
 21
259.379016
 31
0.0
  0
LINE
  8
0
  5
47A3C
 10
123.713627
 20
258.571974
 30
0.0
 11
123.657886
 21
258.598978
 31
0.0
  0
LINE
  8
0
  5
47A3D
 10
125.71816
 20
259.951211
 30
0.0
 11
125.662419
 21
259.978215
 31
0.0
  0
LINE
  8
0
  5
47A3E
 10
127.062294
 20
256.222372
 30
0.0
 11
126.892512
 21
256.289538
 31
0.0
  0
LINE
  8
0
  5
47A3F
 10
125.8596
 20
255.438389
 30
0.0
 11
125.897032
 21
255.420603
 31
0.0
  0
LINE
  8
0
  5
47A40
 10
123.253439
 20
253.785641
 30
0.0
 11
123.657886
 21
254.063924
 31
0.0
  0
LINE
  8
0
  5
47A41
 10
123.253439
 20
253.785641
 30
0.0
 11
123.253439
 21
253.683787
 31
0.0
  0
LINE
  8
0
  5
47A42
 10
126.892512
 20
256.289538
 30
0.0
 11
125.687699
 21
255.460556
 31
0.0
  0
LINE
  8
0
  5
47A43
 10
123.657886
 20
253.45434
 30
0.0
 11
123.253439
 21
253.683787
 31
0.0
  0
LINE
  8
0
  5
47A44
 10
126.074248
 20
254.696001
 30
0.0
 11
126.052249
 21
254.664221
 31
0.0
  0
LINE
  8
0
  5
47A45
 10
126.074248
 20
254.696001
 30
0.0
 11
125.74016
 21
254.466128
 31
0.0
  0
LINE
  8
0
  5
47A46
 10
125.74016
 20
254.466128
 30
0.0
 11
125.71816
 21
254.434348
 31
0.0
  0
LINE
  8
0
  5
47A47
 10
123.713627
 20
253.05511
 30
0.0
 11
125.71816
 21
254.434348
 31
0.0
  0
LINE
  8
0
  5
47A49
 10
123.912703
 20
253.75649
 30
0.0
 11
124.674426
 21
254.280601
 31
0.0
  0
LINE
  8
0
  5
47A4A
 10
125.607518
 20
255.405386
 30
0.0
 11
125.8596
 21
255.438389
 31
0.0
  0
LINE
  8
0
  5
47A4B
 10
125.607518
 20
255.405386
 30
0.0
 11
125.687699
 21
255.460556
 31
0.0
  0
LINE
  8
0
  5
47A4C
 10
125.8596
 20
255.438389
 30
0.0
 11
125.939782
 21
255.493558
 31
0.0
  0
LINE
  8
0
  5
47A4D
 10
125.939782
 20
255.493558
 30
0.0
 11
125.977214
 21
255.475772
 31
0.0
  0
LINE
  8
0
  5
47A4E
 10
125.687699
 20
255.460556
 30
0.0
 11
125.939782
 21
255.493558
 31
0.0
  0
LINE
  8
0
  5
47A4F
 10
124.54079
 20
254.671414
 30
0.0
 11
125.607518
 21
255.405386
 31
0.0
  0
LINE
  8
0
  5
47A50
 10
125.765689
 20
255.330231
 30
0.0
 11
125.607518
 21
255.405386
 31
0.0
  0
LINE
  8
0
  5
47A51
 10
124.674426
 20
254.280601
 30
0.0
 11
127.494136
 21
256.220728
 31
0.0
  0
LINE
  8
0
  5
47A52
 10
124.674426
 20
254.280601
 30
0.0
 11
124.541217
 21
254.345134
 31
0.0
  0
LINE
  8
0
  5
47A53
 10
127.494136
 20
256.220728
 30
0.0
 11
127.239319
 21
256.344175
 31
0.0
  0
LINE
  8
0
  5
47A54
 10
127.372954
 20
256.6224
 30
0.0
 11
127.321883
 21
256.651904
 31
0.0
  0
LINE
  8
0
  5
47A55
 10
127.321883
 20
256.651904
 30
0.0
 11
127.321883
 21
260.023425
 31
0.0
  0
LINE
  8
0
  5
47A56
 10
123.912703
 20
257.677707
 30
0.0
 11
124.674426
 21
258.201817
 31
0.0
  0
LINE
  8
0
  5
47A58
 10
123.713627
 20
258.571974
 30
0.0
 11
125.71816
 21
259.951211
 31
0.0
  0
LINE
  8
0
  5
47A59
 10
125.74016
 20
259.898116
 30
0.0
 11
125.71816
 21
259.951211
 31
0.0
  0
LINE
  8
0
  5
47A5C
 10
127.627771
 20
256.482427
 30
0.0
 11
127.372954
 21
256.605874
 31
0.0
  0
LINE
  8
0
  5
47A5D
 10
125.662419
 20
259.978215
 30
0.0
 11
125.566442
 21
260.025604
 31
0.0
  0
LINE
  8
0
  5
47A5E
 10
125.662419
 20
259.978215
 30
0.0
 11
123.97193
 21
258.815058
 31
0.0
  0
LINE
  8
0
  5
47A5F
 10
123.733039
 20
258.933012
 30
0.0
 11
123.97193
 21
258.815058
 31
0.0
  0
LINE
  8
0
  5
47A60
 10
123.733039
 20
258.933012
 30
0.0
 11
123.253439
 21
259.214723
 31
0.0
  0
LINE
  8
0
  5
47A61
 10
123.844163
 20
259.272975
 30
0.0
 11
123.54953
 21
259.418452
 31
0.0
  0
LINE
  8
0
  5
47A62
 10
123.844163
 20
259.272975
 30
0.0
 11
124.445522
 21
259.686746
 31
0.0
  0
LINE
  8
0
  5
47A63
 10
124.15089
 20
259.832223
 30
0.0
 11
123.54953
 21
259.418452
 31
0.0
  0
LINE
  8
0
  5
47A64
 10
123.253439
 20
259.214723
 30
0.0
 11
123.54953
 21
259.418452
 31
0.0
  0
LINE
  8
0
  5
47A65
 10
123.253439
 20
259.11287
 30
0.0
 11
123.253439
 21
259.214723
 31
0.0
  0
LINE
  8
0
  5
47A66
 10
126.892512
 20
261.718621
 30
0.0
 11
126.596421
 21
261.514893
 31
0.0
  0
LINE
  8
0
  5
47A67
 10
124.15089
 20
259.832223
 30
0.0
 11
125.995061
 21
261.101122
 31
0.0
  0
LINE
  8
0
  5
47A68
 10
126.074248
 20
260.127989
 30
0.0
 11
125.74016
 21
259.898116
 31
0.0
  0
LINE
  8
0
  5
47A69
 10
126.891053
 20
261.369416
 30
0.0
 11
126.289693
 21
260.955645
 31
0.0
  0
LINE
  8
0
  5
47A6A
 10
128.056782
 20
256.043458
 30
0.0
 11
126.052249
 21
254.664221
 31
0.0
  0
LINE
  8
0
  5
47A6B
 10
126.052249
 20
254.664221
 30
0.0
 11
126.038055
 21
254.671097
 31
0.0
  0
LINE
  8
0
  5
47A6C
 10
125.900531
 20
260.255477
 30
0.0
 11
125.566442
 21
260.025604
 31
0.0
  0
LINE
  8
0
  5
47A6D
 10
126.052249
 20
260.138647
 30
0.0
 11
125.731958
 21
259.918267
 31
0.0
  0
LINE
  8
0
  5
47A6E
 10
127.448107
 20
261.489199
 30
0.0
 11
126.892512
 21
261.718621
 31
0.0
  0
LINE
  8
0
  5
47A6F
 10
126.891053
 20
261.475458
 30
0.0
 11
126.891053
 21
261.369416
 31
0.0
  0
LINE
  8
0
  5
47A70
 10
126.804261
 20
261.517504
 30
0.0
 11
126.891053
 21
261.475458
 31
0.0
  0
LINE
  8
0
  5
47A71
 10
126.289693
 20
261.061686
 30
0.0
 11
126.891053
 21
261.475458
 31
0.0
  0
LINE
  8
0
  5
47A72
 10
126.289693
 20
260.955645
 30
0.0
 11
126.289693
 21
261.061686
 31
0.0
  0
LINE
  8
0
  5
47A73
 10
125.995061
 20
261.101122
 30
0.0
 11
126.289693
 21
260.955645
 31
0.0
  0
LINE
  8
0
  5
47A74
 10
126.289693
 20
261.061686
 30
0.0
 11
126.202901
 21
261.103733
 31
0.0
  0
LINE
  8
0
  5
47A75
 10
126.596421
 20
261.514893
 30
0.0
 11
126.804261
 21
261.517504
 31
0.0
  0
LINE
  8
0
  5
47A76
 10
126.202901
 20
261.103733
 30
0.0
 11
126.804261
 21
261.517504
 31
0.0
  0
LINE
  8
0
  5
47A77
 10
125.995061
 20
261.101122
 30
0.0
 11
126.202901
 21
261.103733
 31
0.0
  0
LINE
  8
0
  5
47A78
 10
125.995061
 20
261.101122
 30
0.0
 11
126.596421
 21
261.514893
 31
0.0
  0
LINE
  8
0
  5
47A79
 10
127.448107
 20
261.489199
 30
0.0
 11
127.686998
 21
261.371245
 31
0.0
  0
LINE
  8
0
  5
47A7A
 10
125.900531
 20
260.255477
 30
0.0
 11
126.052249
 21
260.138647
 31
0.0
  0
LINE
  8
0
  5
47A7B
 10
125.996508
 20
260.208088
 30
0.0
 11
125.900531
 21
260.255477
 31
0.0
  0
LINE
  8
0
  5
47A7C
 10
126.074248
 20
260.127989
 30
0.0
 11
126.052249
 21
260.181084
 31
0.0
  0
LINE
  8
0
  5
47A7D
 10
126.052249
 20
260.138647
 30
0.0
 11
126.074248
 21
260.127989
 31
0.0
  0
LINE
  8
0
  5
47A7E
 10
128.255858
 20
256.744839
 30
0.0
 11
128.255858
 21
260.666055
 31
0.0
  0
LINE
  8
0
  5
47A7F
 10
128.255858
 20
256.744839
 30
0.0
 11
127.494136
 21
256.220728
 31
0.0
  0
LINE
  8
0
  5
47A81
 10
127.627771
 20
256.482427
 30
0.0
 11
127.627771
 21
260.064144
 31
0.0
  0
LINE
  8
0
  5
47A82
 10
128.255858
 20
260.666055
 30
0.0
 11
127.494136
 21
260.141945
 31
0.0
  0
LINE
  8
0
  5
47A83
 10
124.674426
 20
258.201817
 30
0.0
 11
127.494136
 21
260.141945
 31
0.0
  0
LINE
  8
0
  5
47A84
 10
126.052249
 20
260.181084
 30
0.0
 11
125.996508
 21
260.208088
 31
0.0
  0
LINE
  8
0
  5
47A85
 10
125.996508
 20
260.208088
 30
0.0
 11
127.686998
 21
261.371245
 31
0.0
  0
LINE
  8
0
  5
47A86
 10
128.056782
 20
261.560322
 30
0.0
 11
128.001041
 21
261.587326
 31
0.0
  0
LINE
  8
0
  5
47A87
 10
128.056782
 20
261.560322
 30
0.0
 11
126.052249
 21
260.181084
 31
0.0
  0
LINE
  8
0
  5
47A88
 10
123.657886
 20
258.598978
 30
0.0
 11
123.97193
 21
258.815058
 31
0.0
  0
LINE
  8
0
  5
47A89
 10
123.657886
 20
253.082114
 30
0.0
 11
123.657886
 21
258.598978
 31
0.0
  0
LINE
  8
0
  5
47A8A
 10
128.001041
 20
261.587326
 30
0.0
 11
127.686998
 21
261.371245
 31
0.0
  0
LINE
  8
0
  5
47A8B
 10
127.372954
 20
256.605874
 30
0.0
 11
127.372954
 21
260.058565
 31
0.0
  0
LINE
  8
0
  5
47A8D
 10
127.239319
 20
256.344175
 30
0.0
 11
124.54079
 21
254.487428
 31
0.0
  0
LINE
  8
0
  5
47A8F
 10
127.627771
 20
260.064144
 30
0.0
 11
127.482997
 21
260.134281
 31
0.0
  0
LINE
  8
0
  5
47E11
 10
118.907005
 20
255.736388
 30
0.0
 11
118.946138
 21
255.643297
 31
0.0
  0
LINE
  8
0
  5
47E12
 10
118.946138
 20
255.643297
 30
0.0
 11
119.04062
 21
255.658599
 31
0.0
  0
LINE
  8
0
  5
47E13
 10
120.991023
 20
258.282667
 30
0.0
 11
121.014643
 21
258.311347
 31
0.0
  0
LINE
  8
0
  5
47E14
 10
121.014643
 20
258.311347
 30
0.0
 11
121.024427
 21
258.348082
 31
0.0
  0
LINE
  8
0
  5
47E15
 10
121.993986
 20
257.860414
 30
0.0
 11
121.954854
 21
257.713472
 31
0.0
  0
LINE
  8
0
  5
47E16
 10
121.954854
 20
257.713472
 30
0.0
 11
121.860371
 21
257.598755
 31
0.0
  0
LINE
  8
0
  5
47E17
 10
121.509206
 20
258.095951
 30
0.0
 11
121.470074
 21
257.94901
 31
0.0
  0
LINE
  8
0
  5
47E18
 10
121.470074
 20
257.94901
 30
0.0
 11
121.375591
 21
257.834292
 31
0.0
  0
LINE
  8
0
  5
47E19
 10
121.509206
 20
258.112544
 30
0.0
 11
121.499423
 21
258.075809
 31
0.0
  0
LINE
  8
0
  5
47E1A
 10
121.499423
 20
258.075809
 30
0.0
 11
121.475803
 21
258.04713
 31
0.0
  0
LINE
  8
0
  5
47E1B
 10
118.907005
 20
259.318157
 30
0.0
 11
118.946138
 21
259.465099
 31
0.0
  0
LINE
  8
0
  5
47E1C
 10
118.946138
 20
259.465099
 30
0.0
 11
119.04062
 21
259.579816
 31
0.0
  0
LINE
  8
0
  5
47E1D
 10
121.993986
 20
261.442183
 30
0.0
 11
121.954854
 21
261.535273
 31
0.0
  0
LINE
  8
0
  5
47E1E
 10
121.954854
 20
261.535273
 30
0.0
 11
121.860371
 21
261.519972
 31
0.0
  0
INSERT
  8
0
  5
48131
  2
73830
 10
177.999828
 20
709.671176
 30
0.0
 41
0.5
 42
0.5
 43
0.5
  0
INSERT
  8
0
  5
48132
  2
DF
 10
418.945523
 20
144.079035
 30
0.0
 41
0.5
 42
0.5
 43
0.5
  0
INSERT
  8
0
  5
48133
  2
IU
 10
419.995523
 20
139.379035
 30
0.0
 41
0.5
 42
0.5
 43
0.5
  0
INSERT
  8
0
  5
48134
  2
73830
 10
238.823284
 20
747.308767
 30
0.0
 41
0.5
 42
0.5
 43
0.5
  0
INSERT
  8
0
  5
48135
  2
DF
 10
479.768979
 20
181.716626
 30
0.0
 41
0.5
 42
0.5
 43
0.5
  0
INSERT
  8
0
  5
48136
  2
IU
 10
480.818979
 20
177.016626
 30
0.0
 41
0.5
 42
0.5
 43
0.5
  0
VIEWPORT
  8
0
  5
4635C
 67
     1
 68
    -1
 10
6.0
 20
4.5
 30
0.0
 40
12.0
 41
9.0
 69
     1
1001
ACAD
1000
MVIEW
1002
{
1070
    16
1010
0.0
1020
0.0
1030
0.0
1010
0.0
1020
0.0
1030
1.0
1040
0.0
1040
9.0
1040
6.0
1040
4.5
1040
50.0
1040
0.0
1040
0.0
1070
     0
1070
   100
1070
     1
1070
     1
1070
     0
1070
     0
1070
     0
1070
     0
1040
0.0
1040
0.0
1040
0.0
1040
1.0
1040
1.0
1040
0.0
1040
0.0
1070
     0
1002
{
1002
}
1002
}
  0
LINE
  8
0
  5
4A4DE
 10
111.564458
 20
259.913769
 30
0.0
 11
111.564458
 21
259.98719
 31
0.0
  0
LINE
  8
0
  5
4A4DF
 10
111.564458
 20
259.98719
 30
0.0
 11
111.565015
 21
259.98719
 31
0.0
  0
LINE
  8
0
  5
4A4E0
 10
111.601169
 20
261.57185
 30
0.0
 11
111.637879
 21
261.60856
 31
0.0
  0
LINE
  8
0
  5
4A4E1
 10
111.637879
 20
261.60856
 30
0.0
 11
111.638435
 21
261.60856
 31
0.0
  0
LINE
  8
0
  5
4A4E2
 10
113.109071
 20
261.424453
 30
0.0
 11
113.072361
 21
261.424453
 31
0.0
  0
LINE
  8
0
  5
4A4E3
 10
113.072361
 20
261.424453
 30
0.0
 11
113.072917
 21
261.424453
 31
0.0
  0
LINE
  8
0
  5
4A4E4
 10
112.99894
 20
261.350476
 30
0.0
 11
113.109071
 21
261.424453
 31
0.0
  0
LINE
  8
0
  5
4A4E5
 10
113.109071
 20
261.424453
 30
0.0
 11
113.109627
 21
261.424453
 31
0.0
  0
LINE
  8
0
  5
4A4E6
 10
113.256468
 20
261.129658
 30
0.0
 11
113.366599
 21
261.203079
 31
0.0
  0
LINE
  8
0
  5
4A4E7
 10
113.366599
 20
261.203079
 30
0.0
 11
113.367155
 21
261.203079
 31
0.0
  0
LINE
  8
0
  5
4A4E8
 10
113.366599
 20
258.992119
 30
0.0
 11
113.366599
 21
261.203079
 31
0.0
  0
LINE
  8
0
  5
4A4E9
 10
113.366599
 20
261.203079
 30
0.0
 11
113.367155
 21
261.203079
 31
0.0
  0
LINE
  8
0
  5
4A4EA
 10
113.366599
 20
261.203079
 30
0.0
 11
113.109071
 21
261.424453
 31
0.0
  0
LINE
  8
0
  5
4A4EB
 10
113.109071
 20
261.424453
 30
0.0
 11
113.109627
 21
261.424453
 31
0.0
  0
LINE
  8
0
  5
4A4EC
 10
111.564458
 20
259.98719
 30
0.0
 11
112.667435
 21
259.36089
 31
0.0
  0
LINE
  8
0
  5
4A4ED
 10
112.667435
 20
259.36089
 30
0.0
 11
112.667991
 21
259.36089
 31
0.0
  0
LINE
  8
0
  5
4A4EE
 10
113.366599
 20
258.034315
 30
0.0
 11
113.366599
 21
258.697324
 31
0.0
  0
LINE
  8
0
  5
4A4EF
 10
113.366599
 20
258.697324
 30
0.0
 11
113.367155
 21
258.697324
 31
0.0
  0
LINE
  8
0
  5
4A4F0
 10
111.601169
 20
259.839793
 30
0.0
 11
111.637879
 21
259.876503
 31
0.0
  0
LINE
  8
0
  5
4A4F1
 10
111.637879
 20
259.876503
 30
0.0
 11
111.638435
 21
259.876503
 31
0.0
  0
LINE
  8
0
  5
4A4F2
 10
113.366599
 20
261.461163
 30
0.0
 11
113.366599
 21
261.977332
 31
0.0
  0
LINE
  8
0
  5
4A4F3
 10
113.366599
 20
261.977332
 30
0.0
 11
113.367155
 21
261.977332
 31
0.0
  0
LINE
  8
0
  5
4A4F4
 10
113.256468
 20
261.387743
 30
0.0
 11
113.366599
 21
261.461163
 31
0.0
  0
LINE
  8
0
  5
4A4F5
 10
113.366599
 20
261.461163
 30
0.0
 11
113.367155
 21
261.461163
 31
0.0
  0
LINE
  8
0
  5
4A4F6
 10
111.564458
 20
261.645271
 30
0.0
 11
111.564458
 21
261.719247
 31
0.0
  0
LINE
  8
0
  5
4A4F7
 10
111.564458
 20
261.719247
 30
0.0
 11
111.565015
 21
261.719247
 31
0.0
  0
LINE
  8
0
  5
4A4F8
 10
111.564458
 20
261.719247
 30
0.0
 11
112.667435
 21
261.092948
 31
0.0
  0
LINE
  8
0
  5
4A4F9
 10
112.667435
 20
261.092948
 30
0.0
 11
112.667991
 21
261.092948
 31
0.0
  0
LINE
  8
0
  5
4A4FA
 10
112.741412
 20
261.60856
 30
0.0
 11
112.667435
 21
261.57185
 31
0.0
  0
LINE
  8
0
  5
4A4FB
 10
112.667435
 20
261.57185
 30
0.0
 11
112.667991
 21
261.57185
 31
0.0
  0
LINE
  8
0
  5
4A4FC
 10
113.256468
 20
258.918698
 30
0.0
 11
113.366599
 21
258.992119
 31
0.0
  0
LINE
  8
0
  5
4A4FD
 10
113.366599
 20
258.992119
 30
0.0
 11
113.367155
 21
258.992119
 31
0.0
  0
LINE
  8
0
  5
4A4FE
 10
111.086112
 20
260.908284
 30
0.0
 11
112.667435
 21
259.913769
 31
0.0
  0
LINE
  8
0
  5
4A4FF
 10
112.667435
 20
259.913769
 30
0.0
 11
112.667991
 21
259.913769
 31
0.0
  0
LINE
  8
0
  5
4A500
 10
112.667435
 20
259.913769
 30
0.0
 11
112.667435
 21
259.176783
 31
0.0
  0
LINE
  8
0
  5
4A501
 10
112.667435
 20
259.176783
 30
0.0
 11
112.667991
 21
259.176783
 31
0.0
  0
LINE
  8
0
  5
4A502
 10
112.667435
 20
259.176783
 30
0.0
 11
112.99894
 21
258.992119
 31
0.0
  0
LINE
  8
0
  5
4A503
 10
112.99894
 20
258.992119
 30
0.0
 11
112.999496
 21
258.992119
 31
0.0
  0
LINE
  8
0
  5
4A504
 10
113.256468
 20
258.918698
 30
0.0
 11
113.256468
 21
261.129658
 31
0.0
  0
LINE
  8
0
  5
4A505
 10
113.256468
 20
261.129658
 30
0.0
 11
113.257025
 21
261.129658
 31
0.0
  0
LINE
  8
0
  5
4A506
 10
112.99894
 20
258.992119
 30
0.0
 11
113.256468
 21
258.918698
 31
0.0
  0
LINE
  8
0
  5
4A507
 10
113.256468
 20
258.918698
 30
0.0
 11
113.257025
 21
258.918698
 31
0.0
  0
LINE
  8
0
  5
4A508
 10
112.99894
 20
261.350476
 30
0.0
 11
112.667435
 21
261.57185
 31
0.0
  0
LINE
  8
0
  5
4A509
 10
112.667435
 20
261.57185
 30
0.0
 11
112.667991
 21
261.57185
 31
0.0
  0
LINE
  8
0
  5
4A50A
 10
112.667435
 20
261.57185
 30
0.0
 11
112.667435
 21
260.834864
 31
0.0
  0
LINE
  8
0
  5
4A50B
 10
112.667435
 20
260.834864
 30
0.0
 11
112.667991
 21
260.834864
 31
0.0
  0
LINE
  8
0
  5
4A50C
 10
113.256468
 20
261.129658
 30
0.0
 11
112.99894
 21
261.350476
 31
0.0
  0
LINE
  8
0
  5
4A50D
 10
112.99894
 20
261.350476
 30
0.0
 11
112.999496
 21
261.350476
 31
0.0
  0
LINE
  8
0
  5
4A50E
 10
111.086112
 20
261.719247
 30
0.0
 11
112.667435
 21
260.834864
 31
0.0
  0
LINE
  8
0
  5
4A50F
 10
112.667435
 20
260.834864
 30
0.0
 11
112.667991
 21
260.834864
 31
0.0
  0
LINE
  8
0
  5
4A510
 10
111.490482
 20
261.60856
 30
0.0
 11
111.564458
 21
261.645271
 31
0.0
  0
LINE
  8
0
  5
4A511
 10
111.564458
 20
261.645271
 30
0.0
 11
111.565015
 21
261.645271
 31
0.0
  0
LINE
  8
0
  5
4A512
 10
111.564458
 20
261.645271
 30
0.0
 11
111.232953
 21
261.829934
 31
0.0
  0
LINE
  8
0
  5
4A513
 10
111.232953
 20
261.829934
 30
0.0
 11
111.23351
 21
261.829934
 31
0.0
  0
LINE
  8
0
  5
4A514
 10
112.667435
 20
260.945551
 30
0.0
 11
111.490482
 21
261.60856
 31
0.0
  0
LINE
  8
0
  5
4A515
 10
111.490482
 20
261.60856
 30
0.0
 11
111.491038
 21
261.60856
 31
0.0
  0
LINE
  8
0
  5
4A516
 10
114.175894
 20
257.665543
 30
0.0
 11
114.175894
 21
258.181712
 31
0.0
  0
LINE
  8
0
  5
4A517
 10
114.175894
 20
258.181712
 30
0.0
 11
114.17645
 21
258.181712
 31
0.0
  0
LINE
  8
0
  5
4A518
 10
111.637879
 20
261.60856
 30
0.0
 11
111.637879
 21
261.682537
 31
0.0
  0
LINE
  8
0
  5
4A519
 10
111.637879
 20
261.682537
 30
0.0
 11
111.638435
 21
261.682537
 31
0.0
  0
LINE
  8
0
  5
4A51A
 10
113.697548
 20
262.088019
 30
0.0
 11
113.697548
 21
262.19815
 31
0.0
  0
LINE
  8
0
  5
4A51B
 10
113.697548
 20
262.19815
 30
0.0
 11
113.698104
 21
262.19815
 31
0.0
  0
LINE
  8
0
  5
4A51C
 10
111.086112
 20
262.640342
 30
0.0
 11
112.667435
 21
261.682537
 31
0.0
  0
LINE
  8
0
  5
4A51D
 10
112.667435
 20
261.682537
 30
0.0
 11
112.667991
 21
261.682537
 31
0.0
  0
LINE
  8
0
  5
4A51E
 10
112.888253
 20
262.382813
 30
0.0
 11
112.888253
 21
262.492944
 31
0.0
  0
LINE
  8
0
  5
4A51F
 10
112.888253
 20
262.492944
 30
0.0
 11
112.888809
 21
262.492944
 31
0.0
  0
LINE
  8
0
  5
4A520
 10
112.99894
 20
261.461163
 30
0.0
 11
113.256468
 21
261.387743
 31
0.0
  0
LINE
  8
0
  5
4A521
 10
113.256468
 20
261.387743
 30
0.0
 11
113.257025
 21
261.387743
 31
0.0
  0
LINE
  8
0
  5
4A522
 10
113.256468
 20
261.387743
 30
0.0
 11
113.256468
 21
262.050752
 31
0.0
  0
LINE
  8
0
  5
4A523
 10
113.256468
 20
262.050752
 30
0.0
 11
113.257025
 21
262.050752
 31
0.0
  0
LINE
  8
0
  5
4A524
 10
113.44002
 20
261.940622
 30
0.0
 11
113.44002
 21
262.050752
 31
0.0
  0
LINE
  8
0
  5
4A525
 10
113.44002
 20
262.050752
 30
0.0
 11
113.440576
 21
262.050752
 31
0.0
  0
LINE
  8
0
  5
4A526
 10
112.888253
 20
262.382813
 30
0.0
 11
113.44002
 21
262.050752
 31
0.0
  0
LINE
  8
0
  5
4A527
 10
113.44002
 20
262.050752
 30
0.0
 11
113.440576
 21
262.050752
 31
0.0
  0
LINE
  8
0
  5
4A528
 10
112.99894
 20
262.456234
 30
0.0
 11
112.888253
 21
262.382813
 31
0.0
  0
LINE
  8
0
  5
4A529
 10
112.888253
 20
262.382813
 30
0.0
 11
112.888809
 21
262.382813
 31
0.0
  0
LINE
  8
0
  5
4A52A
 10
113.44002
 20
262.050752
 30
0.0
 11
113.697548
 21
262.19815
 31
0.0
  0
LINE
  8
0
  5
4A52B
 10
113.697548
 20
262.19815
 30
0.0
 11
113.698104
 21
262.19815
 31
0.0
  0
LINE
  8
0
  5
4A52C
 10
113.697548
 20
262.19815
 30
0.0
 11
113.145781
 21
262.530211
 31
0.0
  0
LINE
  8
0
  5
4A52D
 10
113.145781
 20
262.530211
 30
0.0
 11
113.146338
 21
262.530211
 31
0.0
  0
LINE
  8
0
  5
4A52E
 10
114.175894
 20
262.751029
 30
0.0
 11
114.065207
 21
262.825005
 31
0.0
  0
LINE
  8
0
  5
4A52F
 10
114.065207
 20
262.825005
 30
0.0
 11
114.065763
 21
262.825005
 31
0.0
  0
LINE
  8
0
  5
4A530
 10
113.808235
 20
262.530211
 30
0.0
 11
114.175894
 21
262.751029
 31
0.0
  0
LINE
  8
0
  5
4A531
 10
114.175894
 20
262.751029
 30
0.0
 11
114.17645
 21
262.751029
 31
0.0
  0
LINE
  8
0
  5
4A532
 10
114.065207
 20
262.825005
 30
0.0
 11
113.697548
 21
262.603631
 31
0.0
  0
LINE
  8
0
  5
4A533
 10
113.697548
 20
262.603631
 30
0.0
 11
113.698104
 21
262.603631
 31
0.0
  0
LINE
  8
0
  5
4A534
 10
114.065207
 20
263.267197
 30
0.0
 11
114.065207
 21
263.377328
 31
0.0
  0
LINE
  8
0
  5
4A535
 10
114.065207
 20
263.377328
 30
0.0
 11
114.065763
 21
263.377328
 31
0.0
  0
LINE
  8
0
  5
4A536
 10
115.021899
 20
258.145002
 30
0.0
 11
115.021899
 21
258.660614
 31
0.0
  0
LINE
  8
0
  5
4A537
 10
115.021899
 20
258.660614
 30
0.0
 11
115.022455
 21
258.660614
 31
0.0
  0
LINE
  8
0
  5
4A538
 10
117.118278
 20
263.930207
 30
0.0
 11
117.118278
 21
264.446376
 31
0.0
  0
LINE
  8
0
  5
4A539
 10
117.118278
 20
264.446376
 30
0.0
 11
117.118834
 21
264.446376
 31
0.0
  0
LINE
  8
0
  5
4A53A
 10
112.888253
 20
257.960338
 30
0.0
 11
112.99894
 21
257.997604
 31
0.0
  0
LINE
  8
0
  5
4A53B
 10
112.99894
 20
257.997604
 30
0.0
 11
112.999496
 21
257.997604
 31
0.0
  0
LINE
  8
0
  5
4A53C
 10
113.808235
 20
257.960338
 30
0.0
 11
113.697548
 21
258.034315
 31
0.0
  0
LINE
  8
0
  5
4A53D
 10
113.697548
 20
258.034315
 30
0.0
 11
113.698104
 21
258.034315
 31
0.0
  0
LINE
  8
0
  5
4A53E
 10
113.808235
 20
257.444725
 30
0.0
 11
113.808235
 21
257.960338
 31
0.0
  0
LINE
  8
0
  5
4A53F
 10
113.808235
 20
257.960338
 30
0.0
 11
113.808791
 21
257.960338
 31
0.0
  0
LINE
  8
0
  5
4A540
 10
113.44002
 20
257.73952
 30
0.0
 11
113.697548
 21
257.923627
 31
0.0
  0
LINE
  8
0
  5
4A541
 10
113.697548
 20
257.923627
 30
0.0
 11
113.698104
 21
257.923627
 31
0.0
  0
LINE
  8
0
  5
4A542
 10
111.086112
 20
259.98719
 30
0.0
 11
111.086112
 21
259.213493
 31
0.0
  0
LINE
  8
0
  5
4A543
 10
111.086112
 20
259.213493
 30
0.0
 11
111.086669
 21
259.213493
 31
0.0
  0
LINE
  8
0
  5
4A544
 10
112.667435
 20
259.066096
 30
0.0
 11
111.086112
 21
259.98719
 31
0.0
  0
LINE
  8
0
  5
4A545
 10
111.086112
 20
259.98719
 30
0.0
 11
111.086669
 21
259.98719
 31
0.0
  0
LINE
  8
0
  5
4A546
 10
112.630725
 20
258.218422
 30
0.0
 11
112.814833
 21
257.997604
 31
0.0
  0
LINE
  8
0
  5
4A547
 10
112.814833
 20
257.997604
 30
0.0
 11
112.815389
 21
257.997604
 31
0.0
  0
LINE
  8
0
  5
4A548
 10
112.814833
 20
257.997604
 30
0.0
 11
112.888253
 21
257.960338
 31
0.0
  0
LINE
  8
0
  5
4A549
 10
112.888253
 20
257.960338
 30
0.0
 11
112.888809
 21
257.960338
 31
0.0
  0
LINE
  8
0
  5
4A54A
 10
112.888253
 20
257.960338
 30
0.0
 11
112.888253
 21
258.071025
 31
0.0
  0
LINE
  8
0
  5
4A54B
 10
112.888253
 20
258.071025
 30
0.0
 11
112.888809
 21
258.071025
 31
0.0
  0
LINE
  8
0
  5
4A54C
 10
112.888253
 20
258.071025
 30
0.0
 11
113.44002
 21
257.73952
 31
0.0
  0
LINE
  8
0
  5
4A54D
 10
113.44002
 20
257.73952
 30
0.0
 11
113.440576
 21
257.73952
 31
0.0
  0
LINE
  8
0
  5
4A54E
 10
113.256468
 20
257.997604
 30
0.0
 11
113.256468
 21
258.623904
 31
0.0
  0
LINE
  8
0
  5
4A54F
 10
113.256468
 20
258.623904
 30
0.0
 11
113.257025
 21
258.623904
 31
0.0
  0
LINE
  8
0
  5
4A550
 10
113.44002
 20
257.73952
 30
0.0
 11
113.44002
 21
257.850207
 31
0.0
  0
LINE
  8
0
  5
4A551
 10
113.44002
 20
257.850207
 30
0.0
 11
113.440576
 21
257.850207
 31
0.0
  0
LINE
  8
0
  5
4A552
 10
113.697548
 20
257.923627
 30
0.0
 11
113.697548
 21
258.034315
 31
0.0
  0
LINE
  8
0
  5
4A553
 10
113.697548
 20
258.034315
 30
0.0
 11
113.698104
 21
258.034315
 31
0.0
  0
LINE
  8
0
  5
4A554
 10
114.175894
 20
262.235416
 30
0.0
 11
114.175894
 21
262.751029
 31
0.0
  0
LINE
  8
0
  5
4A555
 10
114.175894
 20
262.751029
 30
0.0
 11
114.17645
 21
262.751029
 31
0.0
  0
LINE
  8
0
  5
4A556
 10
113.366599
 20
258.697324
 30
0.0
 11
113.109071
 21
258.918698
 31
0.0
  0
LINE
  8
0
  5
4A557
 10
113.109071
 20
258.918698
 30
0.0
 11
113.109627
 21
258.918698
 31
0.0
  0
LINE
  8
0
  5
4A558
 10
113.256468
 20
258.623904
 30
0.0
 11
113.366599
 21
258.697324
 31
0.0
  0
LINE
  8
0
  5
4A559
 10
113.366599
 20
258.697324
 30
0.0
 11
113.367155
 21
258.697324
 31
0.0
  0
LINE
  8
0
  5
4A55A
 10
112.99894
 20
258.881988
 30
0.0
 11
113.256468
 21
258.623904
 31
0.0
  0
LINE
  8
0
  5
4A55B
 10
113.256468
 20
258.623904
 30
0.0
 11
113.257025
 21
258.623904
 31
0.0
  0
LINE
  8
0
  5
4A55C
 10
112.667435
 20
259.066096
 30
0.0
 11
112.99894
 21
258.881988
 31
0.0
  0
LINE
  8
0
  5
4A55D
 10
112.99894
 20
258.881988
 30
0.0
 11
112.999496
 21
258.881988
 31
0.0
  0
LINE
  8
0
  5
4A55E
 10
112.99894
 20
258.881988
 30
0.0
 11
113.109071
 21
258.918698
 31
0.0
  0
LINE
  8
0
  5
4A55F
 10
113.109071
 20
258.918698
 30
0.0
 11
113.109627
 21
258.918698
 31
0.0
  0
LINE
  8
0
  5
4A560
 10
113.109071
 20
258.918698
 30
0.0
 11
113.072361
 21
258.955409
 31
0.0
  0
LINE
  8
0
  5
4A561
 10
113.072361
 20
258.955409
 30
0.0
 11
113.072917
 21
258.955409
 31
0.0
  0
LINE
  8
0
  5
4A562
 10
111.490482
 20
259.876503
 30
0.0
 11
111.564458
 21
259.913769
 31
0.0
  0
LINE
  8
0
  5
4A563
 10
111.564458
 20
259.913769
 30
0.0
 11
111.565015
 21
259.913769
 31
0.0
  0
LINE
  8
0
  5
4A564
 10
111.564458
 20
259.913769
 30
0.0
 11
111.232953
 21
260.097877
 31
0.0
  0
LINE
  8
0
  5
4A565
 10
111.232953
 20
260.097877
 30
0.0
 11
111.23351
 21
260.097877
 31
0.0
  0
LINE
  8
0
  5
4A566
 10
112.667435
 20
259.066096
 30
0.0
 11
112.741412
 21
259.139516
 31
0.0
  0
LINE
  8
0
  5
4A567
 10
112.741412
 20
259.139516
 30
0.0
 11
112.741968
 21
259.139516
 31
0.0
  0
LINE
  8
0
  5
4A568
 10
112.667435
 20
259.213493
 30
0.0
 11
111.490482
 21
259.876503
 31
0.0
  0
LINE
  8
0
  5
4A569
 10
111.490482
 20
259.876503
 30
0.0
 11
111.491038
 21
259.876503
 31
0.0
  0
LINE
  8
0
  5
4A56A
 10
116.934727
 20
261.055681
 30
0.0
 11
117.044858
 21
261.129658
 31
0.0
  0
LINE
  8
0
  5
4A56B
 10
117.044858
 20
261.129658
 30
0.0
 11
117.045414
 21
261.129658
 31
0.0
  0
LINE
  8
0
  5
4A56C
 10
116.934727
 20
263.524726
 30
0.0
 11
116.934727
 21
263.856787
 31
0.0
  0
LINE
  8
0
  5
4A56D
 10
116.934727
 20
263.856787
 30
0.0
 11
116.935283
 21
263.856787
 31
0.0
  0
LINE
  8
0
  5
4A56E
 10
116.162142
 20
263.672123
 30
0.0
 11
116.198853
 21
263.709389
 31
0.0
  0
LINE
  8
0
  5
4A56F
 10
116.198853
 20
263.709389
 30
0.0
 11
116.199409
 21
263.709389
 31
0.0
  0
LINE
  8
0
  5
4A570
 10
116.162142
 20
262.972403
 30
0.0
 11
116.162142
 21
263.672123
 31
0.0
  0
LINE
  8
0
  5
4A571
 10
116.162142
 20
263.672123
 30
0.0
 11
116.162698
 21
263.672123
 31
0.0
  0
LINE
  8
0
  5
4A572
 10
116.162142
 20
263.672123
 30
0.0
 11
115.462978
 21
264.077605
 31
0.0
  0
LINE
  8
0
  5
4A573
 10
115.462978
 20
264.077605
 30
0.0
 11
115.463535
 21
264.077605
 31
0.0
  0
LINE
  8
0
  5
4A574
 10
115.794483
 20
263.15651
 30
0.0
 11
116.162142
 21
262.972403
 31
0.0
  0
LINE
  8
0
  5
4A575
 10
116.162142
 20
262.972403
 30
0.0
 11
116.162698
 21
262.972403
 31
0.0
  0
LINE
  8
0
  5
4A576
 10
116.162142
 20
262.972403
 30
0.0
 11
116.198853
 21
263.009113
 31
0.0
  0
LINE
  8
0
  5
4A577
 10
116.198853
 20
263.009113
 30
0.0
 11
116.199409
 21
263.009113
 31
0.0
  0
LINE
  8
0
  5
4A578
 10
116.41967
 20
263.7461
 30
0.0
 11
116.308983
 21
263.672123
 31
0.0
  0
LINE
  8
0
  5
4A579
 10
116.308983
 20
263.672123
 30
0.0
 11
116.30954
 21
263.672123
 31
0.0
  0
LINE
  8
0
  5
4A57A
 10
116.934727
 20
263.267197
 30
0.0
 11
117.044858
 21
263.340618
 31
0.0
  0
LINE
  8
0
  5
4A57B
 10
117.044858
 20
263.340618
 30
0.0
 11
117.045414
 21
263.340618
 31
0.0
  0
LINE
  8
0
  5
4A57C
 10
114.948478
 20
262.714318
 30
0.0
 11
114.948478
 21
262.787739
 31
0.0
  0
LINE
  8
0
  5
4A57D
 10
114.948478
 20
262.787739
 30
0.0
 11
114.949035
 21
262.787739
 31
0.0
  0
LINE
  8
0
  5
4A57E
 10
116.198853
 20
261.277056
 30
0.0
 11
116.198853
 21
261.977332
 31
0.0
  0
LINE
  8
0
  5
4A57F
 10
116.198853
 20
261.977332
 30
0.0
 11
116.199409
 21
261.977332
 31
0.0
  0
LINE
  8
0
  5
4A580
 10
114.948478
 20
262.714318
 30
0.0
 11
114.911212
 21
262.677608
 31
0.0
  0
LINE
  8
0
  5
4A581
 10
114.911212
 20
262.677608
 30
0.0
 11
114.911768
 21
262.677608
 31
0.0
  0
LINE
  8
0
  5
4A582
 10
116.162142
 20
261.940622
 30
0.0
 11
116.198853
 21
261.977332
 31
0.0
  0
LINE
  8
0
  5
4A583
 10
116.198853
 20
261.977332
 30
0.0
 11
116.199409
 21
261.977332
 31
0.0
  0
LINE
  8
0
  5
4A584
 10
116.198853
 20
261.977332
 30
0.0
 11
114.948478
 21
262.714318
 31
0.0
  0
LINE
  8
0
  5
4A585
 10
114.948478
 20
262.714318
 30
0.0
 11
114.949035
 21
262.714318
 31
0.0
  0
LINE
  8
0
  5
4A586
 10
114.911212
 20
261.903355
 30
0.0
 11
114.911212
 21
262.677608
 31
0.0
  0
LINE
  8
0
  5
4A587
 10
114.911212
 20
262.677608
 30
0.0
 11
114.911768
 21
262.677608
 31
0.0
  0
LINE
  8
0
  5
4A588
 10
115.021899
 20
261.829934
 30
0.0
 11
115.021899
 21
261.866645
 31
0.0
  0
LINE
  8
0
  5
4A589
 10
115.021899
 20
261.866645
 30
0.0
 11
115.022455
 21
261.866645
 31
0.0
  0
LINE
  8
0
  5
4A58A
 10
116.308983
 20
261.203079
 30
0.0
 11
116.41967
 21
261.277056
 31
0.0
  0
LINE
  8
0
  5
4A58B
 10
116.41967
 20
261.277056
 30
0.0
 11
116.420227
 21
261.277056
 31
0.0
  0
LINE
  8
0
  5
4A58C
 10
114.874502
 20
261.719247
 30
0.0
 11
115.021899
 21
261.829934
 31
0.0
  0
LINE
  8
0
  5
4A58D
 10
115.021899
 20
261.829934
 30
0.0
 11
115.022455
 21
261.829934
 31
0.0
  0
LINE
  8
0
  5
4A58E
 10
117.118278
 20
264.188292
 30
0.0
 11
117.265675
 21
264.261712
 31
0.0
  0
LINE
  8
0
  5
4A58F
 10
117.265675
 20
264.261712
 30
0.0
 11
117.266232
 21
264.261712
 31
0.0
  0
LINE
  8
0
  5
4A590
 10
117.265675
 20
264.261712
 30
0.0
 11
117.118278
 21
264.335689
 31
0.0
  0
LINE
  8
0
  5
4A591
 10
117.118278
 20
264.335689
 30
0.0
 11
117.118834
 21
264.335689
 31
0.0
  0
LINE
  8
0
  5
4A592
 10
116.898016
 20
264.446376
 30
0.0
 11
116.677199
 21
264.593773
 31
0.0
  0
LINE
  8
0
  5
4A593
 10
116.677199
 20
264.593773
 30
0.0
 11
116.677755
 21
264.593773
 31
0.0
  0
LINE
  8
0
  5
4A594
 10
116.677199
 20
264.593773
 30
0.0
 11
116.566512
 21
264.519796
 31
0.0
  0
LINE
  8
0
  5
4A595
 10
116.566512
 20
264.519796
 30
0.0
 11
116.567068
 21
264.519796
 31
0.0
  0
LINE
  8
0
  5
4A596
 10
117.265675
 20
264.151581
 30
0.0
 11
117.265675
 21
264.261712
 31
0.0
  0
LINE
  8
0
  5
4A597
 10
117.265675
 20
264.261712
 30
0.0
 11
117.266232
 21
264.261712
 31
0.0
  0
LINE
  8
0
  5
4A598
 10
116.677199
 20
264.593773
 30
0.0
 11
116.677199
 21
264.703904
 31
0.0
  0
LINE
  8
0
  5
4A599
 10
116.677199
 20
264.703904
 30
0.0
 11
116.677755
 21
264.703904
 31
0.0
  0
LINE
  8
0
  5
4A59A
 10
116.566512
 20
264.519796
 30
0.0
 11
116.566512
 21
264.630484
 31
0.0
  0
LINE
  8
0
  5
4A59B
 10
116.566512
 20
264.630484
 30
0.0
 11
116.567068
 21
264.630484
 31
0.0
  0
LINE
  8
0
  5
4A59C
 10
116.308983
 20
264.667194
 30
0.0
 11
116.493091
 21
264.703904
 31
0.0
  0
LINE
  8
0
  5
4A59D
 10
116.493091
 20
264.703904
 30
0.0
 11
116.493647
 21
264.703904
 31
0.0
  0
LINE
  8
0
  5
4A59E
 10
116.493091
 20
264.703904
 30
0.0
 11
116.603778
 21
264.741171
 31
0.0
  0
LINE
  8
0
  5
4A59F
 10
116.603778
 20
264.741171
 30
0.0
 11
116.604334
 21
264.741171
 31
0.0
  0
LINE
  8
0
  5
4A5A0
 10
116.493091
 20
264.703904
 30
0.0
 11
116.566512
 21
264.630484
 31
0.0
  0
LINE
  8
0
  5
4A5A1
 10
116.566512
 20
264.630484
 30
0.0
 11
116.567068
 21
264.630484
 31
0.0
  0
LINE
  8
0
  5
4A5A2
 10
116.566512
 20
264.630484
 30
0.0
 11
116.677199
 21
264.703904
 31
0.0
  0
LINE
  8
0
  5
4A5A3
 10
116.677199
 20
264.703904
 30
0.0
 11
116.677755
 21
264.703904
 31
0.0
  0
LINE
  8
0
  5
4A5A4
 10
116.677199
 20
264.703904
 30
0.0
 11
116.603778
 21
264.741171
 31
0.0
  0
LINE
  8
0
  5
4A5A5
 10
116.603778
 20
264.741171
 30
0.0
 11
116.604334
 21
264.741171
 31
0.0
  0
LINE
  8
0
  5
4A5A6
 10
116.603778
 20
264.741171
 30
0.0
 11
116.41967
 21
264.741171
 31
0.0
  0
LINE
  8
0
  5
4A5A7
 10
116.41967
 20
264.741171
 30
0.0
 11
116.420227
 21
264.741171
 31
0.0
  0
LINE
  8
0
  5
4A5A8
 10
117.044858
 20
263.598702
 30
0.0
 11
117.044858
 21
263.893497
 31
0.0
  0
LINE
  8
0
  5
4A5A9
 10
117.044858
 20
263.893497
 30
0.0
 11
117.045414
 21
263.893497
 31
0.0
  0
LINE
  8
0
  5
4A5AA
 10
115.647086
 20
264.188292
 30
0.0
 11
116.308983
 21
263.78281
 31
0.0
  0
LINE
  8
0
  5
4A5AB
 10
116.308983
 20
263.78281
 30
0.0
 11
116.30954
 21
263.78281
 31
0.0
  0
LINE
  8
0
  5
4A5AC
 10
116.677199
 20
263.598702
 30
0.0
 11
116.934727
 21
263.524726
 31
0.0
  0
LINE
  8
0
  5
4A5AD
 10
116.934727
 20
263.524726
 30
0.0
 11
116.935283
 21
263.524726
 31
0.0
  0
LINE
  8
0
  5
4A5AE
 10
116.934727
 20
263.524726
 30
0.0
 11
117.044858
 21
263.598702
 31
0.0
  0
LINE
  8
0
  5
4A5AF
 10
117.044858
 20
263.598702
 30
0.0
 11
117.045414
 21
263.598702
 31
0.0
  0
LINE
  8
0
  5
4A5B0
 10
116.308983
 20
263.78281
 30
0.0
 11
116.677199
 21
263.598702
 31
0.0
  0
LINE
  8
0
  5
4A5B1
 10
116.677199
 20
263.598702
 30
0.0
 11
116.677755
 21
263.598702
 31
0.0
  0
LINE
  8
0
  5
4A5B2
 10
115.021899
 20
263.229931
 30
0.0
 11
115.867904
 21
263.709389
 31
0.0
  0
LINE
  8
0
  5
4A5B3
 10
115.867904
 20
263.709389
 30
0.0
 11
115.86846
 21
263.709389
 31
0.0
  0
LINE
  8
0
  5
4A5B4
 10
115.867904
 20
263.709389
 30
0.0
 11
115.757773
 21
263.78281
 31
0.0
  0
LINE
  8
0
  5
4A5B5
 10
115.757773
 20
263.78281
 30
0.0
 11
115.758329
 21
263.78281
 31
0.0
  0
LINE
  8
0
  5
4A5B6
 10
115.757773
 20
263.78281
 30
0.0
 11
114.911212
 21
263.303908
 31
0.0
  0
LINE
  8
0
  5
4A5B7
 10
114.911212
 20
263.303908
 30
0.0
 11
114.911768
 21
263.303908
 31
0.0
  0
LINE
  8
0
  5
4A5B8
 10
115.867904
 20
263.229931
 30
0.0
 11
115.867904
 21
263.709389
 31
0.0
  0
LINE
  8
0
  5
4A5B9
 10
115.867904
 20
263.709389
 30
0.0
 11
115.86846
 21
263.709389
 31
0.0
  0
LINE
  8
0
  5
4A5BA
 10
113.256468
 20
262.935136
 30
0.0
 11
114.065207
 21
263.377328
 31
0.0
  0
LINE
  8
0
  5
4A5BB
 10
114.065207
 20
263.377328
 30
0.0
 11
114.065763
 21
263.377328
 31
0.0
  0
LINE
  8
0
  5
4A5BC
 10
112.630725
 20
262.566921
 30
0.0
 11
112.741412
 21
262.603631
 31
0.0
  0
LINE
  8
0
  5
4A5BD
 10
112.741412
 20
262.603631
 30
0.0
 11
112.741968
 21
262.603631
 31
0.0
  0
LINE
  8
0
  5
4A5BE
 10
111.086112
 20
263.451305
 30
0.0
 11
112.630725
 21
262.566921
 31
0.0
  0
LINE
  8
0
  5
4A5BF
 10
112.630725
 20
262.566921
 30
0.0
 11
112.631281
 21
262.566921
 31
0.0
  0
LINE
  8
0
  5
4A5C0
 10
112.99894
 20
262.456234
 30
0.0
 11
113.145781
 21
262.530211
 31
0.0
  0
LINE
  8
0
  5
4A5C1
 10
113.145781
 20
262.530211
 30
0.0
 11
113.146338
 21
262.530211
 31
0.0
  0
LINE
  8
0
  5
4A5C2
 10
113.770968
 20
262.640342
 30
0.0
 11
113.256468
 21
262.935136
 31
0.0
  0
LINE
  8
0
  5
4A5C3
 10
113.256468
 20
262.935136
 30
0.0
 11
113.257025
 21
262.935136
 31
0.0
  0
LINE
  8
0
  5
4A5C4
 10
114.948478
 20
263.893497
 30
0.0
 11
115.757773
 21
264.372399
 31
0.0
  0
LINE
  8
0
  5
4A5C5
 10
115.757773
 20
264.372399
 30
0.0
 11
115.758329
 21
264.372399
 31
0.0
  0
LINE
  8
0
  5
4A5C6
 10
116.308983
 20
264.667194
 30
0.0
 11
116.41967
 21
264.741171
 31
0.0
  0
LINE
  8
0
  5
4A5C7
 10
116.41967
 20
264.741171
 30
0.0
 11
116.420227
 21
264.741171
 31
0.0
  0
LINE
  8
0
  5
4A5C8
 10
116.41967
 20
264.741171
 30
0.0
 11
114.801081
 21
265.625554
 31
0.0
  0
LINE
  8
0
  5
4A5C9
 10
114.801081
 20
265.625554
 30
0.0
 11
114.801637
 21
265.625554
 31
0.0
  0
LINE
  8
0
  5
4A5CA
 10
115.462978
 20
263.598702
 30
0.0
 11
114.948478
 21
263.893497
 31
0.0
  0
LINE
  8
0
  5
4A5CB
 10
114.948478
 20
263.893497
 30
0.0
 11
114.949035
 21
263.893497
 31
0.0
  0
LINE
  8
0
  5
4A5CC
 10
116.41967
 20
264.446376
 30
0.0
 11
116.566512
 21
264.519796
 31
0.0
  0
LINE
  8
0
  5
4A5CD
 10
116.566512
 20
264.519796
 30
0.0
 11
116.567068
 21
264.519796
 31
0.0
  0
LINE
  8
0
  5
4A5CE
 10
116.566512
 20
264.519796
 30
0.0
 11
116.308983
 21
264.667194
 31
0.0
  0
LINE
  8
0
  5
4A5CF
 10
116.308983
 20
264.667194
 30
0.0
 11
116.30954
 21
264.667194
 31
0.0
  0
LINE
  8
0
  5
4A5D0
 10
116.677199
 20
264.298979
 30
0.0
 11
116.41967
 21
264.446376
 31
0.0
  0
LINE
  8
0
  5
4A5D1
 10
116.41967
 20
264.446376
 30
0.0
 11
116.420227
 21
264.446376
 31
0.0
  0
LINE
  8
0
  5
4A5D2
 10
114.065207
 20
259.066096
 30
0.0
 11
114.065207
 21
259.213493
 31
0.0
  0
LINE
  8
0
  5
4A5D3
 10
114.065207
 20
259.213493
 30
0.0
 11
114.065763
 21
259.213493
 31
0.0
  0
LINE
  8
0
  5
4A5D4
 10
113.366599
 20
262.861716
 30
0.0
 11
114.065207
 21
263.267197
 31
0.0
  0
LINE
  8
0
  5
4A5D5
 10
114.065207
 20
263.267197
 30
0.0
 11
114.065763
 21
263.267197
 31
0.0
  0
LINE
  8
0
  5
4A5D6
 10
113.256468
 20
262.050752
 30
0.0
 11
113.44002
 21
261.940622
 31
0.0
  0
LINE
  8
0
  5
4A5D7
 10
113.44002
 20
261.940622
 30
0.0
 11
113.440576
 21
261.940622
 31
0.0
  0
LINE
  8
0
  5
4A5D8
 10
113.44002
 20
261.940622
 30
0.0
 11
113.697548
 21
262.088019
 31
0.0
  0
LINE
  8
0
  5
4A5D9
 10
113.697548
 20
262.088019
 30
0.0
 11
113.698104
 21
262.088019
 31
0.0
  0
LINE
  8
0
  5
4A5DA
 10
113.808235
 20
262.014042
 30
0.0
 11
114.175894
 21
262.235416
 31
0.0
  0
LINE
  8
0
  5
4A5DB
 10
114.175894
 20
262.235416
 30
0.0
 11
114.17645
 21
262.235416
 31
0.0
  0
LINE
  8
0
  5
4A5DC
 10
115.058609
 20
263.856787
 30
0.0
 11
115.757773
 21
264.261712
 31
0.0
  0
LINE
  8
0
  5
4A5DD
 10
115.757773
 20
264.261712
 30
0.0
 11
115.758329
 21
264.261712
 31
0.0
  0
LINE
  8
0
  5
4A5DE
 10
115.021899
 20
262.751029
 30
0.0
 11
115.867904
 21
263.229931
 31
0.0
  0
LINE
  8
0
  5
4A5DF
 10
115.867904
 20
263.229931
 30
0.0
 11
115.86846
 21
263.229931
 31
0.0
  0
LINE
  8
0
  5
4A5E0
 10
116.750619
 20
263.709389
 30
0.0
 11
117.118278
 21
263.930207
 31
0.0
  0
LINE
  8
0
  5
4A5E1
 10
117.118278
 20
263.930207
 30
0.0
 11
117.118834
 21
263.930207
 31
0.0
  0
LINE
  8
0
  5
4A5E2
 10
117.118278
 20
264.077605
 30
0.0
 11
117.265675
 21
264.151581
 31
0.0
  0
LINE
  8
0
  5
4A5E3
 10
117.265675
 20
264.151581
 30
0.0
 11
117.266232
 21
264.151581
 31
0.0
  0
LINE
  8
0
  5
4A5E4
 10
114.65424
 20
261.829934
 30
0.0
 11
114.65424
 21
262.935136
 31
0.0
  0
LINE
  8
0
  5
4A5E5
 10
114.65424
 20
262.935136
 30
0.0
 11
114.654796
 21
262.935136
 31
0.0
  0
LINE
  8
0
  5
4A5E6
 10
114.801081
 20
261.350476
 30
0.0
 11
114.801081
 21
261.755958
 31
0.0
  0
LINE
  8
0
  5
4A5E7
 10
114.801081
 20
261.755958
 30
0.0
 11
114.801637
 21
261.755958
 31
0.0
  0
LINE
  8
0
  5
4A5E8
 10
114.65424
 20
261.829934
 30
0.0
 11
114.874502
 21
261.719247
 31
0.0
  0
LINE
  8
0
  5
4A5E9
 10
114.874502
 20
261.719247
 30
0.0
 11
114.875058
 21
261.719247
 31
0.0
  0
LINE
  8
0
  5
4A5EA
 10
114.874502
 20
261.719247
 30
0.0
 11
114.874502
 21
262.825005
 31
0.0
  0
LINE
  8
0
  5
4A5EB
 10
114.874502
 20
262.825005
 30
0.0
 11
114.875058
 21
262.825005
 31
0.0
  0
LINE
  8
0
  5
4A5EC
 10
116.308983
 20
261.203079
 30
0.0
 11
116.198853
 21
261.277056
 31
0.0
  0
LINE
  8
0
  5
4A5ED
 10
116.198853
 20
261.277056
 30
0.0
 11
116.199409
 21
261.277056
 31
0.0
  0
LINE
  8
0
  5
4A5EE
 10
116.934727
 20
260.134587
 30
0.0
 11
116.934727
 21
260.760887
 31
0.0
  0
LINE
  8
0
  5
4A5EF
 10
116.934727
 20
260.760887
 30
0.0
 11
116.935283
 21
260.760887
 31
0.0
  0
LINE
  8
0
  5
4A5F0
 10
116.677199
 20
260.982261
 30
0.0
 11
116.934727
 21
260.760887
 31
0.0
  0
LINE
  8
0
  5
4A5F1
 10
116.934727
 20
260.760887
 30
0.0
 11
116.935283
 21
260.760887
 31
0.0
  0
LINE
  8
0
  5
4A5F2
 10
116.934727
 20
260.760887
 30
0.0
 11
117.044858
 21
260.834864
 31
0.0
  0
LINE
  8
0
  5
4A5F3
 10
117.044858
 20
260.834864
 30
0.0
 11
117.045414
 21
260.834864
 31
0.0
  0
LINE
  8
0
  5
4A5F4
 10
117.081568
 20
259.876503
 30
0.0
 11
117.265675
 21
259.95048
 31
0.0
  0
LINE
  8
0
  5
4A5F5
 10
117.265675
 20
259.95048
 30
0.0
 11
117.266232
 21
259.95048
 31
0.0
  0
LINE
  8
0
  5
4A5F6
 10
117.265675
 20
259.95048
 30
0.0
 11
117.265675
 21
260.061167
 31
0.0
  0
LINE
  8
0
  5
4A5F7
 10
117.265675
 20
260.061167
 30
0.0
 11
117.266232
 21
260.061167
 31
0.0
  0
LINE
  8
0
  5
4A5F8
 10
117.118278
 20
259.36089
 30
0.0
 11
117.118278
 21
259.839793
 31
0.0
  0
LINE
  8
0
  5
4A5F9
 10
117.118278
 20
259.839793
 30
0.0
 11
117.118834
 21
259.839793
 31
0.0
  0
LINE
  8
0
  5
4A5FA
 10
113.366599
 20
258.660614
 30
0.0
 11
114.065207
 21
259.066096
 31
0.0
  0
LINE
  8
0
  5
4A5FB
 10
114.065207
 20
259.066096
 30
0.0
 11
114.065763
 21
259.066096
 31
0.0
  0
LINE
  8
0
  5
4A5FC
 10
111.086112
 20
259.213493
 30
0.0
 11
112.630725
 21
258.218422
 31
0.0
  0
LINE
  8
0
  5
4A5FD
 10
112.630725
 20
258.218422
 30
0.0
 11
112.631281
 21
258.218422
 31
0.0
  0
LINE
  8
0
  5
4A5FE
 10
113.660838
 20
257.886917
 30
0.0
 11
113.697548
 21
257.886917
 31
0.0
  0
LINE
  8
0
  5
4A5FF
 10
113.697548
 20
257.886917
 30
0.0
 11
113.698104
 21
257.886917
 31
0.0
  0
LINE
  8
0
  5
4A600
 10
114.065207
 20
259.066096
 30
0.0
 11
114.911212
 21
258.587194
 31
0.0
  0
LINE
  8
0
  5
4A601
 10
114.911212
 20
258.587194
 30
0.0
 11
114.911768
 21
258.587194
 31
0.0
  0
LINE
  8
0
  5
4A602
 10
115.058609
 20
259.655685
 30
0.0
 11
115.757773
 21
260.061167
 31
0.0
  0
LINE
  8
0
  5
4A603
 10
115.757773
 20
260.061167
 30
0.0
 11
115.758329
 21
260.061167
 31
0.0
  0
LINE
  8
0
  5
4A604
 10
111.232953
 20
260.097877
 30
0.0
 11
111.086112
 21
259.98719
 31
0.0
  0
LINE
  8
0
  5
4A605
 10
111.086112
 20
259.98719
 30
0.0
 11
111.086669
 21
259.98719
 31
0.0
  0
LINE
  8
0
  5
4A606
 10
111.232953
 20
261.829934
 30
0.0
 11
111.086112
 21
261.719247
 31
0.0
  0
LINE
  8
0
  5
4A607
 10
111.086112
 20
261.719247
 30
0.0
 11
111.086669
 21
261.719247
 31
0.0
  0
LINE
  8
0
  5
4A608
 10
111.086112
 20
261.719247
 30
0.0
 11
111.086112
 21
260.908284
 31
0.0
  0
LINE
  8
0
  5
4A609
 10
111.086112
 20
260.908284
 30
0.0
 11
111.086669
 21
260.908284
 31
0.0
  0
LINE
  8
0
  5
4A60A
 10
111.086112
 20
263.451305
 30
0.0
 11
111.086112
 21
262.640342
 31
0.0
  0
LINE
  8
0
  5
4A60B
 10
111.086112
 20
262.640342
 30
0.0
 11
111.086669
 21
262.640342
 31
0.0
  0
LINE
  8
0
  5
4A60C
 10
114.801081
 20
265.625554
 30
0.0
 11
111.086112
 21
263.451305
 31
0.0
  0
LINE
  8
0
  5
4A60D
 10
111.086112
 20
263.451305
 30
0.0
 11
111.086669
 21
263.451305
 31
0.0
  0
LINE
  8
0
  5
4A60E
 10
111.232953
 20
260.798153
 30
0.0
 11
111.232953
 21
260.097877
 31
0.0
  0
LINE
  8
0
  5
4A60F
 10
111.232953
 20
260.097877
 30
0.0
 11
111.23351
 21
260.097877
 31
0.0
  0
LINE
  8
0
  5
4A610
 10
111.232953
 20
262.530211
 30
0.0
 11
111.232953
 21
261.829934
 31
0.0
  0
LINE
  8
0
  5
4A611
 10
111.232953
 20
261.829934
 30
0.0
 11
111.23351
 21
261.829934
 31
0.0
  0
LINE
  8
0
  5
4A612
 10
114.911212
 20
258.587194
 30
0.0
 11
114.911212
 21
258.218422
 31
0.0
  0
LINE
  8
0
  5
4A613
 10
114.911212
 20
258.218422
 30
0.0
 11
114.911768
 21
258.218422
 31
0.0
  0
LINE
  8
0
  5
4A614
 10
115.757773
 20
260.061167
 30
0.0
 11
115.757773
 21
260.208564
 31
0.0
  0
LINE
  8
0
  5
4A615
 10
115.757773
 20
260.208564
 30
0.0
 11
115.758329
 21
260.208564
 31
0.0
  0
LINE
  8
0
  5
4A616
 10
113.293179
 20
258.771301
 30
0.0
 11
114.065207
 21
259.213493
 31
0.0
  0
LINE
  8
0
  5
4A617
 10
114.065207
 20
259.213493
 30
0.0
 11
114.065763
 21
259.213493
 31
0.0
  0
LINE
  8
0
  5
4A618
 10
114.801081
 20
261.350476
 30
0.0
 11
113.366599
 21
260.540069
 31
0.0
  0
LINE
  8
0
  5
4A619
 10
113.366599
 20
260.540069
 30
0.0
 11
113.367155
 21
260.540069
 31
0.0
  0
LINE
  8
0
  5
4A61A
 10
112.005538
 20
259.729106
 30
0.0
 11
111.895407
 21
259.655685
 31
0.0
  0
LINE
  8
0
  5
4A61B
 10
111.895407
 20
259.655685
 30
0.0
 11
111.895963
 21
259.655685
 31
0.0
  0
LINE
  8
0
  5
4A61C
 10
113.366599
 20
258.034315
 30
0.0
 11
113.256468
 21
257.997604
 31
0.0
  0
LINE
  8
0
  5
4A61D
 10
113.256468
 20
257.997604
 30
0.0
 11
113.257025
 21
257.997604
 31
0.0
  0
LINE
  8
0
  5
4A61E
 10
113.256468
 20
257.997604
 30
0.0
 11
113.44002
 21
257.850207
 31
0.0
  0
LINE
  8
0
  5
4A61F
 10
113.44002
 20
257.850207
 30
0.0
 11
113.440576
 21
257.850207
 31
0.0
  0
LINE
  8
0
  5
4A620
 10
113.44002
 20
257.850207
 30
0.0
 11
113.697548
 21
258.034315
 31
0.0
  0
LINE
  8
0
  5
4A621
 10
113.697548
 20
258.034315
 30
0.0
 11
113.698104
 21
258.034315
 31
0.0
  0
LINE
  8
0
  5
4A622
 10
113.808235
 20
257.960338
 30
0.0
 11
114.175894
 21
258.181712
 31
0.0
  0
LINE
  8
0
  5
4A623
 10
114.175894
 20
258.181712
 30
0.0
 11
114.17645
 21
258.181712
 31
0.0
  0
LINE
  8
0
  5
4A624
 10
114.065207
 20
259.213493
 30
0.0
 11
115.021899
 21
258.660614
 31
0.0
  0
LINE
  8
0
  5
4A625
 10
115.021899
 20
258.660614
 30
0.0
 11
115.022455
 21
258.660614
 31
0.0
  0
LINE
  8
0
  5
4A626
 10
115.021899
 20
258.660614
 30
0.0
 11
115.867904
 21
259.139516
 31
0.0
  0
LINE
  8
0
  5
4A627
 10
115.867904
 20
259.139516
 30
0.0
 11
115.86846
 21
259.139516
 31
0.0
  0
LINE
  8
0
  5
4A628
 10
115.867904
 20
259.139516
 30
0.0
 11
114.948478
 21
259.729106
 31
0.0
  0
LINE
  8
0
  5
4A629
 10
114.948478
 20
259.729106
 30
0.0
 11
114.949035
 21
259.729106
 31
0.0
  0
LINE
  8
0
  5
4A62A
 10
114.948478
 20
259.729106
 30
0.0
 11
115.757773
 21
260.208564
 31
0.0
  0
LINE
  8
0
  5
4A62B
 10
115.757773
 20
260.208564
 30
0.0
 11
115.758329
 21
260.208564
 31
0.0
  0
LINE
  8
0
  5
4A62C
 10
116.934727
 20
260.134587
 30
0.0
 11
114.801081
 21
261.350476
 31
0.0
  0
LINE
  8
0
  5
4A62D
 10
114.801081
 20
261.350476
 30
0.0
 11
114.801637
 21
261.350476
 31
0.0
  0
LINE
  8
0
  5
4A62E
 10
116.750619
 20
259.655685
 30
0.0
 11
117.118278
 21
259.839793
 31
0.0
  0
LINE
  8
0
  5
4A62F
 10
117.118278
 20
259.839793
 30
0.0
 11
117.118834
 21
259.839793
 31
0.0
  0
LINE
  8
0
  5
4A630
 10
117.118278
 20
259.839793
 30
0.0
 11
116.971437
 21
259.913769
 31
0.0
  0
LINE
  8
0
  5
4A631
 10
116.971437
 20
259.913769
 30
0.0
 11
116.971993
 21
259.913769
 31
0.0
  0
LINE
  8
0
  5
4A632
 10
116.971437
 20
259.913769
 30
0.0
 11
117.265675
 21
260.061167
 31
0.0
  0
LINE
  8
0
  5
4A633
 10
117.265675
 20
260.061167
 30
0.0
 11
117.266232
 21
260.061167
 31
0.0
  0
LINE
  8
0
  5
4A634
 10
117.265675
 20
260.061167
 30
0.0
 11
117.044858
 21
260.171298
 31
0.0
  0
LINE
  8
0
  5
4A635
 10
117.044858
 20
260.171298
 30
0.0
 11
117.045414
 21
260.171298
 31
0.0
  0
LINE
  8
0
  5
4A636
 10
117.044858
 20
260.171298
 30
0.0
 11
116.934727
 21
260.134587
 31
0.0
  0
LINE
  8
0
  5
4A637
 10
116.934727
 20
260.134587
 30
0.0
 11
116.935283
 21
260.134587
 31
0.0
  0
LINE
  8
0
  5
4A638
 10
114.911212
 20
258.218422
 30
0.0
 11
115.021899
 21
258.145002
 31
0.0
  0
LINE
  8
0
  5
4A639
 10
115.021899
 20
258.145002
 30
0.0
 11
115.022455
 21
258.145002
 31
0.0
  0
LINE
  8
0
  5
4A63A
 10
115.021899
 20
258.145002
 30
0.0
 11
115.867904
 21
258.660614
 31
0.0
  0
LINE
  8
0
  5
4A63B
 10
115.867904
 20
258.660614
 30
0.0
 11
115.86846
 21
258.660614
 31
0.0
  0
LINE
  8
0
  5
4A63C
 10
115.867904
 20
258.660614
 30
0.0
 11
115.867904
 21
259.139516
 31
0.0
  0
LINE
  8
0
  5
4A63D
 10
115.867904
 20
259.139516
 30
0.0
 11
115.86846
 21
259.139516
 31
0.0
  0
LINE
  8
0
  5
4A63E
 10
115.757773
 20
260.061167
 30
0.0
 11
116.603778
 21
259.581708
 31
0.0
  0
LINE
  8
0
  5
4A63F
 10
116.603778
 20
259.581708
 30
0.0
 11
116.604334
 21
259.581708
 31
0.0
  0
LINE
  8
0
  5
4A640
 10
116.750619
 20
259.655685
 30
0.0
 11
115.757773
 21
260.208564
 31
0.0
  0
LINE
  8
0
  5
4A641
 10
115.757773
 20
260.208564
 30
0.0
 11
115.758329
 21
260.208564
 31
0.0
  0
LINE
  8
0
  5
4A642
 10
116.603778
 20
259.581708
 30
0.0
 11
116.603778
 21
259.213493
 31
0.0
  0
LINE
  8
0
  5
4A643
 10
116.603778
 20
259.213493
 30
0.0
 11
116.604334
 21
259.213493
 31
0.0
  0
LINE
  8
0
  5
4A644
 10
116.750619
 20
259.139516
 30
0.0
 11
116.750619
 21
259.655685
 31
0.0
  0
LINE
  8
0
  5
4A645
 10
116.750619
 20
259.655685
 30
0.0
 11
116.751175
 21
259.655685
 31
0.0
  0
LINE
  8
0
  5
4A646
 10
116.603778
 20
259.213493
 30
0.0
 11
116.750619
 21
259.139516
 31
0.0
  0
LINE
  8
0
  5
4A647
 10
116.750619
 20
259.139516
 30
0.0
 11
116.751175
 21
259.139516
 31
0.0
  0
LINE
  8
0
  5
4A648
 10
116.750619
 20
259.139516
 30
0.0
 11
117.118278
 21
259.36089
 31
0.0
  0
LINE
  8
0
  5
4A649
 10
117.118278
 20
259.36089
 30
0.0
 11
117.118834
 21
259.36089
 31
0.0
  0
LINE
  8
0
  5
4A64A
 10
116.308983
 20
261.350476
 30
0.0
 11
116.198853
 21
261.387743
 31
0.0
  0
LINE
  8
0
  5
4A64B
 10
116.198853
 20
261.387743
 30
0.0
 11
116.199409
 21
261.387743
 31
0.0
  0
LINE
  8
0
  5
4A64C
 10
117.044858
 20
260.171298
 30
0.0
 11
117.044858
 21
260.834864
 31
0.0
  0
LINE
  8
0
  5
4A64D
 10
117.044858
 20
260.834864
 30
0.0
 11
117.045414
 21
260.834864
 31
0.0
  0
LINE
  8
0
  5
4A64E
 10
117.044858
 20
260.834864
 30
0.0
 11
116.787329
 21
261.055681
 31
0.0
  0
LINE
  8
0
  5
4A64F
 10
116.787329
 20
261.055681
 30
0.0
 11
116.787886
 21
261.055681
 31
0.0
  0
LINE
  8
0
  5
4A650
 10
116.308983
 20
261.203079
 30
0.0
 11
116.677199
 21
260.982261
 31
0.0
  0
LINE
  8
0
  5
4A651
 10
116.677199
 20
260.982261
 30
0.0
 11
116.677755
 21
260.982261
 31
0.0
  0
LINE
  8
0
  5
4A652
 10
116.677199
 20
260.982261
 30
0.0
 11
116.787329
 21
261.055681
 31
0.0
  0
LINE
  8
0
  5
4A653
 10
116.787329
 20
261.055681
 30
0.0
 11
116.787886
 21
261.055681
 31
0.0
  0
LINE
  8
0
  5
4A654
 10
116.787329
 20
261.055681
 30
0.0
 11
116.750619
 21
261.092948
 31
0.0
  0
LINE
  8
0
  5
4A655
 10
116.750619
 20
261.092948
 30
0.0
 11
116.751175
 21
261.092948
 31
0.0
  0
LINE
  8
0
  5
4A656
 10
116.162142
 20
261.940622
 30
0.0
 11
114.911212
 21
262.677608
 31
0.0
  0
LINE
  8
0
  5
4A657
 10
114.911212
 20
262.677608
 30
0.0
 11
114.911768
 21
262.677608
 31
0.0
  0
LINE
  8
0
  5
4A658
 10
116.162142
 20
261.240345
 30
0.0
 11
116.162142
 21
261.940622
 31
0.0
  0
LINE
  8
0
  5
4A659
 10
116.162142
 20
261.940622
 30
0.0
 11
116.162698
 21
261.940622
 31
0.0
  0
LINE
  8
0
  5
4A65A
 10
114.911212
 20
261.903355
 30
0.0
 11
116.162142
 21
261.240345
 31
0.0
  0
LINE
  8
0
  5
4A65B
 10
116.162142
 20
261.240345
 30
0.0
 11
116.162698
 21
261.240345
 31
0.0
  0
LINE
  8
0
  5
4A65C
 10
116.162142
 20
261.240345
 30
0.0
 11
116.198853
 21
261.277056
 31
0.0
  0
LINE
  8
0
  5
4A65D
 10
116.198853
 20
261.277056
 30
0.0
 11
116.199409
 21
261.277056
 31
0.0
  0
LINE
  8
0
  5
4A65E
 10
117.044858
 20
261.129658
 30
0.0
 11
117.044858
 21
263.340618
 31
0.0
  0
LINE
  8
0
  5
4A65F
 10
117.044858
 20
263.340618
 30
0.0
 11
117.045414
 21
263.340618
 31
0.0
  0
LINE
  8
0
  5
4A660
 10
116.787329
 20
263.561992
 30
0.0
 11
116.750619
 21
263.561992
 31
0.0
  0
LINE
  8
0
  5
4A661
 10
116.750619
 20
263.561992
 30
0.0
 11
116.751175
 21
263.561992
 31
0.0
  0
LINE
  8
0
  5
4A662
 10
117.044858
 20
263.340618
 30
0.0
 11
116.787329
 21
263.561992
 31
0.0
  0
LINE
  8
0
  5
4A663
 10
116.787329
 20
263.561992
 30
0.0
 11
116.787886
 21
263.561992
 31
0.0
  0
LINE
  8
0
  5
4A664
 10
116.308983
 20
263.082534
 30
0.0
 11
116.198853
 21
263.1198
 31
0.0
  0
LINE
  8
0
  5
4A665
 10
116.198853
 20
263.1198
 30
0.0
 11
116.199409
 21
263.1198
 31
0.0
  0
LINE
  8
0
  5
4A666
 10
116.198853
 20
263.009113
 30
0.0
 11
116.198853
 21
263.709389
 31
0.0
  0
LINE
  8
0
  5
4A667
 10
116.198853
 20
263.709389
 30
0.0
 11
116.199409
 21
263.709389
 31
0.0
  0
LINE
  8
0
  5
4A668
 10
116.198853
 20
263.709389
 30
0.0
 11
115.536955
 21
264.114315
 31
0.0
  0
LINE
  8
0
  5
4A669
 10
115.536955
 20
264.114315
 30
0.0
 11
115.537511
 21
264.114315
 31
0.0
  0
LINE
  8
0
  5
4A66A
 10
115.095319
 20
262.787739
 30
0.0
 11
116.308983
 21
262.050752
 31
0.0
  0
LINE
  8
0
  5
4A66B
 10
116.308983
 20
262.050752
 30
0.0
 11
116.30954
 21
262.050752
 31
0.0
  0
LINE
  8
0
  5
4A66C
 10
116.308983
 20
262.935136
 30
0.0
 11
116.198853
 21
263.009113
 31
0.0
  0
LINE
  8
0
  5
4A66D
 10
116.198853
 20
263.009113
 30
0.0
 11
116.199409
 21
263.009113
 31
0.0
  0
LINE
  8
0
  5
4A66E
 10
116.308983
 20
262.050752
 30
0.0
 11
116.308983
 21
261.313766
 31
0.0
  0
LINE
  8
0
  5
4A66F
 10
116.308983
 20
261.313766
 30
0.0
 11
116.30954
 21
261.313766
 31
0.0
  0
LINE
  8
0
  5
4A670
 10
116.308983
 20
261.313766
 30
0.0
 11
116.677199
 21
261.129658
 31
0.0
  0
LINE
  8
0
  5
4A671
 10
116.677199
 20
261.129658
 30
0.0
 11
116.677755
 21
261.129658
 31
0.0
  0
LINE
  8
0
  5
4A672
 10
116.934727
 20
261.055681
 30
0.0
 11
116.934727
 21
263.267197
 31
0.0
  0
LINE
  8
0
  5
4A673
 10
116.934727
 20
263.267197
 30
0.0
 11
116.935283
 21
263.267197
 31
0.0
  0
LINE
  8
0
  5
4A674
 10
116.677199
 20
261.129658
 30
0.0
 11
116.934727
 21
261.055681
 31
0.0
  0
LINE
  8
0
  5
4A675
 10
116.934727
 20
261.055681
 30
0.0
 11
116.935283
 21
261.055681
 31
0.0
  0
LINE
  8
0
  5
4A676
 10
116.677199
 20
263.488015
 30
0.0
 11
116.308983
 21
263.672123
 31
0.0
  0
LINE
  8
0
  5
4A677
 10
116.308983
 20
263.672123
 30
0.0
 11
116.30954
 21
263.672123
 31
0.0
  0
LINE
  8
0
  5
4A678
 10
116.308983
 20
263.672123
 30
0.0
 11
116.308983
 21
262.935136
 31
0.0
  0
LINE
  8
0
  5
4A679
 10
116.308983
 20
262.935136
 30
0.0
 11
116.30954
 21
262.935136
 31
0.0
  0
LINE
  8
0
  5
4A67A
 10
116.934727
 20
263.267197
 30
0.0
 11
116.677199
 21
263.488015
 31
0.0
  0
LINE
  8
0
  5
4A67B
 10
116.677199
 20
263.488015
 30
0.0
 11
116.677755
 21
263.488015
 31
0.0
  0
LINE
  8
0
  5
4A67C
 10
112.630725
 20
262.566921
 30
0.0
 11
112.814833
 21
262.566921
 31
0.0
  0
LINE
  8
0
  5
4A67D
 10
112.814833
 20
262.566921
 30
0.0
 11
112.815389
 21
262.566921
 31
0.0
  0
LINE
  8
0
  5
4A67E
 10
112.814833
 20
262.566921
 30
0.0
 11
112.924963
 21
262.640342
 31
0.0
  0
LINE
  8
0
  5
4A67F
 10
112.924963
 20
262.640342
 30
0.0
 11
112.92552
 21
262.640342
 31
0.0
  0
LINE
  8
0
  5
4A680
 10
112.924963
 20
262.640342
 30
0.0
 11
112.741412
 21
262.603631
 31
0.0
  0
LINE
  8
0
  5
4A681
 10
112.741412
 20
262.603631
 30
0.0
 11
112.741968
 21
262.603631
 31
0.0
  0
LINE
  8
0
  5
4A682
 10
112.814833
 20
262.566921
 30
0.0
 11
112.888253
 21
262.492944
 31
0.0
  0
LINE
  8
0
  5
4A683
 10
112.888253
 20
262.492944
 30
0.0
 11
112.888809
 21
262.492944
 31
0.0
  0
LINE
  8
0
  5
4A684
 10
112.888253
 20
262.492944
 30
0.0
 11
112.99894
 21
262.566921
 31
0.0
  0
LINE
  8
0
  5
4A685
 10
112.99894
 20
262.566921
 30
0.0
 11
112.999496
 21
262.566921
 31
0.0
  0
LINE
  8
0
  5
4A686
 10
112.99894
 20
262.566921
 30
0.0
 11
112.924963
 21
262.640342
 31
0.0
  0
LINE
  8
0
  5
4A687
 10
112.924963
 20
262.640342
 30
0.0
 11
112.92552
 21
262.640342
 31
0.0
  0
LINE
  8
0
  5
4A688
 10
112.99894
 20
262.456234
 30
0.0
 11
112.99894
 21
262.566921
 31
0.0
  0
LINE
  8
0
  5
4A689
 10
112.99894
 20
262.566921
 30
0.0
 11
112.999496
 21
262.566921
 31
0.0
  0
LINE
  8
0
  5
4A68A
 10
113.697548
 20
262.235416
 30
0.0
 11
113.145781
 21
262.530211
 31
0.0
  0
LINE
  8
0
  5
4A68B
 10
113.145781
 20
262.530211
 30
0.0
 11
113.146338
 21
262.530211
 31
0.0
  0
LINE
  8
0
  5
4A68C
 10
113.697548
 20
262.088019
 30
0.0
 11
113.808235
 21
262.014042
 31
0.0
  0
LINE
  8
0
  5
4A68D
 10
113.808235
 20
262.014042
 30
0.0
 11
113.808791
 21
262.014042
 31
0.0
  0
LINE
  8
0
  5
4A68E
 10
113.808235
 20
262.014042
 30
0.0
 11
113.808235
 21
262.530211
 31
0.0
  0
LINE
  8
0
  5
4A68F
 10
113.808235
 20
262.530211
 30
0.0
 11
113.808791
 21
262.530211
 31
0.0
  0
LINE
  8
0
  5
4A690
 10
113.808235
 20
262.530211
 30
0.0
 11
113.697548
 21
262.603631
 31
0.0
  0
LINE
  8
0
  5
4A691
 10
113.697548
 20
262.603631
 30
0.0
 11
113.698104
 21
262.603631
 31
0.0
  0
LINE
  8
0
  5
4A692
 10
113.697548
 20
262.603631
 30
0.0
 11
113.697548
 21
262.235416
 31
0.0
  0
LINE
  8
0
  5
4A693
 10
113.697548
 20
262.235416
 30
0.0
 11
113.698104
 21
262.235416
 31
0.0
  0
LINE
  8
0
  5
4A694
 10
112.667435
 20
261.682537
 30
0.0
 11
112.99894
 21
261.461163
 31
0.0
  0
LINE
  8
0
  5
4A695
 10
112.99894
 20
261.461163
 30
0.0
 11
112.999496
 21
261.461163
 31
0.0
  0
LINE
  8
0
  5
4A696
 10
111.637879
 20
259.876503
 30
0.0
 11
111.637879
 21
259.95048
 31
0.0
  0
LINE
  8
0
  5
4A697
 10
111.637879
 20
259.95048
 30
0.0
 11
111.638435
 21
259.95048
 31
0.0
  0
LINE
  8
0
  5
4A698
 10
116.603778
 20
263.930207
 30
0.0
 11
115.757773
 21
264.372399
 31
0.0
  0
LINE
  8
0
  5
4A699
 10
115.757773
 20
264.372399
 30
0.0
 11
115.758329
 21
264.372399
 31
0.0
  0
LINE
  8
0
  5
4A69A
 10
115.757773
 20
264.261712
 30
0.0
 11
116.750619
 21
263.709389
 31
0.0
  0
LINE
  8
0
  5
4A69B
 10
116.750619
 20
263.709389
 30
0.0
 11
116.751175
 21
263.709389
 31
0.0
  0
LINE
  8
0
  5
4A69C
 10
116.750619
 20
263.709389
 30
0.0
 11
116.750619
 21
264.225002
 31
0.0
  0
LINE
  8
0
  5
4A69D
 10
116.750619
 20
264.225002
 30
0.0
 11
116.751175
 21
264.225002
 31
0.0
  0
LINE
  8
0
  5
4A69E
 10
114.175894
 20
258.181712
 30
0.0
 11
113.366599
 21
258.660614
 31
0.0
  0
LINE
  8
0
  5
4A69F
 10
113.366599
 20
258.660614
 30
0.0
 11
113.367155
 21
258.660614
 31
0.0
  0
LINE
  8
0
  5
4A6A0
 10
113.697548
 20
257.886917
 30
0.0
 11
113.697548
 21
257.518146
 31
0.0
  0
LINE
  8
0
  5
4A6A1
 10
113.697548
 20
257.518146
 30
0.0
 11
113.698104
 21
257.518146
 31
0.0
  0
LINE
  8
0
  5
4A6A2
 10
113.697548
 20
257.518146
 30
0.0
 11
113.808235
 21
257.444725
 31
0.0
  0
LINE
  8
0
  5
4A6A3
 10
113.808235
 20
257.444725
 30
0.0
 11
113.808791
 21
257.444725
 31
0.0
  0
LINE
  8
0
  5
4A6A4
 10
113.808235
 20
257.444725
 30
0.0
 11
114.175894
 21
257.665543
 31
0.0
  0
LINE
  8
0
  5
4A6A5
 10
114.175894
 20
257.665543
 30
0.0
 11
114.17645
 21
257.665543
 31
0.0
  0
LINE
  8
0
  5
4A6A6
 10
114.911212
 20
262.935136
 30
0.0
 11
114.065207
 21
263.377328
 31
0.0
  0
LINE
  8
0
  5
4A6A7
 10
114.065207
 20
263.377328
 30
0.0
 11
114.065763
 21
263.377328
 31
0.0
  0
LINE
  8
0
  5
4A6A8
 10
114.065207
 20
263.267197
 30
0.0
 11
115.021899
 21
262.751029
 31
0.0
  0
LINE
  8
0
  5
4A6A9
 10
115.021899
 20
262.751029
 30
0.0
 11
115.022455
 21
262.751029
 31
0.0
  0
LINE
  8
0
  5
4A6AA
 10
115.021899
 20
263.229931
 30
0.0
 11
114.911212
 21
263.303908
 31
0.0
  0
LINE
  8
0
  5
4A6AB
 10
114.911212
 20
263.303908
 30
0.0
 11
114.911768
 21
263.303908
 31
0.0
  0
LINE
  8
0
  5
4A6AC
 10
114.911212
 20
263.303908
 30
0.0
 11
114.911212
 21
262.935136
 31
0.0
  0
LINE
  8
0
  5
4A6AD
 10
114.911212
 20
262.935136
 30
0.0
 11
114.911768
 21
262.935136
 31
0.0
  0
LINE
  8
0
  5
4A6AE
 10
115.021899
 20
262.751029
 30
0.0
 11
115.021899
 21
263.229931
 31
0.0
  0
LINE
  8
0
  5
4A6AF
 10
115.021899
 20
263.229931
 30
0.0
 11
115.022455
 21
263.229931
 31
0.0
  0
LINE
  8
0
  5
4A6B0
 10
115.757773
 20
264.261712
 30
0.0
 11
115.757773
 21
264.372399
 31
0.0
  0
LINE
  8
0
  5
4A6B1
 10
115.757773
 20
264.372399
 30
0.0
 11
115.758329
 21
264.372399
 31
0.0
  0
LINE
  8
0
  5
4A6B2
 10
116.603778
 20
264.298979
 30
0.0
 11
116.603778
 21
263.930207
 31
0.0
  0
LINE
  8
0
  5
4A6B3
 10
116.603778
 20
263.930207
 30
0.0
 11
116.604334
 21
263.930207
 31
0.0
  0
LINE
  8
0
  5
4A6B4
 10
116.971437
 20
264.483086
 30
0.0
 11
116.603778
 21
264.298979
 31
0.0
  0
LINE
  8
0
  5
4A6B5
 10
116.603778
 20
264.298979
 30
0.0
 11
116.604334
 21
264.298979
 31
0.0
  0
LINE
  8
0
  5
4A6B6
 10
116.603778
 20
264.298979
 30
0.0
 11
116.750619
 21
264.225002
 31
0.0
  0
LINE
  8
0
  5
4A6B7
 10
116.750619
 20
264.225002
 30
0.0
 11
116.751175
 21
264.225002
 31
0.0
  0
LINE
  8
0
  5
4A6B8
 10
117.118278
 20
264.446376
 30
0.0
 11
116.971437
 21
264.483086
 31
0.0
  0
LINE
  8
0
  5
4A6B9
 10
116.971437
 20
264.483086
 30
0.0
 11
116.971993
 21
264.483086
 31
0.0
  0
LINE
  8
0
  5
4A6BA
 10
116.750619
 20
264.225002
 30
0.0
 11
117.118278
 21
264.446376
 31
0.0
  0
LINE
  8
0
  5
4A6BB
 10
117.118278
 20
264.446376
 30
0.0
 11
117.118834
 21
264.446376
 31
0.0
  0
LINE
  8
0
  5
4A6BC
 10
116.677199
 20
263.488015
 30
0.0
 11
116.787329
 21
263.561992
 31
0.0
  0
LINE
  8
0
  5
4A6BD
 10
116.787329
 20
263.561992
 30
0.0
 11
116.787886
 21
263.561992
 31
0.0
  0
LINE
  8
0
  5
4A6BE
 10
127.494136
 20
260.141945
 30
0.0
 11
127.520207
 21
260.156622
 31
0.0
210
0.0000000000000003
220
0.0000000000000001
230
-1.0
  0
LINE
  8
0
  5
4A6BF
 10
127.520207
 20
260.156622
 30
0.0
 11
127.545276
 21
260.164211
 31
0.0
210
0.0000000000000003
220
0.0000000000000001
230
-1.0
  0
LINE
  8
0
  5
4A6C0
 10
127.545276
 20
260.164211
 30
0.0
 11
127.56838
 21
260.164421
 31
0.0
210
0.0000000000000003
220
0.0000000000000001
230
-1.0
  0
LINE
  8
0
  5
4A6C1
 10
127.56838
 20
260.164421
 30
0.0
 11
127.58863
 21
260.157244
 31
0.0
210
0.0000000000000003
220
0.0000000000000001
230
-1.0
  0
LINE
  8
0
  5
4A6C2
 10
127.58863
 20
260.157244
 30
0.0
 11
127.60525
 21
260.142956
 31
0.0
210
0.0000000000000003
220
0.0000000000000001
230
-1.0
  0
LINE
  8
0
  5
4A6C3
 10
127.60525
 20
260.142956
 30
0.0
 11
127.617599
 21
260.122106
 31
0.0
210
0.0000000000000003
220
0.0000000000000001
230
-1.0
  0
LINE
  8
0
  5
4A6C4
 10
127.617599
 20
260.122106
 30
0.0
 11
127.625203
 21
260.095494
 31
0.0
210
0.0000000000000003
220
0.0000000000000001
230
-1.0
  0
LINE
  8
0
  5
4A6C5
 10
127.625203
 20
260.095494
 30
0.0
 11
127.627771
 21
260.064144
 31
0.0
210
0.0000000000000003
220
0.0000000000000001
230
-1.0
  0
LINE
  8
0
  5
4A6C6
 10
127.239319
 20
256.344175
 30
0.0
 11
127.262524
 21
256.362721
 31
0.0
  0
LINE
  8
0
  5
4A6C7
 10
127.262524
 20
256.362721
 30
0.0
 11
127.285025
 21
256.385861
 31
0.0
  0
LINE
  8
0
  5
4A6C8
 10
127.285025
 20
256.385861
 30
0.0
 11
127.306136
 21
256.412892
 31
0.0
  0
LINE
  8
0
  5
4A6C9
 10
127.306136
 20
256.412892
 30
0.0
 11
127.325218
 21
256.442993
 31
0.0
  0
LINE
  8
0
  5
4A6CA
 10
127.325218
 20
256.442993
 30
0.0
 11
127.341689
 21
256.475249
 31
0.0
  0
LINE
  8
0
  5
4A6CB
 10
127.341689
 20
256.475249
 30
0.0
 11
127.35505
 21
256.508681
 31
0.0
  0
LINE
  8
0
  5
4A6CC
 10
127.35505
 20
256.508681
 30
0.0
 11
127.364895
 21
256.542271
 31
0.0
  0
LINE
  8
0
  5
4A6CD
 10
127.364895
 20
256.542271
 30
0.0
 11
127.370924
 21
256.575001
 31
0.0
  0
LINE
  8
0
  5
4A6CE
 10
127.370924
 20
256.575001
 30
0.0
 11
127.372954
 21
256.605874
 31
0.0
  0
LINE
  8
0
  5
4A6CF
 10
127.494136
 20
256.220728
 30
0.0
 11
127.520207
 21
256.241928
 31
0.0
  0
LINE
  8
0
  5
4A6D0
 10
127.520207
 20
256.241928
 30
0.0
 11
127.545276
 21
256.268837
 31
0.0
  0
LINE
  8
0
  5
4A6D1
 10
127.545276
 20
256.268837
 30
0.0
 11
127.56838
 21
256.30042
 31
0.0
  0
LINE
  8
0
  5
4A6D2
 10
127.56838
 20
256.30042
 30
0.0
 11
127.58863
 21
256.335465
 31
0.0
  0
LINE
  8
0
  5
4A6D3
 10
127.58863
 20
256.335465
 30
0.0
 11
127.60525
 21
256.372623
 31
0.0
  0
LINE
  8
0
  5
4A6D4
 10
127.60525
 20
256.372623
 30
0.0
 11
127.617599
 21
256.410467
 31
0.0
  0
LINE
  8
0
  5
4A6D5
 10
127.617599
 20
256.410467
 30
0.0
 11
127.625203
 21
256.447544
 31
0.0
  0
LINE
  8
0
  5
4A6D6
 10
127.625203
 20
256.447544
 30
0.0
 11
127.627771
 21
256.482427
 31
0.0
  0
LINE
  8
0
  5
4A6D7
 10
128.255858
 20
260.666055
 30
0.0
 11
128.23329
 21
260.953907
 31
0.0
  0
LINE
  8
0
  5
4A6D8
 10
128.23329
 20
260.953907
 30
0.0
 11
128.166262
 21
261.255002
 31
0.0
  0
LINE
  8
0
  5
4A6D9
 10
128.166262
 20
261.255002
 30
0.0
 11
128.056782
 21
261.560322
 31
0.0
  0
LINE
  8
0
  5
4A6DA
 10
128.255858
 20
256.744839
 30
0.0
 11
128.23329
 21
256.478853
 31
0.0
210
-0.0000000000000001
220
0.0
230
-1.0
  0
LINE
  8
0
  5
4A6DB
 10
128.23329
 20
256.478853
 30
0.0
 11
128.166262
 21
256.242702
 31
0.0
210
-0.0000000000000001
220
0.0
230
-1.0
  0
LINE
  8
0
  5
4A6DC
 10
128.166262
 20
256.242702
 30
0.0
 11
128.056782
 21
256.043458
 31
0.0
210
-0.0000000000000001
220
0.0
230
-1.0
  0
LINE
  8
0
  5
4A6DD
 10
123.912703
 20
257.677707
 30
0.0
 11
123.890135
 21
257.965559
 31
0.0
  0
LINE
  8
0
  5
4A6DE
 10
123.890135
 20
257.965559
 30
0.0
 11
123.823107
 21
258.266654
 31
0.0
  0
LINE
  8
0
  5
4A6DF
 10
123.823107
 20
258.266654
 30
0.0
 11
123.713627
 21
258.571974
 31
0.0
  0
LINE
  8
0
  5
4A6E0
 10
123.912703
 20
253.75649
 30
0.0
 11
123.890135
 21
253.490505
 31
0.0
210
-0.0000000000000001
220
0.0
230
-1.0
  0
LINE
  8
0
  5
4A6E1
 10
123.890135
 20
253.490505
 30
0.0
 11
123.823107
 21
253.254354
 31
0.0
210
-0.0000000000000001
220
0.0
230
-1.0
  0
LINE
  8
0
  5
4A6E2
 10
123.823107
 20
253.254354
 30
0.0
 11
123.713627
 21
253.05511
 31
0.0
210
-0.0000000000000001
220
0.0
230
-1.0
  0
LINE
  8
0
  5
4A6E3
 10
124.674426
 20
258.201817
 30
0.0
 11
124.65122
 21
258.183272
 31
0.0
  0
LINE
  8
0
  5
4A6E4
 10
124.65122
 20
258.183272
 30
0.0
 11
124.62872
 21
258.160132
 31
0.0
  0
LINE
  8
0
  5
4A6E5
 10
124.62872
 20
258.160132
 30
0.0
 11
124.607608
 21
258.133101
 31
0.0
  0
LINE
  8
0
  5
4A6E6
 10
124.607608
 20
258.133101
 30
0.0
 11
124.588526
 21
258.103
 31
0.0
  0
LINE
  8
0
  5
4A6E7
 10
124.588526
 20
258.103
 30
0.0
 11
124.572055
 21
258.070744
 31
0.0
  0
LINE
  8
0
  5
4A6E8
 10
124.572055
 20
258.070744
 30
0.0
 11
124.558694
 21
258.037312
 31
0.0
  0
LINE
  8
0
  5
4A6E9
 10
124.558694
 20
258.037312
 30
0.0
 11
124.548849
 21
258.003722
 31
0.0
  0
LINE
  8
0
  5
4A6EA
 10
124.548849
 20
258.003722
 30
0.0
 11
124.54282
 21
257.970992
 31
0.0
  0
LINE
  8
0
  5
4A6EB
 10
124.54282
 20
257.970992
 30
0.0
 11
124.54079
 21
257.940119
 31
0.0
  0
LINE
  8
0
  5
4A6EC
 10
124.674426
 20
254.280601
 30
0.0
 11
124.65122
 21
254.267213
 31
0.0
210
0.0000000000000003
220
0.0000000000000001
230
-1.0
  0
LINE
  8
0
  5
4A6ED
 10
124.65122
 20
254.267213
 30
0.0
 11
124.62872
 21
254.259389
 31
0.0
210
0.0000000000000003
220
0.0000000000000001
230
-1.0
  0
LINE
  8
0
  5
4A6EE
 10
124.62872
 20
254.259389
 30
0.0
 11
124.607608
 21
254.257368
 31
0.0
210
0.0000000000000003
220
0.0000000000000001
230
-1.0
  0
LINE
  8
0
  5
4A6EF
 10
124.607608
 20
254.257368
 30
0.0
 11
124.588526
 21
254.261211
 31
0.0
210
0.0000000000000003
220
0.0000000000000001
230
-1.0
  0
LINE
  8
0
  5
4A6F0
 10
124.588526
 20
254.261211
 30
0.0
 11
124.572055
 21
254.2708
 31
0.0
210
0.0000000000000003
220
0.0000000000000001
230
-1.0
  0
LINE
  8
0
  5
4A6F1
 10
124.572055
 20
254.2708
 30
0.0
 11
124.558694
 21
254.285845
 31
0.0
210
0.0000000000000003
220
0.0000000000000001
230
-1.0
  0
LINE
  8
0
  5
4A6F2
 10
124.558694
 20
254.285845
 30
0.0
 11
124.548849
 21
254.305889
 31
0.0
210
0.0000000000000003
220
0.0000000000000001
230
-1.0
  0
LINE
  8
0
  5
4A6F3
 10
124.548849
 20
254.305889
 30
0.0
 11
124.54282
 21
254.330321
 31
0.0
210
0.0000000000000003
220
0.0000000000000001
230
-1.0
  0
LINE
  8
0
  5
4A6F4
 10
124.54282
 20
254.330321
 30
0.0
 11
124.54079
 21
254.358401
 31
0.0
210
0.0000000000000003
220
0.0000000000000001
230
-1.0
  0
ENDSEC
  0
EOF
