  0
SECTION
  2
HEADER
  9
$ACADVER
  1
AC1009
  9
$INSBASE
 10
0.0
 20
0.0
 30
0.0
  9
$EXTMIN
 10
107.89363
 20
251.288844
 30
0.0
  9
$EXTMAX
 10
115.769193
 20
261.541744
 30
0.0
  9
$LIMMIN
 10
107.685837
 20
250.995166
  9
$LIMMAX
 10
116.092696
 20
261.91986
  9
$ORTHOMODE
 70
     0
  9
$REGENMODE
 70
     1
  9
$FILLMODE
 70
     1
  9
$QTEXTMODE
 70
     0
  9
$MIRRTEXT
 70
     1
  9
$DRAGMODE
 70
     2
  9
$LTSCALE
 40
1.0
  9
$OSMODE
 70
     1
  9
$ATTMODE
 70
     1
  9
$TEXTSIZE
 40
0.2
  9
$TRACEWID
 40
0.05
  9
$TEXTSTYLE
  7
STANDARD
  9
$CLAYER
  8
0
  9
$CELTYPE
  6
BYLAYER
  9
$CECOLOR
 62
   256
  9
$DIMSCALE
 40
4.5
  9
$DIMASZ
 40
0.18
  9
$DIMEXO
 40
0.0625
  9
$DIMDLI
 40
0.38
  9
$DIMRND
 40
0.0
  9
$DIMDLE
 40
0.0
  9
$DIMEXE
 40
0.18
  9
$DIMTP
 40
0.0
  9
$DIMTM
 40
0.0
  9
$DIMTXT
 40
0.45
  9
$DIMCEN
 40
0.09
  9
$DIMTSZ
 40
0.0
  9
$DIMTOL
 70
     0
  9
$DIMLIM
 70
     0
  9
$DIMTIH
 70
     1
  9
$DIMTOH
 70
     1
  9
$DIMSE1
 70
     0
  9
$DIMSE2
 70
     0
  9
$DIMTAD
 70
     1
  9
$DIMZIN
 70
     0
  9
$DIMBLK
  1

  9
$DIMASO
 70
     1
  9
$DIMSHO
 70
     1
  9
$DIMPOST
  1

  9
$DIMAPOST
  1

  9
$DIMALT
 70
     0
  9
$DIMALTD
 70
     2
  9
$DIMALTF
 40
25.4
  9
$DIMLFAC
 40
1.0
  9
$DIMTOFL
 70
     0
  9
$DIMTVP
 40
0.0
  9
$DIMTIX
 70
     0
  9
$DIMSOXD
 70
     0
  9
$DIMSAH
 70
     0
  9
$DIMBLK1
  1

  9
$DIMBLK2
  1

  9
$DIMSTYLE
  2
*UNNAMED
  9
$DIMCLRD
 70
     0
  9
$DIMCLRE
 70
     0
  9
$DIMCLRT
 70
     0
  9
$DIMTFAC
 40
1.0
  9
$DIMGAP
 40
0.09
  9
$LUNITS
 70
     2
  9
$LUPREC
 70
     4
  9
$SKETCHINC
 40
0.1
  9
$FILLETRAD
 40
0.0
  9
$AUNITS
 70
     0
  9
$AUPREC
 70
     0
  9
$MENU
  1
acad
  9
$ELEVATION
 40
0.0
  9
$PELEVATION
 40
0.0
  9
$THICKNESS
 40
0.0
  9
$LIMCHECK
 70
     0
  9
$BLIPMODE
 70
     1
  9
$CHAMFERA
 40
0.0
  9
$CHAMFERB
 40
0.0
  9
$SKPOLY
 70
     0
  9
$TDCREATE
 40
2451219.369155787
  9
$TDUPDATE
 40
2451219.385198611
  9
$TDINDWG
 40
0.0156212963
  9
$TDUSRTIMER
 40
0.0156212963
  9
$USRTIMER
 70
     1
  9
$ANGBASE
 50
0.0
  9
$ANGDIR
 70
     0
  9
$PDMODE
 70
     0
  9
$PDSIZE
 40
0.0
  9
$PLINEWID
 40
0.0
  9
$COORDS
 70
     1
  9
$SPLFRAME
 70
     0
  9
$SPLINETYPE
 70
     6
  9
$SPLINESEGS
 70
     8
  9
$ATTDIA
 70
     0
  9
$ATTREQ
 70
     1
  9
$HANDLING
 70
     1
  9
$HANDSEED
  5
4D63D
  9
$SURFTAB1
 70
     6
  9
$SURFTAB2
 70
     6
  9
$SURFTYPE
 70
     6
  9
$SURFU
 70
     6
  9
$SURFV
 70
     6
  9
$UCSNAME
  2

  9
$UCSORG
 10
107.6129456600909
 20
251.1165511614378
 30
0.0
  9
$UCSXDIR
 10
1.0
 20
0.0
 30
0.0
  9
$UCSYDIR
 10
0.0
 20
1.0
 30
0.0
  9
$PUCSNAME
  2

  9
$PUCSORG
 10
0.0
 20
0.0
 30
0.0
  9
$PUCSXDIR
 10
1.0
 20
0.0
 30
0.0
  9
$PUCSYDIR
 10
0.0
 20
1.0
 30
0.0
  9
$USERI1
 70
     0
  9
$USERI2
 70
     0
  9
$USERI3
 70
     0
  9
$USERI4
 70
     0
  9
$USERI5
 70
     0
  9
$USERR1
 40
0.0
  9
$USERR2
 40
0.0
  9
$USERR3
 40
0.0
  9
$USERR4
 40
0.0
  9
$USERR5
 40
0.0
  9
$WORLDVIEW
 70
     1
  9
$SHADEDGE
 70
     3
  9
$SHADEDIF
 70
    70
  9
$TILEMODE
 70
     1
  9
$MAXACTVP
 70
    16
  9
$PINSBASE
 10
0.0
 20
0.0
 30
0.0
  9
$PLIMCHECK
 70
     0
  9
$PEXTMIN
 10
1.000000E+20
 20
1.000000E+20
 30
1.000000E+20
  9
$PEXTMAX
 10
-1.000000E+20
 20
-1.000000E+20
 30
-1.000000E+20
  9
$PLIMMIN
 10
0.0
 20
0.0
  9
$PLIMMAX
 10
12.0
 20
9.0
  9
$UNITMODE
 70
     0
  9
$VISRETAIN
 70
     0
  9
$PLINEGEN
 70
     0
  9
$PSLTSCALE
 70
     1
  9
$TREEDEPTH
 70
  3020
  9
$DWGCODEPAGE
  3
dummy
  0
ENDSEC
  0
SECTION
  2
TABLES
  0
TABLE
  2
VPORT
 70
     2
  0
VPORT
  2
*ACTIVE
 70
     0
 10
0.0
 20
0.0
 11
1.0
 21
1.0
 12
116.743943
 22
256.457513
 13
0.0
 23
0.0
 14
1.0
 24
1.0
 15
0.0
 25
0.0
 16
0.0
 26
0.0
 36
1.0
 17
0.0
 27
0.0
 37
0.0
 40
10.924694
 41
1.658281
 42
50.0
 43
0.0
 44
0.0
 50
0.0
 51
0.0
 71
     0
 72
   100
 73
     1
 74
     1
 75
     0
 76
     0
 77
     0
 78
     0
  0
ENDTAB
  0
TABLE
  2
LTYPE
 70
     1
  0
LTYPE
  2
CONTINUOUS
 70
    64
  3
Solid line
 72
    65
 73
     0
 40
0.0
  0
ENDTAB
  0
TABLE
  2
LAYER
 70
     2
  0
LAYER
  2
0
 70
    64
 62
     7
  6
CONTINUOUS
  0
LAYER
  2
933A06
 70
    64
 62
     7
  6
CONTINUOUS
  0
ENDTAB
  0
TABLE
  2
STYLE
 70
     1
  0
STYLE
  2
STANDARD
 70
     0
 40
0.0
 41
1.0
 50
0.0
 71
     0
 42
0.2
  3
txt
  4

  0
ENDTAB
  0
TABLE
  2
VIEW
 70
     0
  0
ENDTAB
  0
TABLE
  2
UCS
 70
     0
  0
ENDTAB
  0
TABLE
  2
APPID
 70
     3
  0
APPID
  2
ACAD
 70
    64
  0
APPID
  2
AVE_RENDER
 70
    64
  0
APPID
  2
AVE_MATERIAL
 70
    64
  0
ENDTAB
  0
TABLE
  2
DIMSTYLE
 70
     0
  0
ENDTAB
  0
ENDSEC
  0
SECTION
  2
BLOCKS
  0
BLOCK
  8
0
  5
3675A
  2
73830
 70
    64
 10
440.848374
 20
1407.449189
 30
0.0
  3
73830
  0
ENDBLK
  8
0
  5
3675B
  0
BLOCK
  8
0
  5
3675C
  2
DF
 70
    64
 10
922.739764
 20
276.264907
 30
0.0
  3
DF
  0
ENDBLK
  8
0
  5
3675D
  0
BLOCK
  8
0
  5
3675E
  2
IU
 70
    64
 10
924.839764
 20
266.864907
 30
0.0
  3
IU
  0
ENDBLK
  8
0
  5
3675F
  0
BLOCK
  8
0
  5
463B4
  2
AVE_RENDER
 70
    64
 10
0.0
 20
0.0
 30
0.0
  1
AVE_RENDER
  3
AVE_RENDER
  0
ENDBLK
  8
0
  5
463B5
  0
BLOCK
  8
0
  5
463C2
  2
AVE_GLOBAL
 70
    64
 10
0.0
 20
0.0
 30
0.0
  1
AVE_GLOBAL
  3
AVE_GLOBAL
  0
ENDBLK
  8
0
  5
463C3
  0
ENDSEC
  0
SECTION
  2
ENTITIES
  0
INSERT
  8
0
  5
3AA11
  2
73830
 10
177.999828
 20
709.671176
 30
0.0
 41
0.5
 42
0.5
 43
0.5
  0
INSERT
  8
0
  5
3AA12
  2
DF
 10
418.945523
 20
144.079035
 30
0.0
 41
0.5
 42
0.5
 43
0.5
  0
INSERT
  8
0
  5
3AA13
  2
IU
 10
419.995523
 20
139.379035
 30
0.0
 41
0.5
 42
0.5
 43
0.5
  0
INSERT
  8
0
  5
3AC95
  2
73830
 10
238.823284
 20
747.308767
 30
0.0
 41
0.5
 42
0.5
 43
0.5
  0
INSERT
  8
0
  5
3AC96
  2
DF
 10
479.768979
 20
181.716626
 30
0.0
 41
0.5
 42
0.5
 43
0.5
  0
INSERT
  8
0
  5
3AC97
  2
IU
 10
480.818979
 20
177.016626
 30
0.0
 41
0.5
 42
0.5
 43
0.5
  0
INSERT
  8
933A06
 62
     1
  5
463B6
  2
AVE_RENDER
 10
0.0
 20
0.0
 30
0.0
1001
AVE_RENDER
1002
{
1070
     7
1000
Pref
1070
    30
1070
    20
1070
     1
1070
     0
1000

1070
    10
1070
     1
1070
    10
1040
1.0
1070
     1
1040
0.3
1040
0.7
1040
0.0
1040
10.0
1010
-1.0
1020
-1.0
1030
-1.0
1040
0.3
1070
    49
1070
     0
1070
     0
1010
1.0
1020
1.0
1030
1.0
1040
45.0
1070
     1
1070
     0
1000
WCS
1040
0.0
1070
     0
1040
10.0
1002
}
  0
INSERT
  8
933A06
 62
     3
  5
463B7
  2
AVE_RENDER
 10
0.0
 20
0.0
 30
0.0
1001
AVE_RENDER
1002
{
1070
     0
1000
Full Opt
1070
     0
1070
     1
1070
     1
1070
     1
1070
     0
1070
     0
1070
     0
1070
     1
1070
     1
1040
0.0001
1040
0.0001
1002
}
  0
INSERT
  8
933A06
 62
     4
  5
463B8
  2
AVE_RENDER
 10
0.0
 20
0.0
 30
0.0
1001
AVE_RENDER
1002
{
1070
     0
1000
Quick Opt
1070
     0
1070
     1
1070
     1
1070
     1
1070
     0
1070
     0
1070
     1
1002
}
  0
INSERT
  8
933A06
 62
     5
  5
463B9
  2
AVE_RENDER
 10
0.0
 20
0.0
 30
0.0
1001
AVE_RENDER
1002
{
1070
     1
1000
Scanl Opt
1070
     2
1070
     0
1070
     2
1040
2.0
1040
4.0
1070
     0
1070
     1
1070
     0
1040
0.03
1002
}
  0
INSERT
  8
933A06
 62
     6
  5
463BA
  2
AVE_RENDER
 10
0.0
 20
0.0
 30
0.0
1001
AVE_RENDER
1002
{
1070
     2
1000
Raytr Opt
1070
     2
1070
     0
1070
     2
1040
2.0
1040
4.0
1070
     0
1070
     1
1070
     1
1040
0.03
1070
     3
1040
0.03
1002
}
  0
INSERT
  8
933A06
 62
     7
  5
463BB
  2
AVE_RENDER
 10
0.0
 20
0.0
 30
0.0
1001
AVE_RENDER
1002
{
1070
     0
1000
RFile Opt
1070
     1
1070
   640
1070
   480
1070
 10000
1070
     1
1070
     8
1070
     8
1070
     0
1070
     0
1070
     0
1070
     0
1070
     0
1070
     0
1070
     0
1002
}
  0
INSERT
  8
933A06
 62
     8
  5
463BC
  2
AVE_RENDER
 10
0.0
 20
0.0
 30
0.0
1001
AVE_RENDER
1002
{
1070
     0
1000
Fog Opt
1070
     0
1070
     0
1040
0.0
1040
1.0
1040
0.0
1040
1.0
1010
0.5
1020
0.5
1030
0.5
1002
}
  0
INSERT
  8
933A06
 62
     9
  5
463BD
  2
AVE_RENDER
 10
0.0
 20
0.0
 30
0.0
1001
AVE_RENDER
1002
{
1070
     0
1000
BG Opt
1070
     0
1070
     1
1010
0.0
1020
0.0
1030
0.0
1010
1.0
1020
0.0
1030
0.0
1010
0.0
1020
1.0
1030
0.0
1010
0.0
1020
0.0
1030
1.0
1040
0.5
1040
0.33
1040
0.0
1000

1070
     1
1000

1070
     1
1070
     1
1040
1.0
1040
1.0
1040
0.0
1040
0.0
1070
     0
1002
}
  0
INSERT
  8
933A06
 62
     1
  5
463C4
  2
AVE_GLOBAL
 10
0.0
 20
0.0
 30
0.0
1001
AVE_MATERIAL
1002
{
1000
*GLOBAL*
1000
1
1000
Acabado global.
1002
{
1002
}
1002
{
1070
    63
1002
{
1002
{
1010
-1.0
1020
-1.0
1030
-1.0
1002
}
1040
0.1
1000

1040
0.0
1002
{
1002
}
1040
0.0
1002
{
1002
}
1040
0.0
1002
}
1002
{
1002
{
1010
-1.0
1020
-1.0
1030
-1.0
1002
}
1040
0.7
1000

1040
0.0
1002
{
1002
}
1040
0.0
1002
{
1002
}
1040
0.0
1002
}
1002
{
1002
{
1010
-1.0
1020
-1.0
1030
-1.0
1002
}
1040
0.2
1000

1040
0.0
1002
{
1002
}
1040
0.0
1002
{
1002
}
1040
0.0
1002
}
1002
{
1070
     0
1002
{
1070
     1
1002
{
1040
1.0
1040
1.0
1000

1040
0.0
1002
{
1002
}
1040
0.0
1002
{
1002
}
1040
0.0
1002
}
1002
}
1040
1.0
1040
0.0
1040
0.0
1002
}
1002
{
1040
1.0
1040
1.0
1000

1040
0.0
1002
{
1002
}
1040
0.0
1002
{
1002
}
1040
0.0
1002
}
1002
{
1040
0.5
1040
1.0
1000

1040
0.0
1002
{
1002
}
1040
0.0
1002
{
1002
}
1040
0.0
1002
}
1002
{
1070
     0
1040
0.0
1002
{
1002
}
1040
1.0
1002
{
1002
}
1040
0.0
1002
}
1002
{
1040
0.0
1002
{
1002
{
1010
0.0
1020
0.0
1030
0.0
1002
}
1040
1.0
1000

1040
0.0
1002
{
1002
}
1040
0.0
1002
{
1002
}
1040
0.0
1002
}
1002
}
1002
{
1002
{
1070
     1
1002
{
1040
0.0
1040
1.0
1000

1040
0.0
1002
{
1002
}
1040
0.0
1002
{
1002
}
1040
0.0
1002
}
1002
}
1040
0.0
1002
{
1002
}
1010
1.0
1020
0.0
1030
0.0
1010
0.0
1020
1.0
1030
0.0
1010
0.0
1020
0.0
1030
1.0
1070
     0
1002
}
1002
{
1002
{
1040
1.0
1040
1.0
1002
{
1070
     1
1002
{
1040
1.0
1040
1.0
1000

1040
0.0
1002
{
1002
}
1040
0.0
1002
{
1002
}
1040
0.0
1002
}
1002
}
1002
}
1070
     0
1040
0.0
1002
{
1002
}
1002
}
1002
{
1002
}
1002
}
1002
{
1071
        3
1070
     3
1070
     0
1002
{
1070
     2
1070
     0
1070
     0
1040
0.0
1002
}
1070
     0
1070
     2
1002
{
1002
}
1002
}
1002
{
1040
8030.0
1040
190.300003
1040
0.305
1040
228.0
1040
545.0
1040
14.0
1040
17.4
1040
0.456
1002
}
1002
}
  0
INSERT
  8
0
  5
476EB
  2
73830
 10
177.999828
 20
709.671176
 30
0.0
 41
0.5
 42
0.5
 43
0.5
  0
INSERT
  8
0
  5
476EC
  2
DF
 10
418.945523
 20
144.079035
 30
0.0
 41
0.5
 42
0.5
 43
0.5
  0
INSERT
  8
0
  5
476ED
  2
IU
 10
419.995523
 20
139.379035
 30
0.0
 41
0.5
 42
0.5
 43
0.5
  0
INSERT
  8
0
  5
476EE
  2
73830
 10
238.823284
 20
747.308767
 30
0.0
 41
0.5
 42
0.5
 43
0.5
  0
INSERT
  8
0
  5
476EF
  2
DF
 10
479.768979
 20
181.716626
 30
0.0
 41
0.5
 42
0.5
 43
0.5
  0
INSERT
  8
0
  5
476F0
  2
IU
 10
480.818979
 20
177.016626
 30
0.0
 41
0.5
 42
0.5
 43
0.5
  0
VIEWPORT
  8
0
  5
4635C
 67
     1
 68
    -1
 10
6.0
 20
4.5
 30
0.0
 40
12.0
 41
9.0
 69
     1
1001
ACAD
1000
MVIEW
1002
{
1070
    16
1010
0.0
1020
0.0
1030
0.0
1010
0.0
1020
0.0
1030
1.0
1040
0.0
1040
9.0
1040
6.0
1040
4.5
1040
50.0
1040
0.0
1040
0.0
1070
     0
1070
   100
1070
     1
1070
     1
1070
     0
1070
     0
1070
     0
1070
     0
1040
0.0
1040
0.0
1040
0.0
1040
1.0
1040
1.0
1040
0.0
1040
0.0
1070
     0
1002
{
1002
}
1002
}
  0
LINE
  8
0
  5
4D294
 10
113.242053
 20
253.5234
 30
0.0
 11
113.307592
 21
253.5234
 31
0.0
  0
LINE
  8
0
  5
4D295
 10
113.307592
 20
253.5234
 30
0.0
 11
113.308372
 21
253.5234
 31
0.0
  0
LINE
  8
0
  5
4D296
 10
113.307592
 20
253.358773
 30
0.0
 11
113.340361
 21
253.457081
 31
0.0
  0
LINE
  8
0
  5
4D297
 10
113.340361
 20
253.457081
 30
0.0
 11
113.341141
 21
253.457081
 31
0.0
  0
LINE
  8
0
  5
4D298
 10
113.340361
 20
253.457081
 30
0.0
 11
113.307592
 21
253.5234
 31
0.0
  0
LINE
  8
0
  5
4D299
 10
113.307592
 20
253.5234
 30
0.0
 11
113.308372
 21
253.5234
 31
0.0
  0
LINE
  8
0
  5
4D29A
 10
111.108925
 20
259.570122
 30
0.0
 11
110.256143
 21
260.062443
 31
0.0
  0
LINE
  8
0
  5
4D29B
 10
110.256143
 20
260.062443
 30
0.0
 11
110.256923
 21
260.062443
 31
0.0
  0
LINE
  8
0
  5
4D29C
 10
111.962489
 20
259.142561
 30
0.0
 11
110.256143
 21
260.062443
 31
0.0
  0
LINE
  8
0
  5
4D29D
 10
110.256143
 20
260.062443
 30
0.0
 11
110.256923
 21
260.062443
 31
0.0
  0
LINE
  8
0
  5
4D29E
 10
110.288912
 20
260.128761
 30
0.0
 11
110.256143
 21
260.062443
 31
0.0
  0
LINE
  8
0
  5
4D29F
 10
110.256143
 20
260.062443
 30
0.0
 11
110.256923
 21
260.062443
 31
0.0
  0
LINE
  8
0
  5
4D2A0
 10
110.288912
 20
260.1943
 30
0.0
 11
110.288912
 21
260.128761
 31
0.0
  0
LINE
  8
0
  5
4D2A1
 10
110.288912
 20
260.128761
 30
0.0
 11
110.289692
 21
260.128761
 31
0.0
  0
LINE
  8
0
  5
4D2A2
 10
113.242053
 20
258.090821
 30
0.0
 11
113.307592
 21
258.15636
 31
0.0
  0
LINE
  8
0
  5
4D2A3
 10
113.307592
 20
258.15636
 30
0.0
 11
113.308372
 21
258.15636
 31
0.0
  0
LINE
  8
0
  5
4D2A4
 10
113.307592
 20
258.15636
 30
0.0
 11
113.37313
 21
258.255448
 31
0.0
  0
LINE
  8
0
  5
4D2A5
 10
113.37313
 20
258.255448
 30
0.0
 11
113.373911
 21
258.255448
 31
0.0
  0
LINE
  8
0
  5
4D2A6
 10
113.37313
 20
258.255448
 30
0.0
 11
113.438669
 21
258.353756
 31
0.0
  0
LINE
  8
0
  5
4D2A7
 10
113.438669
 20
258.353756
 30
0.0
 11
113.439449
 21
258.353756
 31
0.0
  0
LINE
  8
0
  5
4D2A8
 10
113.438669
 20
258.353756
 30
0.0
 11
113.438669
 21
258.452844
 31
0.0
  0
LINE
  8
0
  5
4D2A9
 10
113.438669
 20
258.452844
 30
0.0
 11
113.439449
 21
258.452844
 31
0.0
  0
LINE
  8
0
  5
4D2AA
 10
111.108925
 20
254.738986
 30
0.0
 11
111.174464
 21
254.771756
 31
0.0
  0
LINE
  8
0
  5
4D2AB
 10
111.174464
 20
254.771756
 30
0.0
 11
111.175244
 21
254.771756
 31
0.0
  0
LINE
  8
0
  5
4D2AC
 10
111.174464
 20
254.57436
 30
0.0
 11
111.207233
 21
254.706217
 31
0.0
  0
LINE
  8
0
  5
4D2AD
 10
111.207233
 20
254.706217
 30
0.0
 11
111.208014
 21
254.706217
 31
0.0
  0
LINE
  8
0
  5
4D2AE
 10
111.207233
 20
254.706217
 30
0.0
 11
111.174464
 21
254.771756
 31
0.0
  0
LINE
  8
0
  5
4D2AF
 10
111.174464
 20
254.771756
 30
0.0
 11
111.175244
 21
254.771756
 31
0.0
  0
LINE
  8
0
  5
4D2B0
 10
113.011887
 20
253.260465
 30
0.0
 11
113.044657
 21
253.391543
 31
0.0
  0
LINE
  8
0
  5
4D2B1
 10
113.044657
 20
253.391543
 30
0.0
 11
113.045437
 21
253.391543
 31
0.0
  0
LINE
  8
0
  5
4D2B2
 10
113.044657
 20
253.391543
 30
0.0
 11
113.077426
 21
253.490631
 31
0.0
  0
LINE
  8
0
  5
4D2B3
 10
113.077426
 20
253.490631
 30
0.0
 11
113.078206
 21
253.490631
 31
0.0
  0
LINE
  8
0
  5
4D2B4
 10
113.077426
 20
253.490631
 30
0.0
 11
111.272772
 21
254.57436
 31
0.0
  0
LINE
  8
0
  5
4D2B5
 10
111.272772
 20
254.57436
 30
0.0
 11
111.273552
 21
254.57436
 31
0.0
  0
LINE
  8
0
  5
4D2B6
 10
113.077426
 20
253.490631
 30
0.0
 11
113.142965
 21
253.588939
 31
0.0
  0
LINE
  8
0
  5
4D2B7
 10
113.142965
 20
253.588939
 30
0.0
 11
113.143745
 21
253.588939
 31
0.0
  0
LINE
  8
0
  5
4D2B8
 10
113.142965
 20
253.588939
 30
0.0
 11
113.242053
 21
253.654478
 31
0.0
  0
LINE
  8
0
  5
4D2B9
 10
113.242053
 20
253.654478
 30
0.0
 11
113.242833
 21
253.654478
 31
0.0
  0
LINE
  8
0
  5
4D2BA
 10
113.242053
 20
258.222679
 30
0.0
 11
113.307592
 21
258.288217
 31
0.0
  0
LINE
  8
0
  5
4D2BB
 10
113.307592
 20
258.288217
 30
0.0
 11
113.308372
 21
258.288217
 31
0.0
  0
LINE
  8
0
  5
4D2BC
 10
113.307592
 20
258.288217
 30
0.0
 11
113.340361
 21
258.386525
 31
0.0
  0
LINE
  8
0
  5
4D2BD
 10
113.340361
 20
258.386525
 30
0.0
 11
113.341141
 21
258.386525
 31
0.0
  0
LINE
  8
0
  5
4D2BE
 10
113.340361
 20
258.386525
 30
0.0
 11
113.307592
 21
258.485613
 31
0.0
  0
LINE
  8
0
  5
4D2BF
 10
113.307592
 20
258.485613
 30
0.0
 11
113.308372
 21
258.485613
 31
0.0
  0
LINE
  8
0
  5
4D2C0
 10
111.634015
 20
252.208726
 30
0.0
 11
111.502938
 21
252.307034
 31
0.0
  0
LINE
  8
0
  5
4D2C1
 10
111.502938
 20
252.307034
 30
0.0
 11
111.503718
 21
252.307034
 31
0.0
  0
LINE
  8
0
  5
4D2C2
 10
111.634015
 20
252.307034
 30
0.0
 11
111.699554
 21
252.274264
 31
0.0
  0
LINE
  8
0
  5
4D2C3
 10
111.699554
 20
252.274264
 30
0.0
 11
111.700334
 21
252.274264
 31
0.0
  0
LINE
  8
0
  5
4D2C4
 10
111.502938
 20
252.307034
 30
0.0
 11
111.634015
 21
252.307034
 31
0.0
  0
LINE
  8
0
  5
4D2C5
 10
111.634015
 20
252.307034
 30
0.0
 11
111.634795
 21
252.307034
 31
0.0
  0
LINE
  8
0
  5
4D2C6
 10
111.634015
 20
252.307034
 30
0.0
 11
111.765092
 21
252.406122
 31
0.0
  0
LINE
  8
0
  5
4D2C7
 10
111.765092
 20
252.406122
 30
0.0
 11
111.765873
 21
252.406122
 31
0.0
  0
LINE
  8
0
  5
4D2C8
 10
111.765092
 20
252.406122
 30
0.0
 11
111.634015
 21
252.373353
 31
0.0
  0
LINE
  8
0
  5
4D2C9
 10
111.634015
 20
252.373353
 30
0.0
 11
111.634795
 21
252.373353
 31
0.0
  0
LINE
  8
0
  5
4D2CA
 10
111.8634
 20
252.339803
 30
0.0
 11
111.765092
 21
252.406122
 31
0.0
  0
LINE
  8
0
  5
4D2CB
 10
111.765092
 20
252.406122
 30
0.0
 11
111.765873
 21
252.406122
 31
0.0
  0
LINE
  8
0
  5
4D2CC
 10
114.554387
 20
253.917412
 30
0.0
 11
114.422529
 21
253.982951
 31
0.0
  0
LINE
  8
0
  5
4D2CD
 10
114.422529
 20
253.982951
 30
0.0
 11
114.423309
 21
253.982951
 31
0.0
  0
LINE
  8
0
  5
4D2CE
 10
114.554387
 20
254.01572
 30
0.0
 11
114.685464
 21
254.082039
 31
0.0
  0
LINE
  8
0
  5
4D2CF
 10
114.685464
 20
254.082039
 30
0.0
 11
114.686244
 21
254.082039
 31
0.0
  0
LINE
  8
0
  5
4D2D0
 10
114.685464
 20
254.082039
 30
0.0
 11
114.554387
 21
254.082039
 31
0.0
  0
LINE
  8
0
  5
4D2D1
 10
114.554387
 20
254.082039
 30
0.0
 11
114.555167
 21
254.082039
 31
0.0
  0
LINE
  8
0
  5
4D2D2
 10
110.781232
 20
251.48546
 30
0.0
 11
110.419989
 21
251.682856
 31
0.0
  0
LINE
  8
0
  5
4D2D3
 10
110.419989
 20
251.682856
 30
0.0
 11
110.420769
 21
251.682856
 31
0.0
  0
LINE
  8
0
  5
4D2D4
 10
110.846771
 20
251.288844
 30
0.0
 11
110.846771
 21
251.847483
 31
0.0
  0
LINE
  8
0
  5
4D2D5
 10
110.846771
 20
251.847483
 30
0.0
 11
110.847551
 21
251.847483
 31
0.0
  0
LINE
  8
0
  5
4D2D6
 10
111.568476
 20
252.373353
 30
0.0
 11
111.995258
 21
252.635507
 31
0.0
  0
LINE
  8
0
  5
4D2D7
 10
111.995258
 20
252.635507
 30
0.0
 11
111.996038
 21
252.635507
 31
0.0
  0
LINE
  8
0
  5
4D2D8
 10
111.995258
 20
252.635507
 30
0.0
 11
111.043387
 21
253.227696
 31
0.0
  0
LINE
  8
0
  5
4D2D9
 10
111.043387
 20
253.227696
 30
0.0
 11
111.044167
 21
253.227696
 31
0.0
  0
LINE
  8
0
  5
4D2DA
 10
111.568476
 20
252.373353
 30
0.0
 11
111.043387
 21
252.669057
 31
0.0
  0
LINE
  8
0
  5
4D2DB
 10
111.043387
 20
252.669057
 30
0.0
 11
111.044167
 21
252.669057
 31
0.0
  0
LINE
  8
0
  5
4D2DC
 10
111.568476
 20
252.339803
 30
0.0
 11
111.568476
 21
252.373353
 31
0.0
  0
LINE
  8
0
  5
4D2DD
 10
111.568476
 20
252.373353
 30
0.0
 11
111.569257
 21
252.373353
 31
0.0
  0
LINE
  8
0
  5
4D2DE
 10
110.485528
 20
255.692418
 30
0.0
 11
110.583836
 21
255.658868
 31
0.0
  0
LINE
  8
0
  5
4D2DF
 10
110.583836
 20
255.658868
 30
0.0
 11
110.584616
 21
255.658868
 31
0.0
  0
LINE
  8
0
  5
4D2E0
 10
110.583836
 20
256.283826
 30
0.0
 11
110.583836
 21
256.973543
 31
0.0
  0
LINE
  8
0
  5
4D2E1
 10
110.583836
 20
256.973543
 30
0.0
 11
110.584616
 21
256.973543
 31
0.0
  0
LINE
  8
0
  5
4D2E2
 10
110.715693
 20
256.875235
 30
0.0
 11
110.715693
 21
257.039081
 31
0.0
  0
LINE
  8
0
  5
4D2E3
 10
110.715693
 20
257.039081
 30
0.0
 11
110.716474
 21
257.039081
 31
0.0
  0
LINE
  8
0
  5
4D2E4
 10
110.419989
 20
256.349365
 30
0.0
 11
110.583836
 21
256.283826
 31
0.0
  0
LINE
  8
0
  5
4D2E5
 10
110.583836
 20
256.283826
 30
0.0
 11
110.584616
 21
256.283826
 31
0.0
  0
LINE
  8
0
  5
4D2E6
 10
110.583836
 20
256.283826
 30
0.0
 11
110.649375
 21
256.251057
 31
0.0
  0
LINE
  8
0
  5
4D2E7
 10
110.649375
 20
256.251057
 30
0.0
 11
110.650155
 21
256.251057
 31
0.0
  0
LINE
  8
0
  5
4D2E8
 10
110.583836
 20
256.973543
 30
0.0
 11
110.715693
 21
256.875235
 31
0.0
  0
LINE
  8
0
  5
4D2E9
 10
110.715693
 20
256.875235
 30
0.0
 11
110.716474
 21
256.875235
 31
0.0
  0
LINE
  8
0
  5
4D2EA
 10
110.912309
 20
254.607909
 30
0.0
 11
110.912309
 21
257.006312
 31
0.0
  0
LINE
  8
0
  5
4D2EB
 10
110.912309
 20
257.006312
 30
0.0
 11
110.91309
 21
257.006312
 31
0.0
  0
LINE
  8
0
  5
4D2EC
 10
110.781232
 20
254.706217
 30
0.0
 11
110.781232
 21
256.908004
 31
0.0
  0
LINE
  8
0
  5
4D2ED
 10
110.781232
 20
256.908004
 30
0.0
 11
110.782012
 21
256.908004
 31
0.0
  0
LINE
  8
0
  5
4D2EE
 10
110.715693
 20
254.476052
 30
0.0
 11
110.912309
 21
254.607909
 31
0.0
  0
LINE
  8
0
  5
4D2EF
 10
110.912309
 20
254.607909
 30
0.0
 11
110.91309
 21
254.607909
 31
0.0
  0
LINE
  8
0
  5
4D2F0
 10
110.781232
 20
254.706217
 30
0.0
 11
110.583836
 21
254.57436
 31
0.0
  0
LINE
  8
0
  5
4D2F1
 10
110.583836
 20
254.57436
 30
0.0
 11
110.584616
 21
254.57436
 31
0.0
  0
LINE
  8
0
  5
4D2F2
 10
110.912309
 20
254.607909
 30
0.0
 11
110.781232
 21
254.706217
 31
0.0
  0
LINE
  8
0
  5
4D2F3
 10
110.781232
 20
254.706217
 30
0.0
 11
110.782012
 21
254.706217
 31
0.0
  0
LINE
  8
0
  5
4D2F4
 10
110.715693
 20
254.312205
 30
0.0
 11
110.912309
 21
254.443282
 31
0.0
  0
LINE
  8
0
  5
4D2F5
 10
110.912309
 20
254.443282
 30
0.0
 11
110.91309
 21
254.443282
 31
0.0
  0
LINE
  8
0
  5
4D2F6
 10
110.485528
 20
253.194146
 30
0.0
 11
110.583836
 21
253.293235
 31
0.0
  0
LINE
  8
0
  5
4D2F7
 10
110.583836
 20
253.293235
 30
0.0
 11
110.584616
 21
253.293235
 31
0.0
  0
LINE
  8
0
  5
4D2F8
 10
111.043387
 20
254.837294
 30
0.0
 11
111.108925
 21
254.870844
 31
0.0
  0
LINE
  8
0
  5
4D2F9
 10
111.108925
 20
254.870844
 30
0.0
 11
111.109706
 21
254.870844
 31
0.0
  0
LINE
  8
0
  5
4D2FA
 10
111.108925
 20
254.870844
 30
0.0
 11
111.043387
 21
254.936383
 31
0.0
  0
LINE
  8
0
  5
4D2FB
 10
111.043387
 20
254.936383
 30
0.0
 11
111.044167
 21
254.936383
 31
0.0
  0
LINE
  8
0
  5
4D2FC
 10
115.439939
 20
257.401105
 30
0.0
 11
115.439939
 21
259.602892
 31
0.0
  0
LINE
  8
0
  5
4D2FD
 10
115.439939
 20
259.602892
 30
0.0
 11
115.440719
 21
259.602892
 31
0.0
  0
LINE
  8
0
  5
4D2FE
 10
114.324221
 20
258.977934
 30
0.0
 11
114.324221
 21
258.353756
 31
0.0
  0
LINE
  8
0
  5
4D2FF
 10
114.324221
 20
258.353756
 30
0.0
 11
114.325001
 21
258.353756
 31
0.0
  0
LINE
  8
0
  5
4D300
 10
113.536977
 20
259.240869
 30
0.0
 11
113.536977
 21
259.307187
 31
0.0
  0
LINE
  8
0
  5
4D301
 10
113.536977
 20
259.307187
 30
0.0
 11
113.537757
 21
259.307187
 31
0.0
  0
LINE
  8
0
  5
4D302
 10
115.472708
 20
259.898596
 30
0.0
 11
115.472708
 21
260.522774
 31
0.0
  0
LINE
  8
0
  5
4D303
 10
115.472708
 20
260.522774
 30
0.0
 11
115.473488
 21
260.522774
 31
0.0
  0
LINE
  8
0
  5
4D304
 10
115.768412
 20
257.401105
 30
0.0
 11
115.603786
 21
257.499413
 31
0.0
  0
LINE
  8
0
  5
4D305
 10
115.603786
 20
257.499413
 30
0.0
 11
115.604566
 21
257.499413
 31
0.0
  0
LINE
  8
0
  5
4D306
 10
112.060797
 20
258.058052
 30
0.0
 11
112.093566
 21
258.090821
 31
0.0
  0
LINE
  8
0
  5
4D307
 10
112.093566
 20
258.090821
 30
0.0
 11
112.094346
 21
258.090821
 31
0.0
  0
LINE
  8
0
  5
4D308
 10
112.093566
 20
258.090821
 30
0.0
 11
112.126335
 21
258.090821
 31
0.0
  0
LINE
  8
0
  5
4D309
 10
112.126335
 20
258.090821
 30
0.0
 11
112.127115
 21
258.090821
 31
0.0
  0
LINE
  8
0
  5
4D30A
 10
112.093566
 20
258.090821
 30
0.0
 11
112.126335
 21
258.058052
 31
0.0
  0
LINE
  8
0
  5
4D30B
 10
112.126335
 20
258.058052
 30
0.0
 11
112.127115
 21
258.058052
 31
0.0
  0
LINE
  8
0
  5
4D30C
 10
112.126335
 20
258.058052
 30
0.0
 11
112.126335
 21
258.090821
 31
0.0
  0
LINE
  8
0
  5
4D30D
 10
112.126335
 20
258.090821
 30
0.0
 11
112.127115
 21
258.090821
 31
0.0
  0
LINE
  8
0
  5
4D30E
 10
112.093566
 20
258.090821
 30
0.0
 11
112.126335
 21
258.058052
 31
0.0
  0
LINE
  8
0
  5
4D30F
 10
112.126335
 20
258.058052
 30
0.0
 11
112.127115
 21
258.058052
 31
0.0
  0
LINE
  8
0
  5
4D310
 10
112.126335
 20
258.025282
 30
0.0
 11
112.060797
 21
258.058052
 31
0.0
  0
LINE
  8
0
  5
4D311
 10
112.060797
 20
258.058052
 30
0.0
 11
112.061577
 21
258.058052
 31
0.0
  0
LINE
  8
0
  5
4D312
 10
112.060797
 20
258.058052
 30
0.0
 11
112.126335
 21
258.025282
 31
0.0
  0
LINE
  8
0
  5
4D313
 10
112.126335
 20
258.025282
 30
0.0
 11
112.127115
 21
258.025282
 31
0.0
  0
LINE
  8
0
  5
4D314
 10
112.126335
 20
258.025282
 30
0.0
 11
112.126335
 21
258.058052
 31
0.0
  0
LINE
  8
0
  5
4D315
 10
112.126335
 20
258.058052
 30
0.0
 11
112.127115
 21
258.058052
 31
0.0
  0
LINE
  8
0
  5
4D316
 10
111.568476
 20
257.433874
 30
0.0
 11
111.995258
 21
257.696809
 31
0.0
  0
LINE
  8
0
  5
4D317
 10
111.995258
 20
257.696809
 30
0.0
 11
111.996038
 21
257.696809
 31
0.0
  0
LINE
  8
0
  5
4D318
 10
111.995258
 20
257.696809
 30
0.0
 11
111.797862
 21
257.894205
 31
0.0
  0
LINE
  8
0
  5
4D319
 10
111.797862
 20
257.894205
 30
0.0
 11
111.798642
 21
257.894205
 31
0.0
  0
LINE
  8
0
  5
4D31A
 10
111.568476
 20
257.433874
 30
0.0
 11
111.995258
 21
257.696809
 31
0.0
  0
LINE
  8
0
  5
4D31B
 10
111.995258
 20
257.696809
 30
0.0
 11
111.996038
 21
257.696809
 31
0.0
  0
LINE
  8
0
  5
4D31C
 10
111.437399
 20
257.499413
 30
0.0
 11
111.568476
 21
257.433874
 31
0.0
  0
LINE
  8
0
  5
4D31D
 10
111.568476
 20
257.433874
 30
0.0
 11
111.569257
 21
257.433874
 31
0.0
  0
LINE
  8
0
  5
4D31E
 10
111.568476
 20
257.433874
 30
0.0
 11
111.437399
 21
257.564951
 31
0.0
  0
LINE
  8
0
  5
4D31F
 10
111.437399
 20
257.564951
 30
0.0
 11
111.438179
 21
257.564951
 31
0.0
  0
LINE
  8
0
  5
4D320
 10
111.010617
 20
258.452844
 30
0.0
 11
110.87954
 21
258.419295
 31
0.0
  0
LINE
  8
0
  5
4D321
 10
110.87954
 20
258.419295
 30
0.0
 11
110.88032
 21
258.419295
 31
0.0
  0
LINE
  8
0
  5
4D322
 10
110.38722
 20
258.15636
 30
0.0
 11
110.518297
 21
258.15636
 31
0.0
  0
LINE
  8
0
  5
4D323
 10
110.518297
 20
258.15636
 30
0.0
 11
110.519077
 21
258.15636
 31
0.0
  0
LINE
  8
0
  5
4D324
 10
109.86213
 20
258.353756
 30
0.0
 11
109.86213
 21
258.452844
 31
0.0
  0
LINE
  8
0
  5
4D325
 10
109.86213
 20
258.452844
 30
0.0
 11
109.862911
 21
258.452844
 31
0.0
  0
LINE
  8
0
  5
4D326
 10
110.452759
 20
258.682229
 30
0.0
 11
110.452759
 21
258.781318
 31
0.0
  0
LINE
  8
0
  5
4D327
 10
110.452759
 20
258.781318
 30
0.0
 11
110.453539
 21
258.781318
 31
0.0
  0
LINE
  8
0
  5
4D328
 10
114.422529
 20
259.438265
 30
0.0
 11
114.980388
 21
259.766738
 31
0.0
  0
LINE
  8
0
  5
4D329
 10
114.980388
 20
259.766738
 30
0.0
 11
114.981168
 21
259.766738
 31
0.0
  0
LINE
  8
0
  5
4D32A
 10
112.782502
 20
260.062443
 30
0.0
 11
112.782502
 21
260.128761
 31
0.0
  0
LINE
  8
0
  5
4D32B
 10
112.782502
 20
260.128761
 30
0.0
 11
112.783282
 21
260.128761
 31
0.0
  0
LINE
  8
0
  5
4D32C
 10
113.37313
 20
260.391696
 30
0.0
 11
113.37313
 21
260.457235
 31
0.0
  0
LINE
  8
0
  5
4D32D
 10
113.37313
 20
260.457235
 30
0.0
 11
113.373911
 21
260.457235
 31
0.0
  0
LINE
  8
0
  5
4D32E
 10
114.456079
 20
259.109791
 30
0.0
 11
114.914849
 21
259.372726
 31
0.0
  0
LINE
  8
0
  5
4D32F
 10
114.914849
 20
259.372726
 30
0.0
 11
114.91563
 21
259.372726
 31
0.0
  0
LINE
  8
0
  5
4D330
 10
115.045927
 20
259.372726
 30
0.0
 11
115.045927
 21
259.733969
 31
0.0
  0
LINE
  8
0
  5
4D331
 10
115.045927
 20
259.733969
 30
0.0
 11
115.046707
 21
259.733969
 31
0.0
  0
LINE
  8
0
  5
4D332
 10
114.980388
 20
259.766738
 30
0.0
 11
115.013157
 21
259.766738
 31
0.0
  0
LINE
  8
0
  5
4D333
 10
115.013157
 20
259.766738
 30
0.0
 11
115.013938
 21
259.766738
 31
0.0
  0
LINE
  8
0
  5
4D334
 10
115.013157
 20
259.766738
 30
0.0
 11
115.045927
 21
259.766738
 31
0.0
  0
LINE
  8
0
  5
4D335
 10
115.045927
 20
259.766738
 30
0.0
 11
115.046707
 21
259.766738
 31
0.0
  0
LINE
  8
0
  5
4D336
 10
115.013157
 20
259.766738
 30
0.0
 11
115.045927
 21
259.733969
 31
0.0
  0
LINE
  8
0
  5
4D337
 10
115.045927
 20
259.733969
 30
0.0
 11
115.046707
 21
259.733969
 31
0.0
  0
LINE
  8
0
  5
4D338
 10
115.045927
 20
259.733969
 30
0.0
 11
115.045927
 21
259.766738
 31
0.0
  0
LINE
  8
0
  5
4D339
 10
115.045927
 20
259.766738
 30
0.0
 11
115.046707
 21
259.766738
 31
0.0
  0
LINE
  8
0
  5
4D33A
 10
115.013157
 20
259.766738
 30
0.0
 11
115.045927
 21
259.733969
 31
0.0
  0
LINE
  8
0
  5
4D33B
 10
115.045927
 20
259.733969
 30
0.0
 11
115.046707
 21
259.733969
 31
0.0
  0
LINE
  8
0
  5
4D33C
 10
115.045927
 20
259.733969
 30
0.0
 11
114.980388
 21
259.766738
 31
0.0
  0
LINE
  8
0
  5
4D33D
 10
114.980388
 20
259.766738
 30
0.0
 11
114.981168
 21
259.766738
 31
0.0
  0
LINE
  8
0
  5
4D33E
 10
114.980388
 20
259.766738
 30
0.0
 11
115.045927
 21
259.733969
 31
0.0
  0
LINE
  8
0
  5
4D33F
 10
115.045927
 20
259.733969
 30
0.0
 11
115.046707
 21
259.733969
 31
0.0
  0
LINE
  8
0
  5
4D340
 10
113.438669
 20
258.452844
 30
0.0
 11
114.324221
 21
258.977934
 31
0.0
  0
LINE
  8
0
  5
4D341
 10
114.324221
 20
258.977934
 30
0.0
 11
114.325001
 21
258.977934
 31
0.0
  0
LINE
  8
0
  5
4D342
 10
114.751003
 20
259.536573
 30
0.0
 11
115.045927
 21
259.372726
 31
0.0
  0
LINE
  8
0
  5
4D343
 10
115.045927
 20
259.372726
 30
0.0
 11
115.046707
 21
259.372726
 31
0.0
  0
LINE
  8
0
  5
4D344
 10
115.045927
 20
259.372726
 30
0.0
 11
115.439939
 21
259.602892
 31
0.0
  0
LINE
  8
0
  5
4D345
 10
115.439939
 20
259.602892
 30
0.0
 11
115.440719
 21
259.602892
 31
0.0
  0
LINE
  8
0
  5
4D346
 10
111.043387
 20
254.508821
 30
0.0
 11
111.076156
 21
254.508821
 31
0.0
  0
LINE
  8
0
  5
4D347
 10
111.076156
 20
254.508821
 30
0.0
 11
111.076936
 21
254.508821
 31
0.0
  0
LINE
  8
0
  5
4D348
 10
111.043387
 20
254.673448
 30
0.0
 11
111.076156
 21
254.706217
 31
0.0
  0
LINE
  8
0
  5
4D349
 10
111.076156
 20
254.706217
 30
0.0
 11
111.076936
 21
254.706217
 31
0.0
  0
LINE
  8
0
  5
4D34A
 10
111.076156
 20
254.508821
 30
0.0
 11
111.108925
 21
254.508821
 31
0.0
  0
LINE
  8
0
  5
4D34B
 10
111.108925
 20
254.508821
 30
0.0
 11
111.109706
 21
254.508821
 31
0.0
  0
LINE
  8
0
  5
4D34C
 10
111.076156
 20
254.706217
 30
0.0
 11
111.108925
 21
254.738986
 31
0.0
  0
LINE
  8
0
  5
4D34D
 10
111.108925
 20
254.738986
 30
0.0
 11
111.109706
 21
254.738986
 31
0.0
  0
LINE
  8
0
  5
4D34E
 10
110.616605
 20
257.302016
 30
0.0
 11
110.419989
 21
257.203708
 31
0.0
  0
LINE
  8
0
  5
4D34F
 10
110.419989
 20
257.203708
 30
0.0
 11
110.420769
 21
257.203708
 31
0.0
  0
LINE
  8
0
  5
4D350
 10
110.419989
 20
257.203708
 30
0.0
 11
110.419989
 21
256.349365
 31
0.0
  0
LINE
  8
0
  5
4D351
 10
110.419989
 20
256.349365
 30
0.0
 11
110.420769
 21
256.349365
 31
0.0
  0
LINE
  8
0
  5
4D352
 10
115.3744
 20
256.973543
 30
0.0
 11
115.40717
 21
257.006312
 31
0.0
  0
LINE
  8
0
  5
4D353
 10
115.40717
 20
257.006312
 30
0.0
 11
115.40795
 21
257.006312
 31
0.0
  0
LINE
  8
0
  5
4D354
 10
115.3744
 20
257.236478
 30
0.0
 11
115.40717
 21
257.236478
 31
0.0
  0
LINE
  8
0
  5
4D355
 10
115.40717
 20
257.236478
 30
0.0
 11
115.40795
 21
257.236478
 31
0.0
  0
LINE
  8
0
  5
4D356
 10
115.40717
 20
257.006312
 30
0.0
 11
115.439939
 21
257.072631
 31
0.0
  0
LINE
  8
0
  5
4D357
 10
115.439939
 20
257.072631
 30
0.0
 11
115.472708
 21
257.1054
 31
0.0
  0
LINE
  8
0
  5
4D358
 10
115.472708
 20
257.1054
 30
0.0
 11
115.473488
 21
257.1054
 31
0.0
  0
LINE
  8
0
  5
4D359
 10
115.40717
 20
257.236478
 30
0.0
 11
115.439939
 21
257.236478
 31
0.0
  0
LINE
  8
0
  5
4D35A
 10
115.439939
 20
257.236478
 30
0.0
 11
115.440719
 21
257.236478
 31
0.0
  0
LINE
  8
0
  5
4D35B
 10
115.472708
 20
257.203708
 30
0.0
 11
115.40717
 21
257.236478
 31
0.0
  0
LINE
  8
0
  5
4D35C
 10
115.40717
 20
257.236478
 30
0.0
 11
115.40795
 21
257.236478
 31
0.0
  0
LINE
  8
0
  5
4D35D
 10
115.472708
 20
257.170939
 30
0.0
 11
115.472708
 21
257.203708
 31
0.0
  0
LINE
  8
0
  5
4D35E
 10
115.472708
 20
257.203708
 30
0.0
 11
115.473488
 21
257.203708
 31
0.0
  0
LINE
  8
0
  5
4D35F
 10
115.472708
 20
257.203708
 30
0.0
 11
115.439939
 21
257.236478
 31
0.0
  0
LINE
  8
0
  5
4D360
 10
115.439939
 20
257.236478
 30
0.0
 11
115.440719
 21
257.236478
 31
0.0
  0
LINE
  8
0
  5
4D361
 10
115.472708
 20
257.1054
 30
0.0
 11
115.472708
 21
257.170939
 31
0.0
  0
LINE
  8
0
  5
4D362
 10
115.472708
 20
257.170939
 30
0.0
 11
115.473488
 21
257.170939
 31
0.0
  0
LINE
  8
0
  5
4D363
 10
114.456079
 20
254.01572
 30
0.0
 11
114.456079
 21
254.04927
 31
0.0
  0
LINE
  8
0
  5
4D364
 10
114.456079
 20
254.04927
 30
0.0
 11
114.456859
 21
254.04927
 31
0.0
  0
LINE
  8
0
  5
4D365
 10
114.456079
 20
254.01572
 30
0.0
 11
114.914849
 21
254.278655
 31
0.0
  0
LINE
  8
0
  5
4D366
 10
114.914849
 20
254.278655
 30
0.0
 11
114.91563
 21
254.278655
 31
0.0
  0
LINE
  8
0
  5
4D367
 10
114.258683
 20
254.082039
 30
0.0
 11
114.456079
 21
254.01572
 31
0.0
  0
LINE
  8
0
  5
4D368
 10
114.456079
 20
254.01572
 30
0.0
 11
114.456859
 21
254.01572
 31
0.0
  0
LINE
  8
0
  5
4D369
 10
114.914849
 20
254.278655
 30
0.0
 11
114.914849
 21
254.312205
 31
0.0
  0
LINE
  8
0
  5
4D36A
 10
114.914849
 20
254.312205
 30
0.0
 11
114.91563
 21
254.312205
 31
0.0
  0
LINE
  8
0
  5
4D36B
 10
113.274822
 20
255.330395
 30
0.0
 11
112.782502
 21
255.034691
 31
0.0
  0
LINE
  8
0
  5
4D36C
 10
112.782502
 20
255.034691
 30
0.0
 11
112.783282
 21
255.034691
 31
0.0
  0
LINE
  8
0
  5
4D36D
 10
112.782502
 20
255.034691
 30
0.0
 11
114.456079
 21
254.04927
 31
0.0
  0
LINE
  8
0
  5
4D36E
 10
114.456079
 20
254.04927
 30
0.0
 11
114.456859
 21
254.04927
 31
0.0
  0
LINE
  8
0
  5
4D36F
 10
114.456079
 20
254.04927
 30
0.0
 11
114.914849
 21
254.312205
 31
0.0
  0
LINE
  8
0
  5
4D370
 10
114.914849
 20
254.312205
 30
0.0
 11
114.91563
 21
254.312205
 31
0.0
  0
LINE
  8
0
  5
4D371
 10
114.914849
 20
254.312205
 30
0.0
 11
113.274822
 21
255.330395
 31
0.0
  0
LINE
  8
0
  5
4D372
 10
113.274822
 20
255.330395
 30
0.0
 11
113.275603
 21
255.330395
 31
0.0
  0
LINE
  8
0
  5
4D373
 10
112.782502
 20
255.001921
 30
0.0
 11
112.782502
 21
255.034691
 31
0.0
  0
LINE
  8
0
  5
4D374
 10
112.782502
 20
255.034691
 30
0.0
 11
112.783282
 21
255.034691
 31
0.0
  0
LINE
  8
0
  5
4D375
 10
113.37313
 20
255.297626
 30
0.0
 11
113.37313
 21
255.429483
 31
0.0
  0
LINE
  8
0
  5
4D376
 10
113.37313
 20
255.429483
 30
0.0
 11
113.373911
 21
255.429483
 31
0.0
  0
LINE
  8
0
  5
4D377
 10
111.174464
 20
254.936383
 30
0.0
 11
111.043387
 21
255.034691
 31
0.0
  0
LINE
  8
0
  5
4D378
 10
111.043387
 20
255.034691
 30
0.0
 11
111.044167
 21
255.034691
 31
0.0
  0
LINE
  8
0
  5
4D379
 10
113.242053
 20
253.654478
 30
0.0
 11
113.307592
 21
253.687247
 31
0.0
  0
LINE
  8
0
  5
4D37A
 10
113.307592
 20
253.687247
 30
0.0
 11
113.308372
 21
253.687247
 31
0.0
  0
LINE
  8
0
  5
4D37B
 10
113.37313
 20
253.654478
 30
0.0
 11
111.043387
 21
255.100229
 31
0.0
  0
LINE
  8
0
  5
4D37C
 10
111.043387
 20
255.100229
 30
0.0
 11
111.044167
 21
255.100229
 31
0.0
  0
LINE
  8
0
  5
4D37D
 10
113.307592
 20
253.687247
 30
0.0
 11
113.37313
 21
253.654478
 31
0.0
  0
LINE
  8
0
  5
4D37E
 10
113.37313
 20
253.654478
 30
0.0
 11
113.373911
 21
253.654478
 31
0.0
  0
LINE
  8
0
  5
4D37F
 10
113.438669
 20
253.5234
 30
0.0
 11
113.438669
 21
253.588939
 31
0.0
  0
LINE
  8
0
  5
4D380
 10
113.438669
 20
253.588939
 30
0.0
 11
113.37313
 21
253.654478
 31
0.0
  0
LINE
  8
0
  5
4D381
 10
113.37313
 20
253.654478
 30
0.0
 11
113.373911
 21
253.654478
 31
0.0
  0
LINE
  8
0
  5
4D382
 10
112.946349
 20
258.189909
 30
0.0
 11
113.044657
 21
258.12359
 31
0.0
  0
LINE
  8
0
  5
4D383
 10
113.044657
 20
258.12359
 30
0.0
 11
113.045437
 21
258.12359
 31
0.0
  0
LINE
  8
0
  5
4D384
 10
113.044657
 20
258.12359
 30
0.0
 11
113.011887
 21
258.222679
 31
0.0
  0
LINE
  8
0
  5
4D385
 10
113.011887
 20
258.222679
 30
0.0
 11
113.012668
 21
258.222679
 31
0.0
  0
LINE
  8
0
  5
4D386
 10
112.946349
 20
258.189909
 30
0.0
 11
113.044657
 21
258.12359
 31
0.0
  0
LINE
  8
0
  5
4D387
 10
113.044657
 20
258.12359
 30
0.0
 11
113.045437
 21
258.12359
 31
0.0
  0
LINE
  8
0
  5
4D388
 10
112.946349
 20
258.15636
 30
0.0
 11
113.077426
 21
258.090821
 31
0.0
  0
LINE
  8
0
  5
4D389
 10
113.077426
 20
258.090821
 30
0.0
 11
113.078206
 21
258.090821
 31
0.0
  0
LINE
  8
0
  5
4D38A
 10
113.077426
 20
258.090821
 30
0.0
 11
113.044657
 21
258.12359
 31
0.0
  0
LINE
  8
0
  5
4D38B
 10
113.044657
 20
258.12359
 30
0.0
 11
113.045437
 21
258.12359
 31
0.0
  0
LINE
  8
0
  5
4D38C
 10
112.946349
 20
258.15636
 30
0.0
 11
113.077426
 21
258.090821
 31
0.0
  0
LINE
  8
0
  5
4D38D
 10
113.077426
 20
258.090821
 30
0.0
 11
113.078206
 21
258.090821
 31
0.0
  0
LINE
  8
0
  5
4D38E
 10
112.946349
 20
258.15636
 30
0.0
 11
113.077426
 21
258.090821
 31
0.0
  0
LINE
  8
0
  5
4D38F
 10
113.077426
 20
258.090821
 30
0.0
 11
113.078206
 21
258.090821
 31
0.0
  0
LINE
  8
0
  5
4D390
 10
113.077426
 20
258.090821
 30
0.0
 11
113.142965
 21
258.058052
 31
0.0
  0
LINE
  8
0
  5
4D391
 10
113.142965
 20
258.058052
 30
0.0
 11
113.143745
 21
258.058052
 31
0.0
  0
LINE
  8
0
  5
4D392
 10
113.142965
 20
258.058052
 30
0.0
 11
113.242053
 21
258.090821
 31
0.0
  0
LINE
  8
0
  5
4D393
 10
113.242053
 20
258.090821
 30
0.0
 11
113.242833
 21
258.090821
 31
0.0
  0
LINE
  8
0
  5
4D394
 10
108.549797
 20
256.645069
 30
0.0
 11
108.615335
 21
256.677839
 31
0.0
  0
LINE
  8
0
  5
4D395
 10
108.615335
 20
256.677839
 30
0.0
 11
108.616115
 21
256.677839
 31
0.0
  0
LINE
  8
0
  5
4D396
 10
110.288912
 20
260.1943
 30
0.0
 11
111.995258
 21
259.17533
 31
0.0
  0
LINE
  8
0
  5
4D397
 10
111.995258
 20
259.17533
 30
0.0
 11
111.996038
 21
259.17533
 31
0.0
  0
LINE
  8
0
  5
4D398
 10
110.288912
 20
260.292608
 30
0.0
 11
110.288912
 21
260.1943
 31
0.0
  0
LINE
  8
0
  5
4D399
 10
110.288912
 20
260.1943
 30
0.0
 11
110.289692
 21
260.1943
 31
0.0
  0
LINE
  8
0
  5
4D39A
 10
114.488848
 20
260.457235
 30
0.0
 11
112.486798
 21
261.541744
 31
0.0
  0
LINE
  8
0
  5
4D39B
 10
112.486798
 20
261.541744
 30
0.0
 11
112.487578
 21
261.541744
 31
0.0
  0
LINE
  8
0
  5
4D39C
 10
115.538247
 20
258.814087
 30
0.0
 11
115.702874
 21
258.781318
 31
0.0
  0
LINE
  8
0
  5
4D39D
 10
115.702874
 20
258.781318
 30
0.0
 11
115.703654
 21
258.781318
 31
0.0
  0
LINE
  8
0
  5
4D39E
 10
115.603786
 20
258.386525
 30
0.0
 11
115.538247
 21
258.419295
 31
0.0
  0
LINE
  8
0
  5
4D39F
 10
115.538247
 20
258.419295
 30
0.0
 11
115.539027
 21
258.419295
 31
0.0
  0
LINE
  8
0
  5
4D3A0
 10
110.583836
 20
252.701826
 30
0.0
 11
110.649375
 21
252.800134
 31
0.0
  0
LINE
  8
0
  5
4D3A1
 10
110.649375
 20
252.800134
 30
0.0
 11
110.650155
 21
252.800134
 31
0.0
  0
LINE
  8
0
  5
4D3A2
 10
115.603786
 20
258.879626
 30
0.0
 11
115.702874
 21
258.879626
 31
0.0
  0
LINE
  8
0
  5
4D3A3
 10
115.702874
 20
258.879626
 30
0.0
 11
115.703654
 21
258.879626
 31
0.0
  0
LINE
  8
0
  5
4D3A4
 10
115.538247
 20
257.302016
 30
0.0
 11
115.538247
 21
259.66843
 31
0.0
  0
LINE
  8
0
  5
4D3A5
 10
115.538247
 20
259.66843
 30
0.0
 11
115.539027
 21
259.66843
 31
0.0
  0
LINE
  8
0
  5
4D3A6
 10
115.538247
 20
257.466643
 30
0.0
 11
115.603786
 21
257.499413
 31
0.0
  0
LINE
  8
0
  5
4D3A7
 10
115.603786
 20
257.499413
 30
0.0
 11
115.604566
 21
257.499413
 31
0.0
  0
LINE
  8
0
  5
4D3A8
 10
115.603786
 20
257.499413
 30
0.0
 11
115.603786
 21
258.386525
 31
0.0
  0
LINE
  8
0
  5
4D3A9
 10
115.603786
 20
258.386525
 30
0.0
 11
115.604566
 21
258.386525
 31
0.0
  0
LINE
  8
0
  5
4D3AA
 10
115.603786
 20
258.386525
 30
0.0
 11
115.538247
 21
258.386525
 31
0.0
  0
LINE
  8
0
  5
4D3AB
 10
115.538247
 20
258.386525
 30
0.0
 11
115.539027
 21
258.386525
 31
0.0
  0
LINE
  8
0
  5
4D3AC
 10
115.603786
 20
258.879626
 30
0.0
 11
115.603786
 21
259.7012
 31
0.0
  0
LINE
  8
0
  5
4D3AD
 10
115.603786
 20
259.7012
 30
0.0
 11
115.604566
 21
259.7012
 31
0.0
  0
LINE
  8
0
  5
4D3AE
 10
110.583836
 20
252.01133
 30
0.0
 11
110.583836
 21
252.701826
 31
0.0
  0
LINE
  8
0
  5
4D3AF
 10
110.583836
 20
252.701826
 30
0.0
 11
110.584616
 21
252.701826
 31
0.0
  0
LINE
  8
0
  5
4D3B0
 10
110.583836
 20
252.701826
 30
0.0
 11
110.419989
 21
252.767365
 31
0.0
  0
LINE
  8
0
  5
4D3B1
 10
110.419989
 20
252.767365
 30
0.0
 11
110.420769
 21
252.767365
 31
0.0
  0
LINE
  8
0
  5
4D3B2
 10
110.715693
 20
251.781164
 30
0.0
 11
110.715693
 21
251.945791
 31
0.0
  0
LINE
  8
0
  5
4D3B3
 10
110.715693
 20
251.945791
 30
0.0
 11
110.716474
 21
251.945791
 31
0.0
  0
LINE
  8
0
  5
4D3B4
 10
115.702874
 20
258.781318
 30
0.0
 11
115.702874
 21
258.879626
 31
0.0
  0
LINE
  8
0
  5
4D3B5
 10
115.702874
 20
258.879626
 30
0.0
 11
115.703654
 21
258.879626
 31
0.0
  0
LINE
  8
0
  5
4D3B6
 10
115.702874
 20
258.879626
 30
0.0
 11
115.603786
 21
258.912395
 31
0.0
  0
LINE
  8
0
  5
4D3B7
 10
115.603786
 20
258.912395
 30
0.0
 11
115.604566
 21
258.912395
 31
0.0
  0
LINE
  8
0
  5
4D3B8
 10
115.538247
 20
254.738986
 30
0.0
 11
115.538247
 21
257.13817
 31
0.0
  0
LINE
  8
0
  5
4D3B9
 10
115.538247
 20
257.13817
 30
0.0
 11
115.539027
 21
257.13817
 31
0.0
  0
LINE
  8
0
  5
4D3BA
 10
115.768412
 20
254.870844
 30
0.0
 11
115.603786
 21
254.936383
 31
0.0
  0
LINE
  8
0
  5
4D3BB
 10
115.603786
 20
254.936383
 30
0.0
 11
115.604566
 21
254.936383
 31
0.0
  0
LINE
  8
0
  5
4D3BC
 10
115.538247
 20
254.903613
 30
0.0
 11
115.603786
 21
254.936383
 31
0.0
  0
LINE
  8
0
  5
4D3BD
 10
115.603786
 20
254.936383
 30
0.0
 11
115.604566
 21
254.936383
 31
0.0
  0
LINE
  8
0
  5
4D3BE
 10
115.603786
 20
254.936383
 30
0.0
 11
115.603786
 21
255.921803
 31
0.0
  0
LINE
  8
0
  5
4D3BF
 10
115.603786
 20
255.921803
 30
0.0
 11
115.604566
 21
255.921803
 31
0.0
  0
LINE
  8
0
  5
4D3C0
 10
115.603786
 20
256.447673
 30
0.0
 11
115.603786
 21
257.170939
 31
0.0
  0
LINE
  8
0
  5
4D3C1
 10
115.603786
 20
257.170939
 30
0.0
 11
115.604566
 21
257.170939
 31
0.0
  0
LINE
  8
0
  5
4D3C2
 10
115.538247
 20
256.349365
 30
0.0
 11
115.603786
 21
256.447673
 31
0.0
  0
LINE
  8
0
  5
4D3C3
 10
115.603786
 20
256.447673
 30
0.0
 11
115.604566
 21
256.447673
 31
0.0
  0
LINE
  8
0
  5
4D3C4
 10
115.603786
 20
255.921803
 30
0.0
 11
115.702874
 21
256.020892
 31
0.0
  0
LINE
  8
0
  5
4D3C5
 10
115.702874
 20
256.020892
 30
0.0
 11
115.703654
 21
256.020892
 31
0.0
  0
LINE
  8
0
  5
4D3C6
 10
115.702874
 20
256.020892
 30
0.0
 11
115.702874
 21
256.1192
 31
0.0
  0
LINE
  8
0
  5
4D3C7
 10
115.702874
 20
256.1192
 30
0.0
 11
115.703654
 21
256.1192
 31
0.0
  0
LINE
  8
0
  5
4D3C8
 10
115.472708
 20
253.950182
 30
0.0
 11
115.472708
 21
254.508821
 31
0.0
  0
LINE
  8
0
  5
4D3C9
 10
115.472708
 20
254.508821
 30
0.0
 11
115.473488
 21
254.508821
 31
0.0
  0
LINE
  8
0
  5
4D3CA
 10
113.536977
 20
252.734596
 30
0.0
 11
113.536977
 21
252.832904
 31
0.0
  0
LINE
  8
0
  5
4D3CB
 10
113.536977
 20
252.832904
 30
0.0
 11
113.537757
 21
252.832904
 31
0.0
  0
LINE
  8
0
  5
4D3CC
 10
110.419989
 20
251.518229
 30
0.0
 11
110.846771
 21
251.288844
 31
0.0
  0
LINE
  8
0
  5
4D3CD
 10
110.846771
 20
251.288844
 30
0.0
 11
110.847551
 21
251.288844
 31
0.0
  0
LINE
  8
0
  5
4D3CE
 10
110.846771
 20
251.288844
 30
0.0
 11
111.207233
 21
251.419921
 31
0.0
  0
LINE
  8
0
  5
4D3CF
 10
111.207233
 20
251.419921
 30
0.0
 11
111.208014
 21
251.419921
 31
0.0
  0
LINE
  8
0
  5
4D3D0
 10
113.438669
 20
252.800134
 30
0.0
 11
113.536977
 21
252.734596
 31
0.0
  0
LINE
  8
0
  5
4D3D1
 10
113.536977
 20
252.734596
 30
0.0
 11
113.537757
 21
252.734596
 31
0.0
  0
LINE
  8
0
  5
4D3D2
 10
113.536977
 20
252.734596
 30
0.0
 11
115.276092
 21
253.753566
 31
0.0
  0
LINE
  8
0
  5
4D3D3
 10
115.276092
 20
253.753566
 30
0.0
 11
115.276872
 21
253.753566
 31
0.0
  0
LINE
  8
0
  5
4D3D4
 10
115.276092
 20
253.753566
 30
0.0
 11
115.472708
 21
253.950182
 31
0.0
  0
LINE
  8
0
  5
4D3D5
 10
115.472708
 20
253.950182
 30
0.0
 11
115.473488
 21
253.950182
 31
0.0
  0
LINE
  8
0
  5
4D3D6
 10
111.207233
 20
251.419921
 30
0.0
 11
111.207233
 21
252.044099
 31
0.0
  0
LINE
  8
0
  5
4D3D7
 10
111.207233
 20
252.044099
 30
0.0
 11
111.208014
 21
252.044099
 31
0.0
  0
LINE
  8
0
  5
4D3D8
 10
110.649375
 20
251.813933
 30
0.0
 11
110.419989
 21
251.682856
 31
0.0
  0
LINE
  8
0
  5
4D3D9
 10
110.419989
 20
251.682856
 30
0.0
 11
110.420769
 21
251.682856
 31
0.0
  0
LINE
  8
0
  5
4D3DA
 10
110.419989
 20
251.682856
 30
0.0
 11
110.419989
 21
251.518229
 31
0.0
  0
LINE
  8
0
  5
4D3DB
 10
110.419989
 20
251.518229
 30
0.0
 11
110.420769
 21
251.518229
 31
0.0
  0
LINE
  8
0
  5
4D3DC
 10
111.502938
 20
252.307034
 30
0.0
 11
111.437399
 21
252.274264
 31
0.0
  0
LINE
  8
0
  5
4D3DD
 10
111.437399
 20
252.274264
 30
0.0
 11
111.438179
 21
252.274264
 31
0.0
  0
LINE
  8
0
  5
4D3DE
 10
111.568476
 20
252.339803
 30
0.0
 11
111.502938
 21
252.307034
 31
0.0
  0
LINE
  8
0
  5
4D3DF
 10
111.502938
 20
252.307034
 30
0.0
 11
111.503718
 21
252.307034
 31
0.0
  0
LINE
  8
0
  5
4D3E0
 10
114.422529
 20
253.982951
 30
0.0
 11
114.324221
 21
253.950182
 31
0.0
  0
LINE
  8
0
  5
4D3E1
 10
114.324221
 20
253.950182
 30
0.0
 11
114.325001
 21
253.950182
 31
0.0
  0
LINE
  8
0
  5
4D3E2
 10
114.554387
 20
254.082039
 30
0.0
 11
114.422529
 21
253.982951
 31
0.0
  0
LINE
  8
0
  5
4D3E3
 10
114.422529
 20
253.982951
 30
0.0
 11
114.423309
 21
253.982951
 31
0.0
  0
LINE
  8
0
  5
4D3E4
 10
114.783772
 20
254.213117
 30
0.0
 11
114.554387
 21
254.082039
 31
0.0
  0
LINE
  8
0
  5
4D3E5
 10
114.554387
 20
254.082039
 30
0.0
 11
114.555167
 21
254.082039
 31
0.0
  0
LINE
  8
0
  5
4D3E6
 10
114.324221
 20
256.316596
 30
0.0
 11
114.193144
 21
256.382134
 31
0.0
  0
LINE
  8
0
  5
4D3E7
 10
114.193144
 20
256.382134
 30
0.0
 11
114.193924
 21
256.382134
 31
0.0
  0
LINE
  8
0
  5
4D3E8
 10
114.094836
 20
256.184738
 30
0.0
 11
114.094836
 21
257.039081
 31
0.0
  0
LINE
  8
0
  5
4D3E9
 10
114.094836
 20
257.039081
 30
0.0
 11
114.095616
 21
257.039081
 31
0.0
  0
LINE
  8
0
  5
4D3EA
 10
114.094836
 20
257.039081
 30
0.0
 11
112.585886
 21
257.926974
 31
0.0
  0
LINE
  8
0
  5
4D3EB
 10
112.585886
 20
257.926974
 30
0.0
 11
112.586666
 21
257.926974
 31
0.0
  0
LINE
  8
0
  5
4D3EC
 10
112.651425
 20
257.959744
 30
0.0
 11
112.585886
 21
257.926974
 31
0.0
  0
LINE
  8
0
  5
4D3ED
 10
112.585886
 20
257.926974
 30
0.0
 11
112.586666
 21
257.926974
 31
0.0
  0
LINE
  8
0
  5
4D3EE
 10
114.094836
 20
257.039081
 30
0.0
 11
114.193144
 21
257.1054
 31
0.0
  0
LINE
  8
0
  5
4D3EF
 10
114.193144
 20
257.1054
 30
0.0
 11
114.193924
 21
257.1054
 31
0.0
  0
LINE
  8
0
  5
4D3F0
 10
112.585886
 20
257.006312
 30
0.0
 11
114.094836
 21
256.184738
 31
0.0
  0
LINE
  8
0
  5
4D3F1
 10
114.094836
 20
256.184738
 30
0.0
 11
114.095616
 21
256.184738
 31
0.0
  0
LINE
  8
0
  5
4D3F2
 10
114.094836
 20
256.184738
 30
0.0
 11
114.193144
 21
256.217508
 31
0.0
  0
LINE
  8
0
  5
4D3F3
 10
114.193144
 20
256.217508
 30
0.0
 11
114.193924
 21
256.217508
 31
0.0
  0
LINE
  8
0
  5
4D3F4
 10
112.651425
 20
257.959744
 30
0.0
 11
112.651425
 21
257.992513
 31
0.0
  0
LINE
  8
0
  5
4D3F5
 10
112.651425
 20
257.992513
 30
0.0
 11
112.652205
 21
257.992513
 31
0.0
  0
LINE
  8
0
  5
4D3F6
 10
114.193144
 20
256.217508
 30
0.0
 11
114.193144
 21
257.1054
 31
0.0
  0
LINE
  8
0
  5
4D3F7
 10
114.193144
 20
257.1054
 30
0.0
 11
114.193924
 21
257.1054
 31
0.0
  0
LINE
  8
0
  5
4D3F8
 10
114.193144
 20
257.1054
 30
0.0
 11
112.651425
 21
257.959744
 31
0.0
  0
LINE
  8
0
  5
4D3F9
 10
112.651425
 20
257.959744
 30
0.0
 11
112.652205
 21
257.959744
 31
0.0
  0
LINE
  8
0
  5
4D3FA
 10
115.702874
 20
256.1192
 30
0.0
 11
115.538247
 21
256.184738
 31
0.0
  0
LINE
  8
0
  5
4D3FB
 10
115.538247
 20
256.184738
 30
0.0
 11
115.539027
 21
256.184738
 31
0.0
  0
LINE
  8
0
  5
4D3FC
 10
115.538247
 20
255.921803
 30
0.0
 11
115.702874
 21
256.1192
 31
0.0
  0
LINE
  8
0
  5
4D3FD
 10
115.702874
 20
256.1192
 30
0.0
 11
115.703654
 21
256.1192
 31
0.0
  0
LINE
  8
0
  5
4D3FE
 10
114.324221
 20
258.518383
 30
0.0
 11
114.193144
 21
258.616691
 31
0.0
  0
LINE
  8
0
  5
4D3FF
 10
114.193144
 20
258.616691
 30
0.0
 11
114.193924
 21
258.616691
 31
0.0
  0
LINE
  8
0
  5
4D400
 10
112.585886
 20
257.006312
 30
0.0
 11
112.585886
 21
257.926974
 31
0.0
  0
LINE
  8
0
  5
4D401
 10
112.585886
 20
257.926974
 30
0.0
 11
112.586666
 21
257.926974
 31
0.0
  0
LINE
  8
0
  5
4D402
 10
112.716963
 20
256.842465
 30
0.0
 11
112.716963
 21
256.940773
 31
0.0
  0
LINE
  8
0
  5
4D403
 10
112.716963
 20
256.940773
 30
0.0
 11
112.717744
 21
256.940773
 31
0.0
  0
LINE
  8
0
  5
4D404
 10
112.519567
 20
256.710608
 30
0.0
 11
112.519567
 21
257.926974
 31
0.0
  0
LINE
  8
0
  5
4D405
 10
112.519567
 20
257.926974
 30
0.0
 11
112.520347
 21
257.926974
 31
0.0
  0
LINE
  8
0
  5
4D406
 10
114.324221
 20
256.151969
 30
0.0
 11
114.160375
 21
256.217508
 31
0.0
  0
LINE
  8
0
  5
4D407
 10
114.160375
 20
256.217508
 30
0.0
 11
114.161155
 21
256.217508
 31
0.0
  0
LINE
  8
0
  5
4D408
 10
112.782502
 20
258.058052
 30
0.0
 11
114.324221
 21
257.170939
 31
0.0
  0
LINE
  8
0
  5
4D409
 10
114.324221
 20
257.170939
 30
0.0
 11
114.325001
 21
257.170939
 31
0.0
  0
LINE
  8
0
  5
4D40A
 10
115.439939
 20
254.673448
 30
0.0
 11
115.439939
 21
256.908004
 31
0.0
  0
LINE
  8
0
  5
4D40B
 10
115.439939
 20
256.908004
 30
0.0
 11
115.440719
 21
256.908004
 31
0.0
  0
LINE
  8
0
  5
4D40C
 10
114.324221
 20
257.170939
 30
0.0
 11
114.324221
 21
256.151969
 31
0.0
  0
LINE
  8
0
  5
4D40D
 10
114.324221
 20
256.151969
 30
0.0
 11
114.325001
 21
256.151969
 31
0.0
  0
LINE
  8
0
  5
4D40E
 10
112.257413
 20
256.842465
 30
0.0
 11
112.519567
 21
256.710608
 31
0.0
  0
LINE
  8
0
  5
4D40F
 10
112.519567
 20
256.710608
 30
0.0
 11
112.520347
 21
256.710608
 31
0.0
  0
LINE
  8
0
  5
4D410
 10
112.519567
 20
256.710608
 30
0.0
 11
112.716963
 21
256.842465
 31
0.0
  0
LINE
  8
0
  5
4D411
 10
112.716963
 20
256.842465
 30
0.0
 11
112.717744
 21
256.842465
 31
0.0
  0
LINE
  8
0
  5
4D412
 10
115.3744
 20
256.842465
 30
0.0
 11
115.439939
 21
256.908004
 31
0.0
  0
LINE
  8
0
  5
4D413
 10
115.439939
 20
256.908004
 30
0.0
 11
115.440719
 21
256.908004
 31
0.0
  0
LINE
  8
0
  5
4D414
 10
115.210554
 20
256.842465
 30
0.0
 11
115.145015
 21
256.973543
 31
0.0
  0
LINE
  8
0
  5
4D415
 10
115.145015
 20
256.973543
 30
0.0
 11
115.145795
 21
256.973543
 31
0.0
  0
LINE
  8
0
  5
4D416
 10
115.145015
 20
256.973543
 30
0.0
 11
113.209284
 21
258.090821
 31
0.0
  0
LINE
  8
0
  5
4D417
 10
113.209284
 20
258.090821
 30
0.0
 11
113.210064
 21
258.090821
 31
0.0
  0
LINE
  8
0
  5
4D418
 10
112.88081
 20
258.12359
 30
0.0
 11
115.210554
 21
256.842465
 31
0.0
  0
LINE
  8
0
  5
4D419
 10
115.210554
 20
256.842465
 30
0.0
 11
115.211334
 21
256.842465
 31
0.0
  0
LINE
  8
0
  5
4D41A
 10
115.210554
 20
256.842465
 30
0.0
 11
115.3744
 21
256.842465
 31
0.0
  0
LINE
  8
0
  5
4D41B
 10
115.3744
 20
256.842465
 30
0.0
 11
115.37518
 21
256.842465
 31
0.0
  0
LINE
  8
0
  5
4D41C
 10
115.145015
 20
256.973543
 30
0.0
 11
115.210554
 21
257.203708
 31
0.0
  0
LINE
  8
0
  5
4D41D
 10
115.210554
 20
257.203708
 30
0.0
 11
115.211334
 21
257.203708
 31
0.0
  0
LINE
  8
0
  5
4D41E
 10
115.210554
 20
257.203708
 30
0.0
 11
115.3744
 21
257.335566
 31
0.0
  0
LINE
  8
0
  5
4D41F
 10
115.3744
 20
257.335566
 30
0.0
 11
115.37518
 21
257.335566
 31
0.0
  0
LINE
  8
0
  5
4D420
 10
115.3744
 20
257.335566
 30
0.0
 11
115.439939
 21
257.401105
 31
0.0
  0
LINE
  8
0
  5
4D421
 10
115.439939
 20
257.401105
 30
0.0
 11
115.440719
 21
257.401105
 31
0.0
  0
LINE
  8
0
  5
4D422
 10
115.439939
 20
257.401105
 30
0.0
 11
113.536977
 21
258.518383
 31
0.0
  0
LINE
  8
0
  5
4D423
 10
113.536977
 20
258.518383
 30
0.0
 11
113.537757
 21
258.518383
 31
0.0
  0
LINE
  8
0
  5
4D424
 10
110.485528
 20
252.865673
 30
0.0
 11
110.649375
 21
252.800134
 31
0.0
  0
LINE
  8
0
  5
4D425
 10
110.649375
 20
252.800134
 30
0.0
 11
110.650155
 21
252.800134
 31
0.0
  0
LINE
  8
0
  5
4D426
 10
110.649375
 20
252.800134
 30
0.0
 11
110.649375
 21
253.194146
 31
0.0
  0
LINE
  8
0
  5
4D427
 10
110.649375
 20
253.194146
 30
0.0
 11
110.650155
 21
253.194146
 31
0.0
  0
LINE
  8
0
  5
4D428
 10
110.419989
 20
252.767365
 30
0.0
 11
110.419989
 21
251.945791
 31
0.0
  0
LINE
  8
0
  5
4D429
 10
110.419989
 20
251.945791
 30
0.0
 11
110.420769
 21
251.945791
 31
0.0
  0
LINE
  8
0
  5
4D42A
 10
110.485528
 20
252.865673
 30
0.0
 11
110.419989
 21
252.767365
 31
0.0
  0
LINE
  8
0
  5
4D42B
 10
110.419989
 20
252.767365
 30
0.0
 11
110.420769
 21
252.767365
 31
0.0
  0
LINE
  8
0
  5
4D42C
 10
110.485528
 20
253.0303
 30
0.0
 11
110.485528
 21
252.865673
 31
0.0
  0
LINE
  8
0
  5
4D42D
 10
110.485528
 20
252.865673
 30
0.0
 11
110.486308
 21
252.865673
 31
0.0
  0
LINE
  8
0
  5
4D42E
 10
110.912309
 20
252.044099
 30
0.0
 11
110.912309
 21
254.443282
 31
0.0
  0
LINE
  8
0
  5
4D42F
 10
110.912309
 20
254.443282
 30
0.0
 11
110.91309
 21
254.443282
 31
0.0
  0
LINE
  8
0
  5
4D430
 10
108.057476
 20
256.251057
 30
0.0
 11
107.89363
 21
256.151969
 31
0.0
  0
LINE
  8
0
  5
4D431
 10
107.89363
 20
256.151969
 30
0.0
 11
107.89441
 21
256.151969
 31
0.0
  0
LINE
  8
0
  5
4D432
 10
109.632745
 20
255.363164
 30
0.0
 11
108.057476
 21
256.251057
 31
0.0
  0
LINE
  8
0
  5
4D433
 10
108.057476
 20
256.251057
 30
0.0
 11
108.058257
 21
256.251057
 31
0.0
  0
LINE
  8
0
  5
4D434
 10
108.090246
 20
254.771756
 30
0.0
 11
107.89363
 21
254.640678
 31
0.0
  0
LINE
  8
0
  5
4D435
 10
107.89363
 20
254.640678
 30
0.0
 11
107.89441
 21
254.640678
 31
0.0
  0
LINE
  8
0
  5
4D436
 10
110.256143
 20
260.062443
 30
0.0
 11
110.256143
 21
260.029673
 31
0.0
  0
LINE
  8
0
  5
4D437
 10
110.256143
 20
260.029673
 30
0.0
 11
110.256923
 21
260.029673
 31
0.0
  0
LINE
  8
0
  5
4D438
 10
108.090246
 20
256.316596
 30
0.0
 11
108.057476
 21
256.251057
 31
0.0
  0
LINE
  8
0
  5
4D439
 10
108.057476
 20
256.251057
 30
0.0
 11
108.058257
 21
256.251057
 31
0.0
  0
LINE
  8
0
  5
4D43A
 10
110.781232
 20
252.143187
 30
0.0
 11
110.781232
 21
254.377744
 31
0.0
  0
LINE
  8
0
  5
4D43B
 10
110.781232
 20
254.377744
 30
0.0
 11
110.782012
 21
254.377744
 31
0.0
  0
LINE
  8
0
  5
4D43C
 10
109.698284
 20
255.100229
 30
0.0
 11
107.89363
 21
256.151969
 31
0.0
  0
LINE
  8
0
  5
4D43D
 10
107.89363
 20
256.151969
 30
0.0
 11
107.89441
 21
256.151969
 31
0.0
  0
LINE
  8
0
  5
4D43E
 10
107.89363
 20
256.151969
 30
0.0
 11
107.89363
 21
255.757957
 31
0.0
  0
LINE
  8
0
  5
4D43F
 10
107.89363
 20
255.757957
 30
0.0
 11
107.89441
 21
255.757957
 31
0.0
  0
LINE
  8
0
  5
4D440
 10
107.89363
 20
256.875235
 30
0.0
 11
107.89363
 21
256.447673
 31
0.0
  0
LINE
  8
0
  5
4D441
 10
107.89363
 20
256.447673
 30
0.0
 11
107.89441
 21
256.447673
 31
0.0
  0
LINE
  8
0
  5
4D442
 10
107.89363
 20
256.447673
 30
0.0
 11
109.698284
 21
255.330395
 31
0.0
  0
LINE
  8
0
  5
4D443
 10
109.698284
 20
255.330395
 30
0.0
 11
109.699064
 21
255.330395
 31
0.0
  0
LINE
  8
0
  5
4D444
 10
109.698284
 20
255.330395
 30
0.0
 11
109.698284
 21
255.100229
 31
0.0
  0
LINE
  8
0
  5
4D445
 10
109.698284
 20
255.100229
 30
0.0
 11
109.699064
 21
255.100229
 31
0.0
  0
LINE
  8
0
  5
4D446
 10
109.796592
 20
254.57436
 30
0.0
 11
109.796592
 21
254.114809
 31
0.0
  0
LINE
  8
0
  5
4D447
 10
109.796592
 20
254.114809
 30
0.0
 11
109.797372
 21
254.114809
 31
0.0
  0
LINE
  8
0
  5
4D448
 10
109.796592
 20
254.114809
 30
0.0
 11
110.419989
 21
253.720016
 31
0.0
  0
LINE
  8
0
  5
4D449
 10
110.419989
 20
253.720016
 30
0.0
 11
110.420769
 21
253.720016
 31
0.0
  0
LINE
  8
0
  5
4D44A
 10
107.89363
 20
255.757957
 30
0.0
 11
109.796592
 21
254.57436
 31
0.0
  0
LINE
  8
0
  5
4D44B
 10
109.796592
 20
254.57436
 30
0.0
 11
109.797372
 21
254.57436
 31
0.0
  0
LINE
  8
0
  5
4D44C
 10
114.554387
 20
254.01572
 30
0.0
 11
114.422529
 21
253.982951
 31
0.0
  0
LINE
  8
0
  5
4D44D
 10
114.422529
 20
253.982951
 30
0.0
 11
114.423309
 21
253.982951
 31
0.0
  0
LINE
  8
0
  5
4D44E
 10
114.619925
 20
253.950182
 30
0.0
 11
114.554387
 21
254.01572
 31
0.0
  0
LINE
  8
0
  5
4D44F
 10
114.554387
 20
254.01572
 30
0.0
 11
114.555167
 21
254.01572
 31
0.0
  0
LINE
  8
0
  5
4D450
 10
111.240003
 20
254.903613
 30
0.0
 11
111.043387
 21
255.034691
 31
0.0
  0
LINE
  8
0
  5
4D451
 10
111.043387
 20
255.034691
 30
0.0
 11
111.044167
 21
255.034691
 31
0.0
  0
LINE
  8
0
  5
4D452
 10
111.108925
 20
254.870844
 30
0.0
 11
111.240003
 21
254.903613
 31
0.0
  0
LINE
  8
0
  5
4D453
 10
111.240003
 20
254.903613
 30
0.0
 11
111.240783
 21
254.903613
 31
0.0
  0
LINE
  8
0
  5
4D454
 10
111.240003
 20
254.903613
 30
0.0
 11
111.043387
 21
255.034691
 31
0.0
  0
LINE
  8
0
  5
4D455
 10
111.043387
 20
255.034691
 30
0.0
 11
111.044167
 21
255.034691
 31
0.0
  0
LINE
  8
0
  5
4D456
 10
111.108925
 20
254.377744
 30
0.0
 11
111.240003
 21
254.54159
 31
0.0
  0
LINE
  8
0
  5
4D457
 10
111.240003
 20
254.54159
 30
0.0
 11
111.240783
 21
254.54159
 31
0.0
  0
LINE
  8
0
  5
4D458
 10
111.240003
 20
254.54159
 30
0.0
 11
111.305541
 21
254.738986
 31
0.0
  0
LINE
  8
0
  5
4D459
 10
111.305541
 20
254.738986
 30
0.0
 11
111.306322
 21
254.738986
 31
0.0
  0
LINE
  8
0
  5
4D45A
 10
111.305541
 20
254.738986
 30
0.0
 11
111.240003
 21
254.903613
 31
0.0
  0
LINE
  8
0
  5
4D45B
 10
111.240003
 20
254.903613
 30
0.0
 11
111.240783
 21
254.903613
 31
0.0
  0
LINE
  8
0
  5
4D45C
 10
111.043387
 20
254.344974
 30
0.0
 11
111.108925
 21
254.377744
 31
0.0
  0
LINE
  8
0
  5
4D45D
 10
111.108925
 20
254.377744
 30
0.0
 11
111.109706
 21
254.377744
 31
0.0
  0
LINE
  8
0
  5
4D45E
 10
111.470168
 20
251.97856
 30
0.0
 11
111.437399
 21
251.97856
 31
0.0
  0
LINE
  8
0
  5
4D45F
 10
111.437399
 20
251.97856
 30
0.0
 11
111.438179
 21
251.97856
 31
0.0
  0
LINE
  8
0
  5
4D460
 10
111.470168
 20
251.97856
 30
0.0
 11
111.437399
 21
251.97856
 31
0.0
  0
LINE
  8
0
  5
4D461
 10
111.437399
 20
251.97856
 30
0.0
 11
111.438179
 21
251.97856
 31
0.0
  0
LINE
  8
0
  5
4D462
 10
111.437399
 20
252.01133
 30
0.0
 11
111.502938
 21
251.97856
 31
0.0
  0
LINE
  8
0
  5
4D463
 10
111.502938
 20
251.97856
 30
0.0
 11
111.503718
 21
251.97856
 31
0.0
  0
LINE
  8
0
  5
4D464
 10
111.502938
 20
251.97856
 30
0.0
 11
111.437399
 21
252.01133
 31
0.0
  0
LINE
  8
0
  5
4D465
 10
111.437399
 20
252.01133
 30
0.0
 11
111.438179
 21
252.01133
 31
0.0
  0
LINE
  8
0
  5
4D466
 10
112.060797
 20
252.307034
 30
0.0
 11
111.928939
 21
252.373353
 31
0.0
  0
LINE
  8
0
  5
4D467
 10
111.928939
 20
252.373353
 30
0.0
 11
111.929719
 21
252.373353
 31
0.0
  0
LINE
  8
0
  5
4D468
 10
110.781232
 20
251.813933
 30
0.0
 11
110.781232
 21
251.48546
 31
0.0
  0
LINE
  8
0
  5
4D469
 10
110.781232
 20
251.48546
 30
0.0
 11
110.782012
 21
251.48546
 31
0.0
  0
LINE
  8
0
  5
4D46A
 10
111.928939
 20
252.373353
 30
0.0
 11
111.437399
 21
252.110418
 31
0.0
  0
LINE
  8
0
  5
4D46B
 10
111.437399
 20
252.110418
 30
0.0
 11
111.438179
 21
252.110418
 31
0.0
  0
LINE
  8
0
  5
4D46C
 10
112.060797
 20
252.307034
 30
0.0
 11
111.962489
 21
252.406122
 31
0.0
  0
LINE
  8
0
  5
4D46D
 10
111.962489
 20
252.406122
 30
0.0
 11
111.963269
 21
252.406122
 31
0.0
  0
LINE
  8
0
  5
4D46E
 10
111.962489
 20
252.406122
 30
0.0
 11
111.928939
 21
252.373353
 31
0.0
  0
LINE
  8
0
  5
4D46F
 10
111.928939
 20
252.373353
 30
0.0
 11
111.929719
 21
252.373353
 31
0.0
  0
LINE
  8
0
  5
4D470
 10
112.093566
 20
252.339803
 30
0.0
 11
111.962489
 21
252.406122
 31
0.0
  0
LINE
  8
0
  5
4D471
 10
111.962489
 20
252.406122
 30
0.0
 11
111.963269
 21
252.406122
 31
0.0
  0
LINE
  8
0
  5
4D472
 10
112.060797
 20
252.307034
 30
0.0
 11
112.093566
 21
252.339803
 31
0.0
  0
LINE
  8
0
  5
4D473
 10
112.093566
 20
252.339803
 30
0.0
 11
112.094346
 21
252.339803
 31
0.0
  0
LINE
  8
0
  5
4D474
 10
112.093566
 20
252.339803
 30
0.0
 11
111.962489
 21
252.438891
 31
0.0
  0
LINE
  8
0
  5
4D475
 10
111.962489
 20
252.438891
 30
0.0
 11
111.963269
 21
252.438891
 31
0.0
  0
LINE
  8
0
  5
4D476
 10
111.962489
 20
252.438891
 30
0.0
 11
111.962489
 21
252.406122
 31
0.0
  0
LINE
  8
0
  5
4D477
 10
111.962489
 20
252.406122
 30
0.0
 11
111.963269
 21
252.406122
 31
0.0
  0
LINE
  8
0
  5
4D478
 10
112.126335
 20
252.406122
 30
0.0
 11
111.962489
 21
252.438891
 31
0.0
  0
LINE
  8
0
  5
4D479
 10
111.962489
 20
252.438891
 30
0.0
 11
111.963269
 21
252.438891
 31
0.0
  0
LINE
  8
0
  5
4D47A
 10
111.962489
 20
252.438891
 30
0.0
 11
112.126335
 21
252.373353
 31
0.0
  0
LINE
  8
0
  5
4D47B
 10
112.126335
 20
252.373353
 30
0.0
 11
112.127115
 21
252.373353
 31
0.0
  0
LINE
  8
0
  5
4D47C
 10
112.126335
 20
252.373353
 30
0.0
 11
112.126335
 21
252.406122
 31
0.0
  0
LINE
  8
0
  5
4D47D
 10
112.126335
 20
252.406122
 30
0.0
 11
112.127115
 21
252.406122
 31
0.0
  0
LINE
  8
0
  5
4D47E
 10
112.126335
 20
252.406122
 30
0.0
 11
111.995258
 21
252.471661
 31
0.0
  0
LINE
  8
0
  5
4D47F
 10
111.995258
 20
252.471661
 30
0.0
 11
111.996038
 21
252.471661
 31
0.0
  0
LINE
  8
0
  5
4D480
 10
111.995258
 20
252.471661
 30
0.0
 11
111.962489
 21
252.438891
 31
0.0
  0
LINE
  8
0
  5
4D481
 10
111.962489
 20
252.438891
 30
0.0
 11
111.963269
 21
252.438891
 31
0.0
  0
LINE
  8
0
  5
4D482
 10
112.093566
 20
252.339803
 30
0.0
 11
112.126335
 21
252.373353
 31
0.0
  0
LINE
  8
0
  5
4D483
 10
112.126335
 20
252.373353
 30
0.0
 11
112.127115
 21
252.373353
 31
0.0
  0
LINE
  8
0
  5
4D484
 10
111.995258
 20
252.471661
 30
0.0
 11
112.126335
 21
252.438891
 31
0.0
  0
LINE
  8
0
  5
4D485
 10
112.126335
 20
252.438891
 30
0.0
 11
112.127115
 21
252.438891
 31
0.0
  0
LINE
  8
0
  5
4D486
 10
112.126335
 20
252.438891
 30
0.0
 11
111.995258
 21
252.50443
 31
0.0
  0
LINE
  8
0
  5
4D487
 10
111.995258
 20
252.50443
 30
0.0
 11
111.996038
 21
252.50443
 31
0.0
  0
LINE
  8
0
  5
4D488
 10
111.995258
 20
252.50443
 30
0.0
 11
111.995258
 21
252.471661
 31
0.0
  0
LINE
  8
0
  5
4D489
 10
111.995258
 20
252.471661
 30
0.0
 11
111.996038
 21
252.471661
 31
0.0
  0
LINE
  8
0
  5
4D48A
 10
112.126335
 20
252.406122
 30
0.0
 11
112.126335
 21
252.438891
 31
0.0
  0
LINE
  8
0
  5
4D48B
 10
112.126335
 20
252.438891
 30
0.0
 11
112.127115
 21
252.438891
 31
0.0
  0
LINE
  8
0
  5
4D48C
 10
110.715693
 20
256.875235
 30
0.0
 11
110.912309
 21
257.006312
 31
0.0
  0
LINE
  8
0
  5
4D48D
 10
110.912309
 20
257.006312
 30
0.0
 11
110.91309
 21
257.006312
 31
0.0
  0
LINE
  8
0
  5
4D48E
 10
111.010617
 20
254.54159
 30
0.0
 11
111.010617
 21
254.57436
 31
0.0
  0
LINE
  8
0
  5
4D48F
 10
111.010617
 20
254.57436
 30
0.0
 11
111.011398
 21
254.57436
 31
0.0
  0
LINE
  8
0
  5
4D490
 10
111.010617
 20
254.57436
 30
0.0
 11
111.010617
 21
254.607909
 31
0.0
  0
LINE
  8
0
  5
4D491
 10
111.010617
 20
254.607909
 30
0.0
 11
111.011398
 21
254.607909
 31
0.0
  0
LINE
  8
0
  5
4D492
 10
111.010617
 20
254.607909
 30
0.0
 11
111.043387
 21
254.673448
 31
0.0
  0
LINE
  8
0
  5
4D493
 10
111.043387
 20
254.673448
 30
0.0
 11
111.044167
 21
254.673448
 31
0.0
  0
LINE
  8
0
  5
4D494
 10
111.502938
 20
251.97856
 30
0.0
 11
111.470168
 21
251.97856
 31
0.0
  0
LINE
  8
0
  5
4D495
 10
111.470168
 20
251.97856
 30
0.0
 11
111.437399
 21
251.97856
 31
0.0
  0
LINE
  8
0
  5
4D496
 10
111.437399
 20
251.97856
 30
0.0
 11
111.438179
 21
251.97856
 31
0.0
  0
LINE
  8
0
  5
4D497
 10
112.060797
 20
252.307034
 30
0.0
 11
111.502938
 21
251.97856
 31
0.0
  0
LINE
  8
0
  5
4D498
 10
111.502938
 20
251.97856
 30
0.0
 11
111.503718
 21
251.97856
 31
0.0
  0
LINE
  8
0
  5
4D499
 10
111.207233
 20
251.419921
 30
0.0
 11
112.946349
 21
252.406122
 31
0.0
  0
LINE
  8
0
  5
4D49A
 10
112.946349
 20
252.406122
 30
0.0
 11
112.947129
 21
252.406122
 31
0.0
  0
LINE
  8
0
  5
4D49B
 10
111.437399
 20
252.01133
 30
0.0
 11
111.437399
 21
252.339803
 31
0.0
  0
LINE
  8
0
  5
4D49C
 10
111.437399
 20
252.339803
 30
0.0
 11
111.438179
 21
252.339803
 31
0.0
  0
LINE
  8
0
  5
4D49D
 10
111.437399
 20
251.97856
 30
0.0
 11
111.437399
 21
252.01133
 31
0.0
  0
LINE
  8
0
  5
4D49E
 10
111.437399
 20
252.01133
 30
0.0
 11
111.438179
 21
252.01133
 31
0.0
  0
LINE
  8
0
  5
4D49F
 10
111.437399
 20
257.302016
 30
0.0
 11
111.437399
 21
257.63127
 31
0.0
  0
LINE
  8
0
  5
4D4A0
 10
111.437399
 20
257.63127
 30
0.0
 11
111.438179
 21
257.63127
 31
0.0
  0
LINE
  8
0
  5
4D4A1
 10
111.437399
 20
257.63127
 30
0.0
 11
111.437399
 21
257.664039
 31
0.0
  0
LINE
  8
0
  5
4D4A2
 10
111.437399
 20
257.664039
 30
0.0
 11
111.438179
 21
257.664039
 31
0.0
  0
LINE
  8
0
  5
4D4A3
 10
111.437399
 20
257.664039
 30
0.0
 11
111.437399
 21
257.696809
 31
0.0
  0
LINE
  8
0
  5
4D4A4
 10
111.437399
 20
257.696809
 30
0.0
 11
111.438179
 21
257.696809
 31
0.0
  0
LINE
  8
0
  5
4D4A5
 10
111.437399
 20
257.696809
 30
0.0
 11
111.470168
 21
257.729578
 31
0.0
  0
LINE
  8
0
  5
4D4A6
 10
111.470168
 20
257.729578
 30
0.0
 11
111.470949
 21
257.729578
 31
0.0
  0
LINE
  8
0
  5
4D4A7
 10
111.470168
 20
257.729578
 30
0.0
 11
111.502938
 21
257.729578
 31
0.0
  0
LINE
  8
0
  5
4D4A8
 10
111.502938
 20
257.729578
 30
0.0
 11
111.503718
 21
257.729578
 31
0.0
  0
LINE
  8
0
  5
4D4A9
 10
111.502938
 20
257.729578
 30
0.0
 11
112.060797
 21
258.058052
 31
0.0
  0
LINE
  8
0
  5
4D4AA
 10
112.060797
 20
258.058052
 30
0.0
 11
112.061577
 21
258.058052
 31
0.0
  0
LINE
  8
0
  5
4D4AB
 10
112.946349
 20
258.912395
 30
0.0
 11
112.946349
 21
258.977934
 31
0.0
  0
LINE
  8
0
  5
4D4AC
 10
112.946349
 20
258.977934
 30
0.0
 11
112.947129
 21
258.977934
 31
0.0
  0
LINE
  8
0
  5
4D4AD
 10
112.946349
 20
252.406122
 30
0.0
 11
112.946349
 21
252.50443
 31
0.0
  0
LINE
  8
0
  5
4D4AE
 10
112.946349
 20
252.50443
 30
0.0
 11
112.947129
 21
252.50443
 31
0.0
  0
LINE
  8
0
  5
4D4AF
 10
113.242053
 20
253.260465
 30
0.0
 11
113.175734
 21
253.260465
 31
0.0
  0
LINE
  8
0
  5
4D4B0
 10
113.175734
 20
253.260465
 30
0.0
 11
113.176514
 21
253.260465
 31
0.0
  0
LINE
  8
0
  5
4D4B1
 10
113.175734
 20
258.386525
 30
0.0
 11
113.242053
 21
258.452844
 31
0.0
  0
LINE
  8
0
  5
4D4B2
 10
113.242053
 20
258.452844
 30
0.0
 11
113.242833
 21
258.452844
 31
0.0
  0
LINE
  8
0
  5
4D4B3
 10
113.536977
 20
259.240869
 30
0.0
 11
112.946349
 21
258.912395
 31
0.0
  0
LINE
  8
0
  5
4D4B4
 10
112.946349
 20
258.912395
 30
0.0
 11
112.947129
 21
258.912395
 31
0.0
  0
LINE
  8
0
  5
4D4B5
 10
112.946349
 20
252.50443
 30
0.0
 11
113.536977
 21
252.832904
 31
0.0
  0
LINE
  8
0
  5
4D4B6
 10
113.536977
 20
252.832904
 30
0.0
 11
113.537757
 21
252.832904
 31
0.0
  0
LINE
  8
0
  5
4D4B7
 10
113.175734
 20
253.260465
 30
0.0
 11
113.142965
 21
253.326004
 31
0.0
  0
LINE
  8
0
  5
4D4B8
 10
113.142965
 20
253.326004
 30
0.0
 11
113.143745
 21
253.326004
 31
0.0
  0
LINE
  8
0
  5
4D4B9
 10
113.142965
 20
258.288217
 30
0.0
 11
113.175734
 21
258.386525
 31
0.0
  0
LINE
  8
0
  5
4D4BA
 10
113.175734
 20
258.386525
 30
0.0
 11
113.176514
 21
258.386525
 31
0.0
  0
LINE
  8
0
  5
4D4BB
 10
113.142965
 20
253.326004
 30
0.0
 11
113.175734
 21
253.424312
 31
0.0
  0
LINE
  8
0
  5
4D4BC
 10
113.175734
 20
253.424312
 30
0.0
 11
113.176514
 21
253.424312
 31
0.0
  0
LINE
  8
0
  5
4D4BD
 10
113.242053
 20
258.222679
 30
0.0
 11
113.175734
 21
258.222679
 31
0.0
  0
LINE
  8
0
  5
4D4BE
 10
113.175734
 20
258.222679
 30
0.0
 11
113.142965
 21
258.288217
 31
0.0
  0
LINE
  8
0
  5
4D4BF
 10
113.142965
 20
258.288217
 30
0.0
 11
113.143745
 21
258.288217
 31
0.0
  0
LINE
  8
0
  5
4D4C0
 10
113.307592
 20
253.358773
 30
0.0
 11
113.242053
 21
253.260465
 31
0.0
  0
LINE
  8
0
  5
4D4C1
 10
113.242053
 20
253.260465
 30
0.0
 11
113.242833
 21
253.260465
 31
0.0
  0
LINE
  8
0
  5
4D4C2
 10
113.242053
 20
258.452844
 30
0.0
 11
113.307592
 21
258.485613
 31
0.0
  0
LINE
  8
0
  5
4D4C3
 10
113.307592
 20
258.485613
 30
0.0
 11
113.308372
 21
258.485613
 31
0.0
  0
LINE
  8
0
  5
4D4C4
 10
114.324221
 20
253.720016
 30
0.0
 11
114.324221
 21
254.04927
 31
0.0
  0
LINE
  8
0
  5
4D4C5
 10
114.324221
 20
254.04927
 30
0.0
 11
114.325001
 21
254.04927
 31
0.0
  0
LINE
  8
0
  5
4D4C6
 10
114.324221
 20
258.977934
 30
0.0
 11
114.324221
 21
259.307187
 31
0.0
  0
LINE
  8
0
  5
4D4C7
 10
114.324221
 20
259.307187
 30
0.0
 11
114.325001
 21
259.307187
 31
0.0
  0
LINE
  8
0
  5
4D4C8
 10
114.422529
 20
253.654478
 30
0.0
 11
114.38976
 21
253.654478
 31
0.0
  0
LINE
  8
0
  5
4D4C9
 10
114.38976
 20
253.654478
 30
0.0
 11
114.356991
 21
253.654478
 31
0.0
  0
LINE
  8
0
  5
4D4CA
 10
114.356991
 20
253.654478
 30
0.0
 11
114.356991
 21
253.687247
 31
0.0
  0
LINE
  8
0
  5
4D4CB
 10
114.356991
 20
253.687247
 30
0.0
 11
114.324221
 21
253.720016
 31
0.0
  0
LINE
  8
0
  5
4D4CC
 10
114.324221
 20
253.720016
 30
0.0
 11
114.325001
 21
253.720016
 31
0.0
  0
LINE
  8
0
  5
4D4CD
 10
114.324221
 20
259.307187
 30
0.0
 11
114.356991
 21
259.339957
 31
0.0
  0
LINE
  8
0
  5
4D4CE
 10
114.356991
 20
259.339957
 30
0.0
 11
114.356991
 21
259.372726
 31
0.0
  0
LINE
  8
0
  5
4D4CF
 10
114.356991
 20
259.372726
 30
0.0
 11
114.38976
 21
259.405495
 31
0.0
  0
LINE
  8
0
  5
4D4D0
 10
114.38976
 20
259.405495
 30
0.0
 11
114.422529
 21
259.438265
 31
0.0
  0
LINE
  8
0
  5
4D4D1
 10
114.422529
 20
259.438265
 30
0.0
 11
114.423309
 21
259.438265
 31
0.0
  0
LINE
  8
0
  5
4D4D2
 10
115.276092
 20
253.753566
 30
0.0
 11
115.276092
 21
254.410513
 31
0.0
  0
LINE
  8
0
  5
4D4D3
 10
115.276092
 20
254.410513
 30
0.0
 11
115.276872
 21
254.410513
 31
0.0
  0
LINE
  8
0
  5
4D4D4
 10
115.276092
 20
259.66843
 30
0.0
 11
115.276092
 21
260.325377
 31
0.0
  0
LINE
  8
0
  5
4D4D5
 10
115.276092
 20
260.325377
 30
0.0
 11
115.276872
 21
260.325377
 31
0.0
  0
LINE
  8
0
  5
4D4D6
 10
115.308862
 20
256.973543
 30
0.0
 11
115.276092
 21
257.039081
 31
0.0
  0
LINE
  8
0
  5
4D4D7
 10
115.276092
 20
257.039081
 30
0.0
 11
115.276872
 21
257.039081
 31
0.0
  0
LINE
  8
0
  5
4D4D8
 10
115.276092
 20
257.039081
 30
0.0
 11
115.308862
 21
257.13817
 31
0.0
  0
LINE
  8
0
  5
4D4D9
 10
115.308862
 20
257.13817
 30
0.0
 11
115.309642
 21
257.13817
 31
0.0
  0
LINE
  8
0
  5
4D4DA
 10
115.3744
 20
256.973543
 30
0.0
 11
115.308862
 21
256.973543
 31
0.0
  0
LINE
  8
0
  5
4D4DB
 10
115.308862
 20
256.973543
 30
0.0
 11
115.309642
 21
256.973543
 31
0.0
  0
LINE
  8
0
  5
4D4DC
 10
115.538247
 20
257.13817
 30
0.0
 11
115.768412
 21
257.236478
 31
0.0
  0
LINE
  8
0
  5
4D4DD
 10
115.768412
 20
257.236478
 30
0.0
 11
115.769193
 21
257.236478
 31
0.0
  0
LINE
  8
0
  5
4D4DE
 10
115.768412
 20
254.706217
 30
0.0
 11
115.768412
 21
254.870844
 31
0.0
  0
LINE
  8
0
  5
4D4DF
 10
115.768412
 20
254.870844
 30
0.0
 11
115.769193
 21
254.870844
 31
0.0
  0
LINE
  8
0
  5
4D4E0
 10
115.768412
 20
254.870844
 30
0.0
 11
115.538247
 21
254.738986
 31
0.0
  0
LINE
  8
0
  5
4D4E1
 10
115.538247
 20
254.738986
 30
0.0
 11
115.539027
 21
254.738986
 31
0.0
  0
LINE
  8
0
  5
4D4E2
 10
115.768412
 20
257.236478
 30
0.0
 11
115.768412
 21
257.401105
 31
0.0
  0
LINE
  8
0
  5
4D4E3
 10
115.768412
 20
257.401105
 30
0.0
 11
115.769193
 21
257.401105
 31
0.0
  0
LINE
  8
0
  5
4D4E4
 10
115.768412
 20
257.401105
 30
0.0
 11
115.538247
 21
257.302016
 31
0.0
  0
LINE
  8
0
  5
4D4E5
 10
115.538247
 20
257.302016
 30
0.0
 11
115.539027
 21
257.302016
 31
0.0
  0
LINE
  8
0
  5
4D4E6
 10
115.538247
 20
259.66843
 30
0.0
 11
115.768412
 21
259.799508
 31
0.0
  0
LINE
  8
0
  5
4D4E7
 10
115.768412
 20
259.799508
 30
0.0
 11
115.769193
 21
259.799508
 31
0.0
  0
LINE
  8
0
  5
4D4E8
 10
115.768412
 20
259.799508
 30
0.0
 11
115.768412
 21
259.964135
 31
0.0
  0
LINE
  8
0
  5
4D4E9
 10
115.768412
 20
259.964135
 30
0.0
 11
115.769193
 21
259.964135
 31
0.0
  0
LINE
  8
0
  5
4D4EA
 10
111.995258
 20
252.669057
 30
0.0
 11
111.995258
 21
252.635507
 31
0.0
  0
LINE
  8
0
  5
4D4EB
 10
111.995258
 20
252.635507
 30
0.0
 11
111.996038
 21
252.635507
 31
0.0
  0
LINE
  8
0
  5
4D4EC
 10
111.995258
 20
252.602738
 30
0.0
 11
111.995258
 21
252.50443
 31
0.0
  0
LINE
  8
0
  5
4D4ED
 10
111.995258
 20
252.50443
 30
0.0
 11
111.996038
 21
252.50443
 31
0.0
  0
LINE
  8
0
  5
4D4EE
 10
112.126335
 20
252.438891
 30
0.0
 11
112.126335
 21
252.767365
 31
0.0
  0
LINE
  8
0
  5
4D4EF
 10
112.126335
 20
252.767365
 30
0.0
 11
112.127115
 21
252.767365
 31
0.0
  0
LINE
  8
0
  5
4D4F0
 10
108.943809
 20
254.344974
 30
0.0
 11
108.811951
 21
254.278655
 31
0.0
  0
LINE
  8
0
  5
4D4F1
 10
108.811951
 20
254.278655
 30
0.0
 11
108.812731
 21
254.278655
 31
0.0
  0
LINE
  8
0
  5
4D4F2
 10
111.043387
 20
252.110418
 30
0.0
 11
111.437399
 21
252.339803
 31
0.0
  0
LINE
  8
0
  5
4D4F3
 10
111.437399
 20
252.339803
 30
0.0
 11
111.438179
 21
252.339803
 31
0.0
  0
LINE
  8
0
  5
4D4F4
 10
113.011887
 20
253.260465
 30
0.0
 11
111.108925
 21
254.377744
 31
0.0
  0
LINE
  8
0
  5
4D4F5
 10
111.108925
 20
254.377744
 30
0.0
 11
111.109706
 21
254.377744
 31
0.0
  0
LINE
  8
0
  5
4D4F6
 10
111.043387
 20
253.391543
 30
0.0
 11
112.126335
 21
252.767365
 31
0.0
  0
LINE
  8
0
  5
4D4F7
 10
112.126335
 20
252.767365
 30
0.0
 11
112.127115
 21
252.767365
 31
0.0
  0
LINE
  8
0
  5
4D4F8
 10
112.126335
 20
252.767365
 30
0.0
 11
113.011887
 21
253.260465
 31
0.0
  0
LINE
  8
0
  5
4D4F9
 10
113.011887
 20
253.260465
 30
0.0
 11
113.012668
 21
253.260465
 31
0.0
  0
LINE
  8
0
  5
4D4FA
 10
111.437399
 20
252.339803
 30
0.0
 11
111.043387
 21
252.602738
 31
0.0
  0
LINE
  8
0
  5
4D4FB
 10
111.043387
 20
252.602738
 30
0.0
 11
111.044167
 21
252.602738
 31
0.0
  0
LINE
  8
0
  5
4D4FC
 10
108.615335
 20
254.476052
 30
0.0
 11
108.615335
 21
254.54159
 31
0.0
  0
LINE
  8
0
  5
4D4FD
 10
108.615335
 20
254.54159
 30
0.0
 11
108.616115
 21
254.54159
 31
0.0
  0
LINE
  8
0
  5
4D4FE
 10
108.549797
 20
254.410513
 30
0.0
 11
108.615335
 21
254.476052
 31
0.0
  0
LINE
  8
0
  5
4D4FF
 10
108.615335
 20
254.476052
 30
0.0
 11
108.616115
 21
254.476052
 31
0.0
  0
LINE
  8
0
  5
4D500
 10
112.257413
 20
256.842465
 30
0.0
 11
112.257413
 21
257.762347
 31
0.0
  0
LINE
  8
0
  5
4D501
 10
112.257413
 20
257.762347
 30
0.0
 11
112.258193
 21
257.762347
 31
0.0
  0
LINE
  8
0
  5
4D502
 10
112.486798
 20
256.382134
 30
0.0
 11
112.486798
 21
256.743377
 31
0.0
  0
LINE
  8
0
  5
4D503
 10
112.486798
 20
256.743377
 30
0.0
 11
112.487578
 21
256.743377
 31
0.0
  0
LINE
  8
0
  5
4D504
 10
111.043387
 20
252.110418
 30
0.0
 11
111.043387
 21
254.344974
 31
0.0
  0
LINE
  8
0
  5
4D505
 10
111.043387
 20
254.344974
 30
0.0
 11
111.044167
 21
254.344974
 31
0.0
  0
LINE
  8
0
  5
4D506
 10
108.418719
 20
254.508821
 30
0.0
 11
108.484258
 21
254.54159
 31
0.0
  0
LINE
  8
0
  5
4D507
 10
108.484258
 20
254.54159
 30
0.0
 11
108.485038
 21
254.54159
 31
0.0
  0
LINE
  8
0
  5
4D508
 10
109.599976
 20
253.819104
 30
0.0
 11
108.418719
 21
254.508821
 31
0.0
  0
LINE
  8
0
  5
4D509
 10
108.418719
 20
254.508821
 30
0.0
 11
108.419499
 21
254.508821
 31
0.0
  0
LINE
  8
0
  5
4D50A
 10
109.796592
 20
254.114809
 30
0.0
 11
109.567206
 21
253.786335
 31
0.0
  0
LINE
  8
0
  5
4D50B
 10
109.567206
 20
253.786335
 30
0.0
 11
109.567987
 21
253.786335
 31
0.0
  0
LINE
  8
0
  5
4D50C
 10
110.485528
 20
253.0303
 30
0.0
 11
110.485528
 21
253.194146
 31
0.0
  0
LINE
  8
0
  5
4D50D
 10
110.485528
 20
253.194146
 30
0.0
 11
110.486308
 21
253.194146
 31
0.0
  0
LINE
  8
0
  5
4D50E
 10
109.567206
 20
253.786335
 30
0.0
 11
109.567206
 21
253.588939
 31
0.0
  0
LINE
  8
0
  5
4D50F
 10
109.567206
 20
253.588939
 30
0.0
 11
109.567987
 21
253.588939
 31
0.0
  0
LINE
  8
0
  5
4D510
 10
110.485528
 20
253.194146
 30
0.0
 11
109.567206
 21
253.786335
 31
0.0
  0
LINE
  8
0
  5
4D511
 10
109.567206
 20
253.786335
 30
0.0
 11
109.567987
 21
253.786335
 31
0.0
  0
LINE
  8
0
  5
4D512
 10
109.567206
 20
253.687247
 30
0.0
 11
107.89363
 21
254.640678
 31
0.0
  0
LINE
  8
0
  5
4D513
 10
107.89363
 20
254.640678
 30
0.0
 11
107.89441
 21
254.640678
 31
0.0
  0
LINE
  8
0
  5
4D514
 10
107.89363
 20
254.640678
 30
0.0
 11
107.89363
 21
253.720016
 31
0.0
  0
LINE
  8
0
  5
4D515
 10
107.89363
 20
253.720016
 30
0.0
 11
107.89441
 21
253.720016
 31
0.0
  0
LINE
  8
0
  5
4D516
 10
110.583836
 20
252.01133
 30
0.0
 11
110.715693
 21
251.945791
 31
0.0
  0
LINE
  8
0
  5
4D517
 10
110.715693
 20
251.945791
 30
0.0
 11
110.716474
 21
251.945791
 31
0.0
  0
LINE
  8
0
  5
4D518
 10
110.715693
 20
251.945791
 30
0.0
 11
110.912309
 21
252.044099
 31
0.0
  0
LINE
  8
0
  5
4D519
 10
110.912309
 20
252.044099
 30
0.0
 11
110.91309
 21
252.044099
 31
0.0
  0
LINE
  8
0
  5
4D51A
 10
110.912309
 20
252.044099
 30
0.0
 11
110.781232
 21
252.143187
 31
0.0
  0
LINE
  8
0
  5
4D51B
 10
110.781232
 20
252.143187
 30
0.0
 11
110.782012
 21
252.143187
 31
0.0
  0
LINE
  8
0
  5
4D51C
 10
110.781232
 20
252.143187
 30
0.0
 11
110.583836
 21
252.01133
 31
0.0
  0
LINE
  8
0
  5
4D51D
 10
110.583836
 20
252.01133
 30
0.0
 11
110.584616
 21
252.01133
 31
0.0
  0
LINE
  8
0
  5
4D51E
 10
114.193144
 20
258.452844
 30
0.0
 11
114.193144
 21
258.879626
 31
0.0
  0
LINE
  8
0
  5
4D51F
 10
114.193144
 20
258.879626
 30
0.0
 11
114.193924
 21
258.879626
 31
0.0
  0
LINE
  8
0
  5
4D520
 10
114.094836
 20
258.419295
 30
0.0
 11
114.094836
 21
258.846856
 31
0.0
  0
LINE
  8
0
  5
4D521
 10
114.094836
 20
258.846856
 30
0.0
 11
114.095616
 21
258.846856
 31
0.0
  0
LINE
  8
0
  5
4D522
 10
113.700824
 20
258.616691
 30
0.0
 11
114.094836
 21
258.419295
 31
0.0
  0
LINE
  8
0
  5
4D523
 10
114.094836
 20
258.419295
 30
0.0
 11
114.095616
 21
258.419295
 31
0.0
  0
LINE
  8
0
  5
4D524
 10
114.094836
 20
258.419295
 30
0.0
 11
114.193144
 21
258.452844
 31
0.0
  0
LINE
  8
0
  5
4D525
 10
114.193144
 20
258.452844
 30
0.0
 11
114.193924
 21
258.452844
 31
0.0
  0
LINE
  8
0
  5
4D526
 10
114.160375
 20
258.452844
 30
0.0
 11
114.324221
 21
258.353756
 31
0.0
  0
LINE
  8
0
  5
4D527
 10
114.324221
 20
258.353756
 30
0.0
 11
114.325001
 21
258.353756
 31
0.0
  0
LINE
  8
0
  5
4D528
 10
109.796592
 20
256.08643
 30
0.0
 11
109.796592
 21
255.757957
 31
0.0
  0
LINE
  8
0
  5
4D529
 10
109.796592
 20
255.757957
 30
0.0
 11
109.797372
 21
255.757957
 31
0.0
  0
LINE
  8
0
  5
4D52A
 10
109.567206
 20
256.414904
 30
0.0
 11
109.567206
 21
256.251057
 31
0.0
  0
LINE
  8
0
  5
4D52B
 10
109.567206
 20
256.251057
 30
0.0
 11
109.567987
 21
256.251057
 31
0.0
  0
LINE
  8
0
  5
4D52C
 10
109.567206
 20
256.251057
 30
0.0
 11
110.485528
 21
255.692418
 31
0.0
  0
LINE
  8
0
  5
4D52D
 10
110.485528
 20
255.692418
 30
0.0
 11
110.486308
 21
255.692418
 31
0.0
  0
LINE
  8
0
  5
4D52E
 10
110.485528
 20
255.692418
 30
0.0
 11
110.485528
 21
255.856265
 31
0.0
  0
LINE
  8
0
  5
4D52F
 10
110.485528
 20
255.856265
 30
0.0
 11
110.486308
 21
255.856265
 31
0.0
  0
LINE
  8
0
  5
4D530
 10
110.485528
 20
256.316596
 30
0.0
 11
110.485528
 21
255.954573
 31
0.0
  0
LINE
  8
0
  5
4D531
 10
110.485528
 20
255.954573
 30
0.0
 11
110.486308
 21
255.954573
 31
0.0
  0
LINE
  8
0
  5
4D532
 10
110.649375
 20
255.856265
 30
0.0
 11
110.649375
 21
256.251057
 31
0.0
  0
LINE
  8
0
  5
4D533
 10
110.649375
 20
256.251057
 30
0.0
 11
110.650155
 21
256.251057
 31
0.0
  0
LINE
  8
0
  5
4D534
 10
109.796592
 20
256.414904
 30
0.0
 11
109.567206
 21
256.414904
 31
0.0
  0
LINE
  8
0
  5
4D535
 10
109.567206
 20
256.414904
 30
0.0
 11
109.567987
 21
256.414904
 31
0.0
  0
LINE
  8
0
  5
4D536
 10
109.567206
 20
256.414904
 30
0.0
 11
110.485528
 21
255.856265
 31
0.0
  0
LINE
  8
0
  5
4D537
 10
110.485528
 20
255.856265
 30
0.0
 11
110.486308
 21
255.856265
 31
0.0
  0
LINE
  8
0
  5
4D538
 10
110.485528
 20
255.856265
 30
0.0
 11
110.649375
 21
255.856265
 31
0.0
  0
LINE
  8
0
  5
4D539
 10
110.649375
 20
255.856265
 30
0.0
 11
110.650155
 21
255.856265
 31
0.0
  0
LINE
  8
0
  5
4D53A
 10
110.649375
 20
255.856265
 30
0.0
 11
110.485528
 21
255.954573
 31
0.0
  0
LINE
  8
0
  5
4D53B
 10
110.485528
 20
255.954573
 30
0.0
 11
110.486308
 21
255.954573
 31
0.0
  0
LINE
  8
0
  5
4D53C
 10
107.89363
 20
258.879626
 30
0.0
 11
107.89363
 21
257.992513
 31
0.0
  0
LINE
  8
0
  5
4D53D
 10
107.89363
 20
257.992513
 30
0.0
 11
107.89441
 21
257.992513
 31
0.0
  0
LINE
  8
0
  5
4D53E
 10
107.89363
 20
257.992513
 30
0.0
 11
109.796592
 21
256.776147
 31
0.0
  0
LINE
  8
0
  5
4D53F
 10
109.796592
 20
256.776147
 30
0.0
 11
109.797372
 21
256.776147
 31
0.0
  0
LINE
  8
0
  5
4D540
 10
109.796592
 20
256.776147
 30
0.0
 11
109.796592
 21
256.414904
 31
0.0
  0
LINE
  8
0
  5
4D541
 10
109.796592
 20
256.414904
 30
0.0
 11
109.797372
 21
256.414904
 31
0.0
  0
LINE
  8
0
  5
4D542
 10
109.796592
 20
256.414904
 30
0.0
 11
110.485528
 21
255.988122
 31
0.0
  0
LINE
  8
0
  5
4D543
 10
110.485528
 20
255.988122
 30
0.0
 11
110.486308
 21
255.988122
 31
0.0
  0
LINE
  8
0
  5
4D544
 10
107.89363
 20
256.875235
 30
0.0
 11
109.796592
 21
255.757957
 31
0.0
  0
LINE
  8
0
  5
4D545
 10
109.796592
 20
255.757957
 30
0.0
 11
109.797372
 21
255.757957
 31
0.0
  0
LINE
  8
0
  5
4D546
 10
108.090246
 20
257.006312
 30
0.0
 11
107.89363
 21
256.875235
 31
0.0
  0
LINE
  8
0
  5
4D547
 10
107.89363
 20
256.875235
 30
0.0
 11
107.89441
 21
256.875235
 31
0.0
  0
LINE
  8
0
  5
4D548
 10
108.418719
 20
256.743377
 30
0.0
 11
108.484258
 21
256.776147
 31
0.0
  0
LINE
  8
0
  5
4D549
 10
108.484258
 20
256.776147
 30
0.0
 11
108.485038
 21
256.776147
 31
0.0
  0
LINE
  8
0
  5
4D54A
 10
108.484258
 20
256.776147
 30
0.0
 11
108.090246
 21
257.006312
 31
0.0
  0
LINE
  8
0
  5
4D54B
 10
108.090246
 20
257.006312
 30
0.0
 11
108.091026
 21
257.006312
 31
0.0
  0
LINE
  8
0
  5
4D54C
 10
108.090246
 20
257.827886
 30
0.0
 11
108.090246
 21
257.006312
 31
0.0
  0
LINE
  8
0
  5
4D54D
 10
108.090246
 20
257.006312
 30
0.0
 11
108.091026
 21
257.006312
 31
0.0
  0
LINE
  8
0
  5
4D54E
 10
108.484258
 20
256.776147
 30
0.0
 11
108.484258
 21
256.842465
 31
0.0
  0
LINE
  8
0
  5
4D54F
 10
108.484258
 20
256.842465
 30
0.0
 11
108.485038
 21
256.842465
 31
0.0
  0
LINE
  8
0
  5
4D550
 10
108.484258
 20
256.842465
 30
0.0
 11
109.796592
 21
256.08643
 31
0.0
  0
LINE
  8
0
  5
4D551
 10
109.796592
 20
256.08643
 30
0.0
 11
109.797372
 21
256.08643
 31
0.0
  0
LINE
  8
0
  5
4D552
 10
108.615335
 20
256.677839
 30
0.0
 11
108.615335
 21
256.776147
 31
0.0
  0
LINE
  8
0
  5
4D553
 10
108.615335
 20
256.776147
 30
0.0
 11
108.616115
 21
256.776147
 31
0.0
  0
LINE
  8
0
  5
4D554
 10
109.796592
 20
255.921803
 30
0.0
 11
108.418719
 21
256.743377
 31
0.0
  0
LINE
  8
0
  5
4D555
 10
108.418719
 20
256.743377
 30
0.0
 11
108.419499
 21
256.743377
 31
0.0
  0
LINE
  8
0
  5
4D556
 10
111.043387
 20
254.837294
 30
0.0
 11
111.043387
 21
257.072631
 31
0.0
  0
LINE
  8
0
  5
4D557
 10
111.043387
 20
257.072631
 30
0.0
 11
111.044167
 21
257.072631
 31
0.0
  0
LINE
  8
0
  5
4D558
 10
111.043387
 20
257.072631
 30
0.0
 11
111.437399
 21
257.302016
 31
0.0
  0
LINE
  8
0
  5
4D559
 10
111.437399
 20
257.302016
 30
0.0
 11
111.438179
 21
257.302016
 31
0.0
  0
LINE
  8
0
  5
4D55A
 10
112.126335
 20
257.696809
 30
0.0
 11
113.011887
 21
258.222679
 31
0.0
  0
LINE
  8
0
  5
4D55B
 10
113.011887
 20
258.222679
 30
0.0
 11
113.012668
 21
258.222679
 31
0.0
  0
LINE
  8
0
  5
4D55C
 10
114.783772
 20
254.04927
 30
0.0
 11
114.685464
 21
254.082039
 31
0.0
  0
LINE
  8
0
  5
4D55D
 10
114.685464
 20
254.082039
 30
0.0
 11
114.686244
 21
254.082039
 31
0.0
  0
LINE
  8
0
  5
4D55E
 10
112.486798
 20
256.382134
 30
0.0
 11
111.043387
 21
255.56056
 31
0.0
  0
LINE
  8
0
  5
4D55F
 10
111.043387
 20
255.56056
 30
0.0
 11
111.044167
 21
255.56056
 31
0.0
  0
LINE
  8
0
  5
4D560
 10
112.716963
 20
255.034691
 30
0.0
 11
113.37313
 21
255.429483
 31
0.0
  0
LINE
  8
0
  5
4D561
 10
113.37313
 20
255.429483
 30
0.0
 11
113.373911
 21
255.429483
 31
0.0
  0
LINE
  8
0
  5
4D562
 10
115.439939
 20
254.673448
 30
0.0
 11
112.486798
 21
256.382134
 31
0.0
  0
LINE
  8
0
  5
4D563
 10
112.486798
 20
256.382134
 30
0.0
 11
112.487578
 21
256.382134
 31
0.0
  0
LINE
  8
0
  5
4D564
 10
113.438669
 20
253.5234
 30
0.0
 11
114.324221
 21
254.04927
 31
0.0
  0
LINE
  8
0
  5
4D565
 10
114.324221
 20
254.04927
 30
0.0
 11
114.325001
 21
254.04927
 31
0.0
  0
LINE
  8
0
  5
4D566
 10
114.324221
 20
254.04927
 30
0.0
 11
112.716963
 21
255.034691
 31
0.0
  0
LINE
  8
0
  5
4D567
 10
112.716963
 20
255.034691
 30
0.0
 11
112.717744
 21
255.034691
 31
0.0
  0
LINE
  8
0
  5
4D568
 10
115.045927
 20
254.443282
 30
0.0
 11
115.439939
 21
254.673448
 31
0.0
  0
LINE
  8
0
  5
4D569
 10
115.439939
 20
254.673448
 30
0.0
 11
115.440719
 21
254.673448
 31
0.0
  0
LINE
  8
0
  5
4D56A
 10
107.89363
 20
253.720016
 30
0.0
 11
110.419989
 21
252.143187
 31
0.0
  0
LINE
  8
0
  5
4D56B
 10
110.419989
 20
252.143187
 30
0.0
 11
110.420769
 21
252.143187
 31
0.0
  0
LINE
  8
0
  5
4D56C
 10
110.419989
 20
251.945791
 30
0.0
 11
110.715693
 21
251.781164
 31
0.0
  0
LINE
  8
0
  5
4D56D
 10
110.715693
 20
251.781164
 30
0.0
 11
110.716474
 21
251.781164
 31
0.0
  0
LINE
  8
0
  5
4D56E
 10
111.043387
 20
253.227696
 30
0.0
 11
111.995258
 21
252.669057
 31
0.0
  0
LINE
  8
0
  5
4D56F
 10
111.995258
 20
252.669057
 30
0.0
 11
111.996038
 21
252.669057
 31
0.0
  0
LINE
  8
0
  5
4D570
 10
110.715693
 20
251.781164
 30
0.0
 11
111.207233
 21
252.044099
 31
0.0
  0
LINE
  8
0
  5
4D571
 10
111.207233
 20
252.044099
 30
0.0
 11
111.208014
 21
252.044099
 31
0.0
  0
LINE
  8
0
  5
4D572
 10
115.276092
 20
254.410513
 30
0.0
 11
115.768412
 21
254.706217
 31
0.0
  0
LINE
  8
0
  5
4D573
 10
115.768412
 20
254.706217
 30
0.0
 11
115.769193
 21
254.706217
 31
0.0
  0
LINE
  8
0
  5
4D574
 10
113.865451
 20
254.969152
 30
0.0
 11
114.914849
 21
254.377744
 31
0.0
  0
LINE
  8
0
  5
4D575
 10
114.914849
 20
254.377744
 30
0.0
 11
114.91563
 21
254.377744
 31
0.0
  0
LINE
  8
0
  5
4D576
 10
115.045927
 20
254.443282
 30
0.0
 11
113.37313
 21
255.429483
 31
0.0
  0
LINE
  8
0
  5
4D577
 10
113.37313
 20
255.429483
 30
0.0
 11
113.373911
 21
255.429483
 31
0.0
  0
LINE
  8
0
  5
4D578
 10
114.914849
 20
254.377744
 30
0.0
 11
114.914849
 21
254.312205
 31
0.0
  0
LINE
  8
0
  5
4D579
 10
114.914849
 20
254.312205
 30
0.0
 11
114.91563
 21
254.312205
 31
0.0
  0
LINE
  8
0
  5
4D57A
 10
114.914849
 20
254.278655
 30
0.0
 11
114.914849
 21
254.213117
 31
0.0
  0
LINE
  8
0
  5
4D57B
 10
114.914849
 20
254.213117
 30
0.0
 11
114.91563
 21
254.213117
 31
0.0
  0
LINE
  8
0
  5
4D57C
 10
115.045927
 20
254.114809
 30
0.0
 11
115.045927
 21
254.443282
 31
0.0
  0
LINE
  8
0
  5
4D57D
 10
115.045927
 20
254.443282
 30
0.0
 11
115.046707
 21
254.443282
 31
0.0
  0
LINE
  8
0
  5
4D57E
 10
114.980388
 20
253.982951
 30
0.0
 11
114.849311
 21
254.114809
 31
0.0
  0
LINE
  8
0
  5
4D57F
 10
114.849311
 20
254.114809
 30
0.0
 11
114.850091
 21
254.114809
 31
0.0
  0
LINE
  8
0
  5
4D580
 10
114.849311
 20
254.114809
 30
0.0
 11
114.849311
 21
254.082039
 31
0.0
  0
LINE
  8
0
  5
4D581
 10
114.849311
 20
254.082039
 30
0.0
 11
114.850091
 21
254.082039
 31
0.0
  0
LINE
  8
0
  5
4D582
 10
115.013157
 20
254.01572
 30
0.0
 11
114.849311
 21
254.114809
 31
0.0
  0
LINE
  8
0
  5
4D583
 10
114.849311
 20
254.114809
 30
0.0
 11
114.850091
 21
254.114809
 31
0.0
  0
LINE
  8
0
  5
4D584
 10
114.980388
 20
253.982951
 30
0.0
 11
115.013157
 21
254.01572
 31
0.0
  0
LINE
  8
0
  5
4D585
 10
115.013157
 20
254.01572
 30
0.0
 11
115.013938
 21
254.01572
 31
0.0
  0
LINE
  8
0
  5
4D586
 10
115.013157
 20
254.01572
 30
0.0
 11
114.88208
 21
254.114809
 31
0.0
  0
LINE
  8
0
  5
4D587
 10
114.88208
 20
254.114809
 30
0.0
 11
114.88286
 21
254.114809
 31
0.0
  0
LINE
  8
0
  5
4D588
 10
114.88208
 20
254.114809
 30
0.0
 11
114.849311
 21
254.114809
 31
0.0
  0
LINE
  8
0
  5
4D589
 10
114.849311
 20
254.114809
 30
0.0
 11
114.850091
 21
254.114809
 31
0.0
  0
LINE
  8
0
  5
4D58A
 10
114.88208
 20
254.114809
 30
0.0
 11
115.045927
 21
254.082039
 31
0.0
  0
LINE
  8
0
  5
4D58B
 10
115.045927
 20
254.082039
 30
0.0
 11
115.046707
 21
254.082039
 31
0.0
  0
LINE
  8
0
  5
4D58C
 10
115.045927
 20
254.082039
 30
0.0
 11
114.914849
 21
254.180347
 31
0.0
  0
LINE
  8
0
  5
4D58D
 10
114.914849
 20
254.180347
 30
0.0
 11
114.91563
 21
254.180347
 31
0.0
  0
LINE
  8
0
  5
4D58E
 10
114.914849
 20
254.180347
 30
0.0
 11
114.88208
 21
254.114809
 31
0.0
  0
LINE
  8
0
  5
4D58F
 10
114.88208
 20
254.114809
 30
0.0
 11
114.88286
 21
254.114809
 31
0.0
  0
LINE
  8
0
  5
4D590
 10
114.88208
 20
254.114809
 30
0.0
 11
115.045927
 21
254.04927
 31
0.0
  0
LINE
  8
0
  5
4D591
 10
115.045927
 20
254.04927
 30
0.0
 11
115.046707
 21
254.04927
 31
0.0
  0
LINE
  8
0
  5
4D592
 10
115.013157
 20
254.01572
 30
0.0
 11
115.045927
 21
254.04927
 31
0.0
  0
LINE
  8
0
  5
4D593
 10
115.045927
 20
254.04927
 30
0.0
 11
115.045927
 21
254.082039
 31
0.0
  0
LINE
  8
0
  5
4D594
 10
115.045927
 20
254.082039
 30
0.0
 11
115.046707
 21
254.082039
 31
0.0
  0
LINE
  8
0
  5
4D595
 10
114.914849
 20
254.180347
 30
0.0
 11
115.045927
 21
254.114809
 31
0.0
  0
LINE
  8
0
  5
4D596
 10
115.045927
 20
254.114809
 30
0.0
 11
115.046707
 21
254.114809
 31
0.0
  0
LINE
  8
0
  5
4D597
 10
115.045927
 20
254.114809
 30
0.0
 11
114.914849
 21
254.213117
 31
0.0
  0
LINE
  8
0
  5
4D598
 10
114.914849
 20
254.213117
 30
0.0
 11
114.91563
 21
254.213117
 31
0.0
  0
LINE
  8
0
  5
4D599
 10
114.914849
 20
254.213117
 30
0.0
 11
114.914849
 21
254.180347
 31
0.0
  0
LINE
  8
0
  5
4D59A
 10
114.914849
 20
254.180347
 30
0.0
 11
114.91563
 21
254.180347
 31
0.0
  0
LINE
  8
0
  5
4D59B
 10
115.045927
 20
254.082039
 30
0.0
 11
115.045927
 21
254.114809
 31
0.0
  0
LINE
  8
0
  5
4D59C
 10
115.045927
 20
254.114809
 30
0.0
 11
115.046707
 21
254.114809
 31
0.0
  0
LINE
  8
0
  5
4D59D
 10
114.849311
 20
254.082039
 30
0.0
 11
114.324221
 21
253.786335
 31
0.0
  0
LINE
  8
0
  5
4D59E
 10
114.324221
 20
253.786335
 30
0.0
 11
114.325001
 21
253.786335
 31
0.0
  0
LINE
  8
0
  5
4D59F
 10
114.422529
 20
253.654478
 30
0.0
 11
114.980388
 21
253.982951
 31
0.0
  0
LINE
  8
0
  5
4D5A0
 10
114.980388
 20
253.982951
 30
0.0
 11
114.981168
 21
253.982951
 31
0.0
  0
LINE
  8
0
  5
4D5A1
 10
114.980388
 20
253.982951
 30
0.0
 11
114.849311
 21
254.082039
 31
0.0
  0
LINE
  8
0
  5
4D5A2
 10
114.849311
 20
254.082039
 30
0.0
 11
114.850091
 21
254.082039
 31
0.0
  0
LINE
  8
0
  5
4D5A3
 10
114.38976
 20
253.654478
 30
0.0
 11
114.356991
 21
253.687247
 31
0.0
  0
LINE
  8
0
  5
4D5A4
 10
114.356991
 20
253.687247
 30
0.0
 11
114.357771
 21
253.687247
 31
0.0
  0
LINE
  8
0
  5
4D5A5
 10
114.38976
 20
253.654478
 30
0.0
 11
114.356991
 21
253.687247
 31
0.0
  0
LINE
  8
0
  5
4D5A6
 10
114.356991
 20
253.687247
 30
0.0
 11
114.357771
 21
253.687247
 31
0.0
  0
LINE
  8
0
  5
4D5A7
 10
114.356991
 20
253.687247
 30
0.0
 11
114.422529
 21
253.654478
 31
0.0
  0
LINE
  8
0
  5
4D5A8
 10
114.422529
 20
253.654478
 30
0.0
 11
114.423309
 21
253.654478
 31
0.0
  0
LINE
  8
0
  5
4D5A9
 10
114.422529
 20
253.654478
 30
0.0
 11
114.324221
 21
253.720016
 31
0.0
  0
LINE
  8
0
  5
4D5AA
 10
114.324221
 20
253.720016
 30
0.0
 11
114.325001
 21
253.720016
 31
0.0
  0
LINE
  8
0
  5
4D5AB
 10
107.89363
 20
258.879626
 30
0.0
 11
110.616605
 21
257.302016
 31
0.0
  0
LINE
  8
0
  5
4D5AC
 10
110.616605
 20
257.302016
 30
0.0
 11
110.617385
 21
257.302016
 31
0.0
  0
LINE
  8
0
  5
4D5AD
 10
109.796592
 20
258.386525
 30
0.0
 11
109.86213
 21
258.452844
 31
0.0
  0
LINE
  8
0
  5
4D5AE
 10
109.86213
 20
258.452844
 30
0.0
 11
109.862911
 21
258.452844
 31
0.0
  0
LINE
  8
0
  5
4D5AF
 10
110.058746
 20
260.128761
 30
0.0
 11
107.89363
 21
258.879626
 31
0.0
  0
LINE
  8
0
  5
4D5B0
 10
107.89363
 20
258.879626
 30
0.0
 11
107.89441
 21
258.879626
 31
0.0
  0
LINE
  8
0
  5
4D5B1
 10
110.419989
 20
258.025282
 30
0.0
 11
109.796592
 21
258.386525
 31
0.0
  0
LINE
  8
0
  5
4D5B2
 10
109.796592
 20
258.386525
 30
0.0
 11
109.797372
 21
258.386525
 31
0.0
  0
LINE
  8
0
  5
4D5B3
 10
109.86213
 20
258.452844
 30
0.0
 11
110.38722
 21
258.15636
 31
0.0
  0
LINE
  8
0
  5
4D5B4
 10
110.38722
 20
258.15636
 30
0.0
 11
110.388
 21
258.15636
 31
0.0
  0
LINE
  8
0
  5
4D5B5
 10
110.38722
 20
258.748548
 30
0.0
 11
110.452759
 21
258.781318
 31
0.0
  0
LINE
  8
0
  5
4D5B6
 10
110.452759
 20
258.781318
 30
0.0
 11
110.453539
 21
258.781318
 31
0.0
  0
LINE
  8
0
  5
4D5B7
 10
111.928939
 20
259.109791
 30
0.0
 11
110.058746
 21
260.128761
 31
0.0
  0
LINE
  8
0
  5
4D5B8
 10
110.058746
 20
260.128761
 30
0.0
 11
110.059527
 21
260.128761
 31
0.0
  0
LINE
  8
0
  5
4D5B9
 10
110.288912
 20
260.292608
 30
0.0
 11
112.126335
 21
259.240869
 31
0.0
  0
LINE
  8
0
  5
4D5BA
 10
112.126335
 20
259.240869
 30
0.0
 11
112.127115
 21
259.240869
 31
0.0
  0
LINE
  8
0
  5
4D5BB
 10
112.486798
 20
261.541744
 30
0.0
 11
110.288912
 21
260.292608
 31
0.0
  0
LINE
  8
0
  5
4D5BC
 10
110.288912
 20
260.292608
 30
0.0
 11
110.289692
 21
260.292608
 31
0.0
  0
LINE
  8
0
  5
4D5BD
 10
112.716963
 20
260.095992
 30
0.0
 11
112.782502
 21
260.128761
 31
0.0
  0
LINE
  8
0
  5
4D5BE
 10
112.782502
 20
260.128761
 30
0.0
 11
112.783282
 21
260.128761
 31
0.0
  0
LINE
  8
0
  5
4D5BF
 10
110.38722
 20
258.15636
 30
0.0
 11
110.87954
 21
258.419295
 31
0.0
  0
LINE
  8
0
  5
4D5C0
 10
110.87954
 20
258.419295
 30
0.0
 11
110.88032
 21
258.419295
 31
0.0
  0
LINE
  8
0
  5
4D5C1
 10
110.87954
 20
258.419295
 30
0.0
 11
110.38722
 21
258.748548
 31
0.0
  0
LINE
  8
0
  5
4D5C2
 10
110.38722
 20
258.748548
 30
0.0
 11
110.388
 21
258.748548
 31
0.0
  0
LINE
  8
0
  5
4D5C3
 10
110.419989
 20
257.203708
 30
0.0
 11
110.715693
 21
257.039081
 31
0.0
  0
LINE
  8
0
  5
4D5C4
 10
110.715693
 20
257.039081
 30
0.0
 11
110.716474
 21
257.039081
 31
0.0
  0
LINE
  8
0
  5
4D5C5
 10
110.715693
 20
257.039081
 30
0.0
 11
111.207233
 21
257.335566
 31
0.0
  0
LINE
  8
0
  5
4D5C6
 10
111.207233
 20
257.335566
 30
0.0
 11
111.208014
 21
257.335566
 31
0.0
  0
LINE
  8
0
  5
4D5C7
 10
111.207233
 20
257.335566
 30
0.0
 11
110.846771
 21
257.203708
 31
0.0
  0
LINE
  8
0
  5
4D5C8
 10
110.846771
 20
257.203708
 30
0.0
 11
110.847551
 21
257.203708
 31
0.0
  0
LINE
  8
0
  5
4D5C9
 10
110.846771
 20
257.203708
 30
0.0
 11
110.781232
 21
257.236478
 31
0.0
  0
LINE
  8
0
  5
4D5CA
 10
110.781232
 20
257.236478
 30
0.0
 11
110.782012
 21
257.236478
 31
0.0
  0
LINE
  8
0
  5
4D5CB
 10
112.126335
 20
259.240869
 30
0.0
 11
111.928939
 21
259.109791
 31
0.0
  0
LINE
  8
0
  5
4D5CC
 10
111.928939
 20
259.109791
 30
0.0
 11
111.929719
 21
259.109791
 31
0.0
  0
LINE
  8
0
  5
4D5CD
 10
113.274822
 20
259.766738
 30
0.0
 11
112.716963
 21
260.095992
 31
0.0
  0
LINE
  8
0
  5
4D5CE
 10
112.716963
 20
260.095992
 30
0.0
 11
112.717744
 21
260.095992
 31
0.0
  0
LINE
  8
0
  5
4D5CF
 10
113.274822
 20
260.424466
 30
0.0
 11
113.37313
 21
260.457235
 31
0.0
  0
LINE
  8
0
  5
4D5D0
 10
113.37313
 20
260.457235
 30
0.0
 11
113.373911
 21
260.457235
 31
0.0
  0
LINE
  8
0
  5
4D5D1
 10
113.307592
 20
259.833057
 30
0.0
 11
113.799132
 21
260.128761
 31
0.0
  0
LINE
  8
0
  5
4D5D2
 10
113.799132
 20
260.128761
 30
0.0
 11
113.799912
 21
260.128761
 31
0.0
  0
LINE
  8
0
  5
4D5D3
 10
113.799132
 20
260.128761
 30
0.0
 11
113.274822
 21
260.424466
 31
0.0
  0
LINE
  8
0
  5
4D5D4
 10
113.274822
 20
260.424466
 30
0.0
 11
113.275603
 21
260.424466
 31
0.0
  0
LINE
  8
0
  5
4D5D5
 10
113.37313
 20
260.457235
 30
0.0
 11
113.930989
 21
260.161531
 31
0.0
  0
LINE
  8
0
  5
4D5D6
 10
113.930989
 20
260.161531
 30
0.0
 11
113.931769
 21
260.161531
 31
0.0
  0
LINE
  8
0
  5
4D5D7
 10
114.816541
 20
259.66843
 30
0.0
 11
114.914849
 21
259.635661
 31
0.0
  0
LINE
  8
0
  5
4D5D8
 10
114.914849
 20
259.635661
 30
0.0
 11
114.91563
 21
259.635661
 31
0.0
  0
LINE
  8
0
  5
4D5D9
 10
115.472708
 20
259.898596
 30
0.0
 11
115.276092
 21
259.66843
 31
0.0
  0
LINE
  8
0
  5
4D5DA
 10
115.276092
 20
259.66843
 30
0.0
 11
115.276872
 21
259.66843
 31
0.0
  0
LINE
  8
0
  5
4D5DB
 10
115.276092
 20
259.66843
 30
0.0
 11
115.768412
 21
259.964135
 31
0.0
  0
LINE
  8
0
  5
4D5DC
 10
115.768412
 20
259.964135
 30
0.0
 11
115.769193
 21
259.964135
 31
0.0
  0
LINE
  8
0
  5
4D5DD
 10
115.768412
 20
259.964135
 30
0.0
 11
115.472708
 21
260.128761
 31
0.0
  0
LINE
  8
0
  5
4D5DE
 10
115.472708
 20
260.128761
 30
0.0
 11
115.473488
 21
260.128761
 31
0.0
  0
LINE
  8
0
  5
4D5DF
 10
114.324221
 20
259.17533
 30
0.0
 11
114.456079
 21
259.109791
 31
0.0
  0
LINE
  8
0
  5
4D5E0
 10
114.456079
 20
259.109791
 30
0.0
 11
114.456859
 21
259.109791
 31
0.0
  0
LINE
  8
0
  5
4D5E1
 10
113.307592
 20
259.833057
 30
0.0
 11
112.782502
 21
260.128761
 31
0.0
  0
LINE
  8
0
  5
4D5E2
 10
112.782502
 20
260.128761
 30
0.0
 11
112.783282
 21
260.128761
 31
0.0
  0
LINE
  8
0
  5
4D5E3
 10
114.456079
 20
259.109791
 30
0.0
 11
114.456079
 21
259.142561
 31
0.0
  0
LINE
  8
0
  5
4D5E4
 10
114.456079
 20
259.142561
 30
0.0
 11
114.456859
 21
259.142561
 31
0.0
  0
LINE
  8
0
  5
4D5E5
 10
113.930989
 20
260.128761
 30
0.0
 11
113.799132
 21
260.128761
 31
0.0
  0
LINE
  8
0
  5
4D5E6
 10
113.799132
 20
260.128761
 30
0.0
 11
113.799912
 21
260.128761
 31
0.0
  0
LINE
  8
0
  5
4D5E7
 10
113.307592
 20
259.833057
 30
0.0
 11
113.438669
 21
259.865827
 31
0.0
  0
LINE
  8
0
  5
4D5E8
 10
113.438669
 20
259.865827
 30
0.0
 11
113.439449
 21
259.865827
 31
0.0
  0
LINE
  8
0
  5
4D5E9
 10
111.995258
 20
257.926974
 30
0.0
 11
111.928939
 21
257.992513
 31
0.0
  0
LINE
  8
0
  5
4D5EA
 10
111.928939
 20
257.992513
 30
0.0
 11
111.929719
 21
257.992513
 31
0.0
  0
LINE
  8
0
  5
4D5EB
 10
111.043387
 20
258.452844
 30
0.0
 11
110.452759
 21
258.781318
 31
0.0
  0
LINE
  8
0
  5
4D5EC
 10
110.452759
 20
258.781318
 30
0.0
 11
110.453539
 21
258.781318
 31
0.0
  0
LINE
  8
0
  5
4D5ED
 10
111.830631
 20
257.860655
 30
0.0
 11
112.126335
 21
257.696809
 31
0.0
  0
LINE
  8
0
  5
4D5EE
 10
112.126335
 20
257.696809
 30
0.0
 11
112.127115
 21
257.696809
 31
0.0
  0
LINE
  8
0
  5
4D5EF
 10
112.126335
 20
257.696809
 30
0.0
 11
112.126335
 21
258.025282
 31
0.0
  0
LINE
  8
0
  5
4D5F0
 10
112.126335
 20
258.025282
 30
0.0
 11
112.127115
 21
258.025282
 31
0.0
  0
LINE
  8
0
  5
4D5F1
 10
110.419989
 20
257.959744
 30
0.0
 11
110.781232
 21
257.729578
 31
0.0
  0
LINE
  8
0
  5
4D5F2
 10
110.781232
 20
257.729578
 30
0.0
 11
110.782012
 21
257.729578
 31
0.0
  0
LINE
  8
0
  5
4D5F3
 10
110.846771
 20
257.203708
 30
0.0
 11
110.846771
 21
257.860655
 31
0.0
  0
LINE
  8
0
  5
4D5F4
 10
110.846771
 20
257.860655
 30
0.0
 11
110.847551
 21
257.860655
 31
0.0
  0
LINE
  8
0
  5
4D5F5
 10
110.419989
 20
258.12359
 30
0.0
 11
110.419989
 21
257.959744
 31
0.0
  0
LINE
  8
0
  5
4D5F6
 10
110.419989
 20
257.959744
 30
0.0
 11
110.420769
 21
257.959744
 31
0.0
  0
LINE
  8
0
  5
4D5F7
 10
110.781232
 20
257.729578
 30
0.0
 11
110.781232
 21
257.236478
 31
0.0
  0
LINE
  8
0
  5
4D5F8
 10
110.781232
 20
257.236478
 30
0.0
 11
110.782012
 21
257.236478
 31
0.0
  0
LINE
  8
0
  5
4D5F9
 10
111.995258
 20
258.025282
 30
0.0
 11
111.995258
 21
257.926974
 31
0.0
  0
LINE
  8
0
  5
4D5FA
 10
111.995258
 20
257.926974
 30
0.0
 11
111.996038
 21
257.926974
 31
0.0
  0
LINE
  8
0
  5
4D5FB
 10
114.914849
 20
259.7012
 30
0.0
 11
114.914849
 21
259.635661
 31
0.0
  0
LINE
  8
0
  5
4D5FC
 10
114.914849
 20
259.635661
 30
0.0
 11
114.91563
 21
259.635661
 31
0.0
  0
LINE
  8
0
  5
4D5FD
 10
111.207233
 20
257.335566
 30
0.0
 11
111.207233
 21
257.992513
 31
0.0
  0
LINE
  8
0
  5
4D5FE
 10
111.207233
 20
257.992513
 30
0.0
 11
111.208014
 21
257.992513
 31
0.0
  0
LINE
  8
0
  5
4D5FF
 10
113.536977
 20
259.240869
 30
0.0
 11
113.242053
 21
259.471034
 31
0.0
  0
LINE
  8
0
  5
4D600
 10
113.242053
 20
259.471034
 30
0.0
 11
113.242833
 21
259.471034
 31
0.0
  0
LINE
  8
0
  5
4D601
 10
110.419989
 20
258.12359
 30
0.0
 11
110.846771
 21
257.860655
 31
0.0
  0
LINE
  8
0
  5
4D602
 10
110.846771
 20
257.860655
 30
0.0
 11
110.847551
 21
257.860655
 31
0.0
  0
LINE
  8
0
  5
4D603
 10
110.846771
 20
257.860655
 30
0.0
 11
111.207233
 21
257.992513
 31
0.0
  0
LINE
  8
0
  5
4D604
 10
111.207233
 20
257.992513
 30
0.0
 11
111.208014
 21
257.992513
 31
0.0
  0
LINE
  8
0
  5
4D605
 10
115.045927
 20
260.785709
 30
0.0
 11
110.419989
 21
258.12359
 31
0.0
  0
LINE
  8
0
  5
4D606
 10
110.419989
 20
258.12359
 30
0.0
 11
110.420769
 21
258.12359
 31
0.0
  0
LINE
  8
0
  5
4D607
 10
111.207233
 20
257.992513
 30
0.0
 11
112.946349
 21
258.977934
 31
0.0
  0
LINE
  8
0
  5
4D608
 10
112.946349
 20
258.977934
 30
0.0
 11
112.947129
 21
258.977934
 31
0.0
  0
LINE
  8
0
  5
4D609
 10
112.946349
 20
258.977934
 30
0.0
 11
112.684194
 21
259.142561
 31
0.0
  0
LINE
  8
0
  5
4D60A
 10
112.684194
 20
259.142561
 30
0.0
 11
112.684974
 21
259.142561
 31
0.0
  0
LINE
  8
0
  5
4D60B
 10
112.684194
 20
259.142561
 30
0.0
 11
113.242053
 21
259.471034
 31
0.0
  0
LINE
  8
0
  5
4D60C
 10
113.242053
 20
259.471034
 30
0.0
 11
113.242833
 21
259.471034
 31
0.0
  0
LINE
  8
0
  5
4D60D
 10
113.242053
 20
259.471034
 30
0.0
 11
113.536977
 21
259.307187
 31
0.0
  0
LINE
  8
0
  5
4D60E
 10
113.536977
 20
259.307187
 30
0.0
 11
113.537757
 21
259.307187
 31
0.0
  0
LINE
  8
0
  5
4D60F
 10
113.536977
 20
259.307187
 30
0.0
 11
115.276092
 21
260.325377
 31
0.0
  0
LINE
  8
0
  5
4D610
 10
115.276092
 20
260.325377
 30
0.0
 11
115.276872
 21
260.325377
 31
0.0
  0
LINE
  8
0
  5
4D611
 10
115.276092
 20
260.325377
 30
0.0
 11
115.472708
 21
260.522774
 31
0.0
  0
LINE
  8
0
  5
4D612
 10
115.472708
 20
260.522774
 30
0.0
 11
115.473488
 21
260.522774
 31
0.0
  0
LINE
  8
0
  5
4D613
 10
115.472708
 20
260.522774
 30
0.0
 11
115.045927
 21
260.785709
 31
0.0
  0
LINE
  8
0
  5
4D614
 10
115.045927
 20
260.785709
 30
0.0
 11
115.046707
 21
260.785709
 31
0.0
  0
LINE
  8
0
  5
4D615
 10
114.914849
 20
259.372726
 30
0.0
 11
114.914849
 21
259.405495
 31
0.0
  0
LINE
  8
0
  5
4D616
 10
114.914849
 20
259.405495
 30
0.0
 11
114.91563
 21
259.405495
 31
0.0
  0
LINE
  8
0
  5
4D617
 10
114.324221
 20
259.240869
 30
0.0
 11
114.456079
 21
259.142561
 31
0.0
  0
LINE
  8
0
  5
4D618
 10
114.456079
 20
259.142561
 30
0.0
 11
114.456859
 21
259.142561
 31
0.0
  0
LINE
  8
0
  5
4D619
 10
114.914849
 20
259.405495
 30
0.0
 11
114.685464
 21
259.602892
 31
0.0
  0
LINE
  8
0
  5
4D61A
 10
114.685464
 20
259.602892
 30
0.0
 11
114.686244
 21
259.602892
 31
0.0
  0
LINE
  8
0
  5
4D61B
 10
114.456079
 20
259.142561
 30
0.0
 11
114.914849
 21
259.405495
 31
0.0
  0
LINE
  8
0
  5
4D61C
 10
114.914849
 20
259.405495
 30
0.0
 11
114.91563
 21
259.405495
 31
0.0
  0
LINE
  8
0
  5
4D61D
 10
108.090246
 20
254.771756
 30
0.0
 11
108.484258
 21
254.54159
 31
0.0
  0
LINE
  8
0
  5
4D61E
 10
108.484258
 20
254.54159
 30
0.0
 11
108.485038
 21
254.54159
 31
0.0
  0
LINE
  8
0
  5
4D61F
 10
108.484258
 20
254.54159
 30
0.0
 11
108.484258
 21
254.640678
 31
0.0
  0
LINE
  8
0
  5
4D620
 10
108.484258
 20
254.640678
 30
0.0
 11
108.485038
 21
254.640678
 31
0.0
  0
LINE
  8
0
  5
4D621
 10
108.090246
 20
255.626099
 30
0.0
 11
108.090246
 21
254.771756
 31
0.0
  0
LINE
  8
0
  5
4D622
 10
108.090246
 20
254.771756
 30
0.0
 11
108.091026
 21
254.771756
 31
0.0
  0
LINE
  8
0
  5
4D623
 10
108.484258
 20
254.640678
 30
0.0
 11
109.665514
 21
253.950182
 31
0.0
  0
LINE
  8
0
  5
4D624
 10
109.665514
 20
253.950182
 30
0.0
 11
109.666295
 21
253.950182
 31
0.0
  0
LINE
  8
0
  5
4D625
 10
110.419989
 20
253.391543
 30
0.0
 11
110.583836
 21
253.293235
 31
0.0
  0
LINE
  8
0
  5
4D626
 10
110.583836
 20
253.293235
 30
0.0
 11
110.584616
 21
253.293235
 31
0.0
  0
LINE
  8
0
  5
4D627
 10
110.583836
 20
253.293235
 30
0.0
 11
110.583836
 21
254.410513
 31
0.0
  0
LINE
  8
0
  5
4D628
 10
110.583836
 20
254.410513
 30
0.0
 11
110.584616
 21
254.410513
 31
0.0
  0
LINE
  8
0
  5
4D629
 10
110.419989
 20
255.725187
 30
0.0
 11
110.419989
 21
253.391543
 31
0.0
  0
LINE
  8
0
  5
4D62A
 10
110.419989
 20
253.391543
 30
0.0
 11
110.420769
 21
253.391543
 31
0.0
  0
LINE
  8
0
  5
4D62B
 10
110.583836
 20
254.57436
 30
0.0
 11
110.583836
 21
255.658868
 31
0.0
  0
LINE
  8
0
  5
4D62C
 10
110.583836
 20
255.658868
 30
0.0
 11
110.584616
 21
255.658868
 31
0.0
  0
LINE
  8
0
  5
4D62D
 10
110.583836
 20
254.410513
 30
0.0
 11
110.715693
 21
254.312205
 31
0.0
  0
LINE
  8
0
  5
4D62E
 10
110.715693
 20
254.312205
 30
0.0
 11
110.716474
 21
254.312205
 31
0.0
  0
LINE
  8
0
  5
4D62F
 10
110.715693
 20
254.312205
 30
0.0
 11
110.715693
 21
254.476052
 31
0.0
  0
LINE
  8
0
  5
4D630
 10
110.715693
 20
254.476052
 30
0.0
 11
110.716474
 21
254.476052
 31
0.0
  0
LINE
  8
0
  5
4D631
 10
110.715693
 20
254.476052
 30
0.0
 11
110.583836
 21
254.57436
 31
0.0
  0
LINE
  8
0
  5
4D632
 10
110.583836
 20
254.57436
 30
0.0
 11
110.584616
 21
254.57436
 31
0.0
  0
LINE
  8
0
  5
4D633
 10
111.568476
 20
252.339803
 30
0.0
 11
111.995258
 21
252.602738
 31
0.0
  0
LINE
  8
0
  5
4D634
 10
111.995258
 20
252.602738
 30
0.0
 11
111.996038
 21
252.602738
 31
0.0
  0
LINE
  8
0
  5
4D635
 10
111.37186
 20
252.373353
 30
0.0
 11
111.568476
 21
252.339803
 31
0.0
  0
LINE
  8
0
  5
4D636
 10
111.568476
 20
252.339803
 30
0.0
 11
111.569257
 21
252.339803
 31
0.0
  0
LINE
  8
0
  5
4D637
 10
111.995258
 20
252.602738
 30
0.0
 11
111.995258
 21
252.635507
 31
0.0
  0
LINE
  8
0
  5
4D638
 10
111.995258
 20
252.635507
 30
0.0
 11
111.996038
 21
252.635507
 31
0.0
  0
LINE
  8
0
  5
4D639
 10
109.567206
 20
253.588939
 30
0.0
 11
110.485528
 21
253.0303
 31
0.0
  0
LINE
  8
0
  5
4D63A
 10
110.485528
 20
253.0303
 30
0.0
 11
110.486308
 21
253.0303
 31
0.0
  0
LINE
  8
0
  5
4D63B
 10
110.485528
 20
253.0303
 30
0.0
 11
110.649375
 21
253.194146
 31
0.0
  0
LINE
  8
0
  5
4D63C
 10
110.649375
 20
253.194146
 30
0.0
 11
110.650155
 21
253.194146
 31
0.0
  0
ENDSEC
  0
EOF
