  0
SECTION
  2
HEADER
  9
$ACADVER
  1
AC1009
  9
$INSBASE
 10
0.0
 20
0.0
 30
0.0
  9
$EXTMIN
 10
28.220056
 20
95.799467
 30
0.0
  9
$EXTMAX
 10
68.240971
 20
207.799467
 30
0.0
  9
$LIMMIN
 10
25.83907
 20
93.068779
  9
$LIMMAX
 10
66.720056
 20
207.799467
  9
$ORTHOMODE
 70
     0
  9
$REGENMODE
 70
     1
  9
$FILLMODE
 70
     1
  9
$QTEXTMODE
 70
     0
  9
$MIRRTEXT
 70
     1
  9
$DRAGMODE
 70
     2
  9
$LTSCALE
 40
1.0
  9
$OSMODE
 70
     1
  9
$ATTMODE
 70
     1
  9
$TEXTSIZE
 40
0.2
  9
$TRACEWID
 40
0.05
  9
$TEXTSTYLE
  7
STANDARD
  9
$CLAYER
  8
0
  9
$CELTYPE
  6
BYLAYER
  9
$CECOLOR
 62
   256
  9
$DIMSCALE
 40
4.5
  9
$DIMASZ
 40
0.18
  9
$DIMEXO
 40
0.0625
  9
$DIMDLI
 40
0.38
  9
$DIMRND
 40
0.0
  9
$DIMDLE
 40
0.0
  9
$DIMEXE
 40
0.18
  9
$DIMTP
 40
0.0
  9
$DIMTM
 40
0.0
  9
$DIMTXT
 40
0.45
  9
$DIMCEN
 40
0.09
  9
$DIMTSZ
 40
0.0
  9
$DIMTOL
 70
     0
  9
$DIMLIM
 70
     0
  9
$DIMTIH
 70
     1
  9
$DIMTOH
 70
     1
  9
$DIMSE1
 70
     0
  9
$DIMSE2
 70
     0
  9
$DIMTAD
 70
     1
  9
$DIMZIN
 70
     0
  9
$DIMBLK
  1

  9
$DIMASO
 70
     1
  9
$DIMSHO
 70
     1
  9
$DIMPOST
  1

  9
$DIMAPOST
  1

  9
$DIMALT
 70
     0
  9
$DIMALTD
 70
     2
  9
$DIMALTF
 40
25.4
  9
$DIMLFAC
 40
1.0
  9
$DIMTOFL
 70
     0
  9
$DIMTVP
 40
0.0
  9
$DIMTIX
 70
     0
  9
$DIMSOXD
 70
     0
  9
$DIMSAH
 70
     0
  9
$DIMBLK1
  1

  9
$DIMBLK2
  1

  9
$DIMSTYLE
  2
*UNNAMED
  9
$DIMCLRD
 70
     0
  9
$DIMCLRE
 70
     0
  9
$DIMCLRT
 70
     0
  9
$DIMTFAC
 40
1.0
  9
$DIMGAP
 40
0.09
  9
$LUNITS
 70
     2
  9
$LUPREC
 70
     4
  9
$SKETCHINC
 40
0.1
  9
$FILLETRAD
 40
0.0
  9
$AUNITS
 70
     0
  9
$AUPREC
 70
     0
  9
$MENU
  1
acad
  9
$ELEVATION
 40
0.0
  9
$PELEVATION
 40
0.0
  9
$THICKNESS
 40
0.0
  9
$LIMCHECK
 70
     0
  9
$BLIPMODE
 70
     1
  9
$CHAMFERA
 40
0.0
  9
$CHAMFERB
 40
0.0
  9
$SKPOLY
 70
     0
  9
$TDCREATE
 40
2451218.687540625
  9
$TDUPDATE
 40
2451218.687540625
  9
$TDINDWG
 40
0.0000000000
  9
$TDUSRTIMER
 40
0.0000000000
  9
$USRTIMER
 70
     1
  9
$ANGBASE
 50
0.0
  9
$ANGDIR
 70
     0
  9
$PDMODE
 70
     0
  9
$PDSIZE
 40
0.0
  9
$PLINEWID
 40
0.0
  9
$COORDS
 70
     1
  9
$SPLFRAME
 70
     0
  9
$SPLINETYPE
 70
     6
  9
$SPLINESEGS
 70
     8
  9
$ATTDIA
 70
     0
  9
$ATTREQ
 70
     1
  9
$HANDLING
 70
     1
  9
$HANDSEED
  5
9349F
  9
$SURFTAB1
 70
     6
  9
$SURFTAB2
 70
     6
  9
$SURFTYPE
 70
     6
  9
$SURFU
 70
     6
  9
$SURFV
 70
     6
  9
$UCSNAME
  2

  9
$UCSORG
 10
26.09571691901454
 20
93.06877926110946
 30
0.0
  9
$UCSXDIR
 10
1.0
 20
0.0
 30
0.0
  9
$UCSYDIR
 10
0.0
 20
1.0
 30
0.0
  9
$PUCSNAME
  2

  9
$PUCSORG
 10
0.0
 20
0.0
 30
0.0
  9
$PUCSXDIR
 10
1.0
 20
0.0
 30
0.0
  9
$PUCSYDIR
 10
0.0
 20
1.0
 30
0.0
  9
$USERI1
 70
     0
  9
$USERI2
 70
     0
  9
$USERI3
 70
     0
  9
$USERI4
 70
     0
  9
$USERI5
 70
     0
  9
$USERR1
 40
0.0
  9
$USERR2
 40
0.0
  9
$USERR3
 40
0.0
  9
$USERR4
 40
0.0
  9
$USERR5
 40
0.0
  9
$WORLDVIEW
 70
     1
  9
$SHADEDGE
 70
     3
  9
$SHADEDIF
 70
    70
  9
$TILEMODE
 70
     1
  9
$MAXACTVP
 70
    16
  9
$PINSBASE
 10
0.0
 20
0.0
 30
0.0
  9
$PLIMCHECK
 70
     0
  9
$PEXTMIN
 10
1.000000E+20
 20
1.000000E+20
 30
1.000000E+20
  9
$PEXTMAX
 10
-1.000000E+20
 20
-1.000000E+20
 30
-1.000000E+20
  9
$PLIMMIN
 10
0.0
 20
0.0
  9
$PLIMMAX
 10
12.0
 20
9.0
  9
$UNITMODE
 70
     0
  9
$VISRETAIN
 70
     0
  9
$PLINEGEN
 70
     0
  9
$PSLTSCALE
 70
     1
  9
$TREEDEPTH
 70
  3020
  9
$DWGCODEPAGE
  3
iso8859-1
  0
ENDSEC
  0
SECTION
  2
TABLES
  0
TABLE
  2
VPORT
 70
     2
  0
VPORT
  2
*ACTIVE
 70
     0
 10
0.0
 20
0.0
 11
1.0
 21
1.0
 12
125.032846
 22
152.433045
 13
0.0
 23
0.0
 14
1.0
 24
1.0
 15
0.0
 25
0.0
 16
0.0
 26
0.0
 36
1.0
 17
0.0
 27
0.0
 37
0.0
 40
122.575027
 41
1.658281
 42
50.0
 43
0.0
 44
0.0
 50
0.0
 51
0.0
 71
     0
 72
   100
 73
     1
 74
     1
 75
     0
 76
     0
 77
     0
 78
     0
  0
ENDTAB
  0
TABLE
  2
LTYPE
 70
     1
  0
LTYPE
  2
CONTINUOUS
 70
    64
  3
Solid line
 72
    65
 73
     0
 40
0.0
  0
ENDTAB
  0
TABLE
  2
LAYER
 70
     1
  0
LAYER
  2
0
 70
    64
 62
     7
  6
CONTINUOUS
  0
ENDTAB
  0
TABLE
  2
STYLE
 70
     1
  0
STYLE
  2
STANDARD
 70
     0
 40
0.0
 41
1.0
 50
0.0
 71
     0
 42
0.2
  3
txt
  4

  0
ENDTAB
  0
TABLE
  2
VIEW
 70
     0
  0
ENDTAB
  0
TABLE
  2
UCS
 70
     0
  0
ENDTAB
  0
TABLE
  2
APPID
 70
     1
  0
APPID
  2
ACAD
 70
    64
  0
ENDTAB
  0
TABLE
  2
DIMSTYLE
 70
     0
  0
ENDTAB
  0
ENDSEC
  0
SECTION
  2
BLOCKS
  0
BLOCK
  8
0
  5
93499
  2
73830
 70
    64
 10
440.848374
 20
1407.449189
 30
0.0
  3
73830
  0
ENDBLK
  8
0
  5
9349A
  0
BLOCK
  8
0
  5
9349B
  2
DF
 70
    64
 10
922.739764
 20
276.264907
 30
0.0
  3
DF
  0
ENDBLK
  8
0
  5
9349C
  0
BLOCK
  8
0
  5
9349D
  2
IU
 70
    64
 10
924.839764
 20
266.864907
 30
0.0
  3
IU
  0
ENDBLK
  8
0
  5
9349E
  0
ENDSEC
  0
SECTION
  2
ENTITIES
  0
INSERT
  8
0
  5
3AA11
  2
73830
 10
177.999828
 20
709.671176
 30
0.0
 41
0.5
 42
0.5
 43
0.5
  0
INSERT
  8
0
  5
3AA12
  2
DF
 10
418.945523
 20
144.079035
 30
0.0
 41
0.5
 42
0.5
 43
0.5
  0
INSERT
  8
0
  5
3AA13
  2
IU
 10
419.995523
 20
139.379035
 30
0.0
 41
0.5
 42
0.5
 43
0.5
  0
INSERT
  8
0
  5
3AC95
  2
73830
 10
238.823284
 20
747.308767
 30
0.0
 41
0.5
 42
0.5
 43
0.5
  0
INSERT
  8
0
  5
3AC96
  2
DF
 10
479.768979
 20
181.716626
 30
0.0
 41
0.5
 42
0.5
 43
0.5
  0
INSERT
  8
0
  5
3AC97
  2
IU
 10
480.818979
 20
177.016626
 30
0.0
 41
0.5
 42
0.5
 43
0.5
  0
VIEWPORT
  8
0
  5
4635C
 67
     1
 68
    -1
 10
6.0
 20
4.5
 30
0.0
 40
12.0
 41
9.0
 69
     1
1001
ACAD
1000
MVIEW
1002
{
1070
    16
1010
0.0
1020
0.0
1030
0.0
1010
0.0
1020
0.0
1030
1.0
1040
0.0
1040
9.0
1040
6.0
1040
4.5
1040
50.0
1040
0.0
1040
0.0
1070
     0
1070
   100
1070
     1
1070
     1
1070
     0
1070
     0
1070
     0
1070
     0
1040
0.0
1040
0.0
1040
0.0
1040
1.0
1040
1.0
1040
0.0
1040
0.0
1070
     0
1002
{
1002
}
1002
}
  0
LINE
  8
0
  5
484FA
 10
66.720056
 20
108.299467
 30
0.0
 11
66.720056
 21
95.799467
 31
0.0
  0
LINE
  8
0
  5
484FB
 10
65.720056
 20
108.299467
 30
0.0
 11
66.720056
 21
108.299467
 31
0.0
  0
LINE
  8
0
  5
484FC
 10
66.720056
 20
195.299467
 30
0.0
 11
66.720056
 21
207.799467
 31
0.0
  0
LINE
  8
0
  5
48522
 10
42.095056
 20
108.948987
 30
0.0
 11
42.87198
 21
108.500429
 31
0.0
  0
LINE
  8
0
  5
48523
 10
44.720056
 20
108.299467
 30
0.0
 11
43.62198
 21
108.299467
 31
0.0
  0
LINE
  8
0
  5
48524
 10
40.720056
 20
189.299467
 30
0.0
 11
40.720056
 21
113.920788
 31
0.0
  0
LINE
  8
0
  5
48525
 10
42.095056
 20
110.248025
 30
0.0
 11
42.875721
 21
110.698742
 31
0.0
  0
LINE
  8
0
  5
48526
 10
42.927498
 20
111.092025
 30
0.0
 11
41.159396
 21
112.860128
 31
0.0
  0
LINE
  8
0
  5
48528
 10
41.920056
 20
113.920788
 30
0.0
 11
41.920056
 21
114.299467
 31
0.0
  0
LINE
  8
0
  5
48584
 10
40.720056
 20
189.678147
 30
0.0
 11
40.720056
 21
189.299467
 31
0.0
  0
LINE
  8
0
  5
48595
 10
65.720056
 20
108.299467
 30
0.0
 11
44.720056
 21
108.299467
 31
0.0
  0
ARC
  8
0
  5
485FF
 10
42.470056
 20
109.598506
 30
0.0
 40
0.75
 50
180.0
 51
240.0
  0
ARC
  8
0
  5
48600
 10
42.470056
 20
109.598506
 30
0.0
 40
0.75
 50
120.0
 51
180.0
  0
ARC
  8
0
  5
48601
 10
42.750721
 20
110.915248
 30
0.0
 40
0.25
 50
300.0
 51
45.0
  0
ARC
  8
0
  5
48603
 10
43.62198
 20
109.799467
 30
0.0
 40
1.5
 50
240.0
 51
270.0
  0
LINE
  8
0
  5
48661
 10
28.220056
 20
204.453176
 30
0.0
 11
31.566347
 21
207.799467
 31
0.0
  0
LINE
  8
0
  5
48662
 10
28.220056
 20
200.917642
 30
0.0
 11
35.101881
 21
207.799467
 31
0.0
  0
LINE
  8
0
  5
48663
 10
28.220056
 20
197.382108
 30
0.0
 11
38.637415
 21
207.799467
 31
0.0
  0
LINE
  8
0
  5
48664
 10
28.220056
 20
193.846574
 30
0.0
 11
42.172949
 21
207.799467
 31
0.0
  0
LINE
  8
0
  5
48665
 10
28.220056
 20
190.31104
 30
0.0
 11
45.708483
 21
207.799467
 31
0.0
  0
LINE
  8
0
  5
48666
 10
28.220056
 20
186.775506
 30
0.0
 11
49.244017
 21
207.799467
 31
0.0
  0
LINE
  8
0
  5
48667
 10
28.220056
 20
183.239973
 30
0.0
 11
52.779551
 21
207.799467
 31
0.0
  0
LINE
  8
0
  5
48668
 10
43.815085
 20
195.299467
 30
0.0
 11
56.315085
 21
207.799467
 31
0.0
  0
LINE
  8
0
  5
48669
 10
28.220056
 20
179.704439
 30
0.0
 11
40.720056
 21
192.204439
 31
0.0
  0
LINE
  8
0
  5
4866A
 10
47.350619
 20
195.299467
 30
0.0
 11
59.850619
 21
207.799467
 31
0.0
  0
LINE
  8
0
  5
4866B
 10
28.220056
 20
176.168905
 30
0.0
 11
40.720056
 21
188.668905
 31
0.0
  0
LINE
  8
0
  5
4866C
 10
50.886152
 20
195.299467
 30
0.0
 11
63.386152
 21
207.799467
 31
0.0
  0
LINE
  8
0
  5
4866D
 10
28.220056
 20
172.633371
 30
0.0
 11
40.720056
 21
185.133371
 31
0.0
  0
LINE
  8
0
  5
4866E
 10
54.421686
 20
195.299467
 30
0.0
 11
66.720056
 21
207.597837
 31
0.0
  0
LINE
  8
0
  5
4866F
 10
28.220056
 20
169.097837
 30
0.0
 11
40.720056
 21
181.597837
 31
0.0
  0
LINE
  8
0
  5
48670
 10
57.95722
 20
195.299467
 30
0.0
 11
66.720056
 21
204.062303
 31
0.0
  0
LINE
  8
0
  5
48671
 10
28.220056
 20
165.562303
 30
0.0
 11
40.720056
 21
178.062303
 31
0.0
  0
LINE
  8
0
  5
48672
 10
61.492754
 20
195.299467
 30
0.0
 11
66.720056
 21
200.526769
 31
0.0
  0
LINE
  8
0
  5
48673
 10
28.220056
 20
162.026769
 30
0.0
 11
40.720056
 21
174.526769
 31
0.0
  0
LINE
  8
0
  5
48674
 10
65.028288
 20
195.299467
 30
0.0
 11
66.720056
 21
196.991235
 31
0.0
  0
LINE
  8
0
  5
48675
 10
28.220056
 20
158.491235
 30
0.0
 11
40.720056
 21
170.991235
 31
0.0
  0
LINE
  8
0
  5
48676
 10
28.220056
 20
154.955701
 30
0.0
 11
40.720056
 21
167.455701
 31
0.0
  0
LINE
  8
0
  5
48677
 10
28.220056
 20
151.420167
 30
0.0
 11
40.720056
 21
163.920167
 31
0.0
  0
LINE
  8
0
  5
48678
 10
28.220056
 20
147.884633
 30
0.0
 11
40.720056
 21
160.384633
 31
0.0
  0
LINE
  8
0
  5
48679
 10
28.220056
 20
144.3491
 30
0.0
 11
40.720056
 21
156.8491
 31
0.0
  0
LINE
  8
0
  5
4867A
 10
28.220056
 20
140.813566
 30
0.0
 11
40.720056
 21
153.313566
 31
0.0
  0
LINE
  8
0
  5
4867B
 10
28.220056
 20
137.278032
 30
0.0
 11
40.720056
 21
149.778032
 31
0.0
  0
LINE
  8
0
  5
4867C
 10
28.220056
 20
133.742498
 30
0.0
 11
40.720056
 21
146.242498
 31
0.0
  0
LINE
  8
0
  5
4867D
 10
28.220056
 20
130.206964
 30
0.0
 11
40.720056
 21
142.706964
 31
0.0
  0
LINE
  8
0
  5
4867E
 10
28.220056
 20
126.67143
 30
0.0
 11
40.720056
 21
139.17143
 31
0.0
  0
LINE
  8
0
  5
4867F
 10
28.220056
 20
123.135896
 30
0.0
 11
40.720056
 21
135.635896
 31
0.0
  0
LINE
  8
0
  5
48680
 10
28.220056
 20
119.600362
 30
0.0
 11
40.720056
 21
132.100362
 31
0.0
  0
LINE
  8
0
  5
48681
 10
28.220056
 20
116.064828
 30
0.0
 11
40.720056
 21
128.564828
 31
0.0
  0
LINE
  8
0
  5
48682
 10
28.220056
 20
112.529294
 30
0.0
 11
40.720056
 21
125.029294
 31
0.0
  0
LINE
  8
0
  5
48683
 10
28.220056
 20
108.993761
 30
0.0
 11
40.720056
 21
121.493761
 31
0.0
  0
LINE
  8
0
  5
48684
 10
28.220056
 20
105.458227
 30
0.0
 11
40.720056
 21
117.958227
 31
0.0
  0
LINE
  8
0
  5
48685
 10
28.220056
 20
101.922693
 30
0.0
 11
40.720056
 21
114.422693
 31
0.0
  0
LINE
  8
0
  5
48686
 10
28.220056
 20
98.387159
 30
0.0
 11
40.720056
 21
110.887159
 31
0.0
  0
LINE
  8
0
  5
48687
 10
29.167898
 20
95.799467
 30
0.0
 11
41.667898
 21
108.299467
 31
0.0
  0
LINE
  8
0
  5
48688
 10
32.703432
 20
95.799467
 30
0.0
 11
45.203432
 21
108.299467
 31
0.0
  0
LINE
  8
0
  5
48689
 10
36.238966
 20
95.799467
 30
0.0
 11
48.738966
 21
108.299467
 31
0.0
  0
LINE
  8
0
  5
4868A
 10
39.7745
 20
95.799467
 30
0.0
 11
52.2745
 21
108.299467
 31
0.0
  0
LINE
  8
0
  5
4868B
 10
43.310034
 20
95.799467
 30
0.0
 11
55.810034
 21
108.299467
 31
0.0
  0
LINE
  8
0
  5
4868C
 10
46.845568
 20
95.799467
 30
0.0
 11
59.345568
 21
108.299467
 31
0.0
  0
LINE
  8
0
  5
4868D
 10
50.381102
 20
95.799467
 30
0.0
 11
62.881102
 21
108.299467
 31
0.0
  0
LINE
  8
0
  5
4868E
 10
53.916636
 20
95.799467
 30
0.0
 11
66.416636
 21
108.299467
 31
0.0
  0
LINE
  8
0
  5
4868F
 10
57.45217
 20
95.799467
 30
0.0
 11
66.720056
 21
105.067354
 31
0.0
  0
LINE
  8
0
  5
48690
 10
60.987704
 20
95.799467
 30
0.0
 11
66.720056
 21
101.53182
 31
0.0
  0
LINE
  8
0
  5
48691
 10
64.523237
 20
95.799467
 30
0.0
 11
66.720056
 21
97.996286
 31
0.0
  0
INSERT
  8
0
  5
91AE9
  2
73830
 10
293.975849
 20
758.446281
 30
0.0
 41
0.5
 42
0.5
 43
0.5
  0
INSERT
  8
0
  5
91AEA
  2
DF
 10
534.921544
 20
192.85414
 30
0.0
 41
0.5
 42
0.5
 43
0.5
  0
INSERT
  8
0
  5
91AEB
  2
IU
 10
535.971544
 20
188.15414
 30
0.0
 41
0.5
 42
0.5
 43
0.5
  0
INSERT
  8
0
  5
91AEC
  2
73830
 10
354.799305
 20
796.083872
 30
0.0
 41
0.5
 42
0.5
 43
0.5
  0
INSERT
  8
0
  5
91AED
  2
DF
 10
595.745
 20
230.491731
 30
0.0
 41
0.5
 42
0.5
 43
0.5
  0
INSERT
  8
0
  5
91AEE
  2
IU
 10
596.795
 20
225.791731
 30
0.0
 41
0.5
 42
0.5
 43
0.5
  0
LINE
  8
0
  5
9240F
 10
40.720056
 20
189.867594
 30
0.0
 11
40.720056
 21
189.485128
 31
0.0
  0
LINE
  8
0
  5
92410
 10
40.720056
 20
113.735128
 30
0.0
 11
40.720056
 21
189.485128
 31
0.0
  0
LINE
  8
0
  5
92436
 10
66.582019
 20
113.221455
 30
0.0
 11
66.582019
 21
152.918065
 31
0.0
  0
LINE
  8
0
  5
92437
 10
67.826339
 20
117.900098
 30
0.0
 11
67.826339
 21
148.239421
 31
0.0
  0
LINE
  8
0
  5
92438
 10
67.935206
 20
162.446754
 30
0.0
 11
67.935206
 21
185.441788
 31
0.0
  0
LINE
  8
0
  5
92439
 10
66.690886
 20
157.768111
 30
0.0
 11
66.690886
 21
190.120431
 31
0.0
  0
LINE
  8
0
  5
9243A
 10
66.690886
 20
157.768111
 30
0.0
 11
63.20679
 21
157.707296
 31
0.0
  0
LINE
  8
0
  5
9243B
 10
63.20679
 20
190.059616
 30
0.0
 11
63.20679
 21
189.064008
 31
0.0
  0
LINE
  8
0
  5
9243C
 10
66.690886
 20
189.998801
 30
0.0
 11
63.20679
 21
190.059616
 31
0.0
  0
LINE
  8
0
  5
9243D
 10
64.095892
 20
159.216226
 30
0.0
 11
63.20679
 21
158.702903
 31
0.0
  0
LINE
  8
0
  5
9243E
 10
65.69543
 20
159.244146
 30
0.0
 11
64.095892
 21
159.216226
 31
0.0
  0
LINE
  8
0
  5
9243F
 10
65.69543
 20
158.746343
 30
0.0
 11
63.20679
 21
158.702903
 31
0.0
  0
LINE
  8
0
  5
92440
 10
65.69543
 20
189.020569
 30
0.0
 11
63.20679
 21
189.064008
 31
0.0
  0
LINE
  8
0
  5
92441
 10
61.016787
 20
185.978902
 30
0.0
 11
61.016787
 21
186.077792
 31
0.0
  0
LINE
  8
0
  5
92442
 10
64.095892
 20
188.550685
 30
0.0
 11
63.20679
 21
189.064008
 31
0.0
  0
LINE
  8
0
  5
92443
 10
63.20679
 20
157.707296
 30
0.0
 11
63.20679
 21
158.702903
 31
0.0
  0
LINE
  8
0
  5
92444
 10
65.69543
 20
188.522765
 30
0.0
 11
64.095892
 21
188.550685
 31
0.0
  0
LINE
  8
0
  5
92445
 10
61.016787
 20
148.898166
 30
0.0
 11
61.016787
 21
148.997056
 31
0.0
  0
LINE
  8
0
  5
9244A
 10
66.280112
 20
113.285072
 30
0.0
 11
65.284656
 21
113.285072
 31
0.0
  0
LINE
  8
0
  5
9244F
 10
64.113272
 20
151.361264
 30
0.0
 11
61.574859
 21
151.361264
 31
0.0
  0
LINE
  8
0
  5
92450
 10
64.113272
 20
114.778256
 30
0.0
 11
61.574859
 21
114.778256
 31
0.0
  0
LINE
  8
0
  5
92451
 10
64.013726
 20
113.285072
 30
0.0
 11
65.108728
 21
113.285072
 31
0.0
  0
LINE
  8
0
  5
92452
 10
64.113272
 20
188.442
 30
0.0
 11
61.574859
 21
188.442
 31
0.0
  0
LINE
  8
0
  5
92455
 10
41.914603
 20
188.939728
 30
0.0
 11
41.914603
 21
176.869824
 31
0.0
  0
LINE
  8
0
  5
92456
 10
41.914603
 20
170.897088
 30
0.0
 11
41.914603
 21
159.076048
 31
0.0
  0
LINE
  8
0
  5
92457
 10
41.914603
 20
130.083392
 30
0.0
 11
41.914603
 21
114.280528
 31
0.0
  0
LINE
  8
0
  5
92458
 10
40.720056
 20
114.280528
 30
0.0
 11
40.720056
 21
188.939728
 31
0.0
  0
LINE
  8
0
  5
92459
 10
44.70188
 20
194.912464
 30
0.0
 11
65.606456
 21
194.912464
 31
0.0
  0
LINE
  8
0
  5
9245A
 10
65.357592
 20
193.717916
 30
0.0
 11
44.70188
 21
193.717916
 31
0.0
  0
LINE
  8
0
  5
9245B
 10
41.914603
 20
151.610128
 30
0.0
 11
41.914603
 21
136.056128
 31
0.0
  0
LINE
  8
0
  5
9245C
 10
65.606456
 20
193.469052
 30
0.0
 11
65.606456
 21
191.926096
 31
0.0
  0
LINE
  8
0
  5
9245D
 10
66.601912
 20
193.917008
 30
0.0
 11
66.601912
 21
191.926096
 31
0.0
  0
LINE
  8
0
  5
9245E
 10
65.606456
 20
108.307792
 30
0.0
 11
44.70188
 21
108.307792
 31
0.0
  0
LINE
  8
0
  5
9245F
 10
44.70188
 20
109.502339
 30
0.0
 11
65.357592
 21
109.502339
 31
0.0
  0
LINE
  8
0
  5
92460
 10
65.606456
 20
111.29416
 30
0.0
 11
65.606456
 21
109.751203
 31
0.0
  0
LINE
  8
0
  5
92461
 10
66.601912
 20
111.29416
 30
0.0
 11
66.601912
 21
109.303248
 31
0.0
  0
LINE
  8
0
  5
92462
 10
45.000517
 20
175.13115
 30
0.0
 11
45.000517
 21
175.081377
 31
0.0
  0
LINE
  8
0
  5
92463
 10
42.002072
 20
113.692401
 30
0.0
 11
43.76214
 21
111.932332
 31
0.0
  0
LINE
  8
0
  5
92464
 10
41.914603
 20
113.903569
 30
0.0
 11
41.914603
 21
114.280528
 31
0.0
  0
LINE
  8
0
  5
92465
 10
43.557052
 20
109.502339
 30
0.0
 11
44.70188
 21
109.502339
 31
0.0
  0
LINE
  8
0
  5
92468
 10
40.720056
 20
114.280528
 30
0.0
 11
40.720056
 21
113.903569
 31
0.0
  0
LINE
  8
0
  5
92469
 10
44.70188
 20
108.307792
 30
0.0
 11
43.608793
 21
108.307792
 31
0.0
  0
LINE
  8
0
  5
9246B
 10
64.113272
 20
156.338544
 30
0.0
 11
59.484401
 21
156.338544
 31
0.0
  0
LINE
  8
0
  5
9246C
 10
58.986673
 20
157.582864
 30
0.0
 11
58.986673
 21
159.573776
 31
0.0
  0
LINE
  8
0
  5
9246D
 10
59.484401
 20
157.085136
 30
0.0
 11
63.715089
 21
157.085136
 31
0.0
  0
LINE
  8
0
  5
9246E
 10
57.991217
 20
157.582864
 30
0.0
 11
57.991217
 21
159.82264
 31
0.0
  0
LINE
  8
0
  5
9246F
 10
65.85532
 20
156.836272
 30
0.0
 11
65.85532
 21
155.343088
 31
0.0
  0
LINE
  8
0
  5
92470
 10
66.601912
 20
157.334
 30
0.0
 11
66.601912
 21
155.343088
 31
0.0
  0
LINE
  8
0
  5
92471
 10
64.013726
 20
157.831728
 30
0.0
 11
66.104184
 21
157.831728
 31
0.0
  0
LINE
  8
0
  5
92472
 10
58.986673
 20
160.818096
 30
0.0
 11
60.828267
 21
160.818096
 31
0.0
  0
LINE
  8
0
  5
92473
 10
63.864408
 20
157.234454
 30
0.0
 11
63.864408
 21
157.682409
 31
0.0
  0
LINE
  8
0
  5
92474
 10
57.493489
 20
157.085136
 30
0.0
 11
42.412331
 21
157.085136
 31
0.0
  0
LINE
  8
0
  5
92475
 10
60.828267
 20
160.071504
 30
0.0
 11
59.484401
 21
160.071504
 31
0.0
  0
LINE
  8
0
  5
92476
 10
64.113272
 20
159.324912
 30
0.0
 11
61.574859
 21
159.324912
 31
0.0
  0
LINE
  8
0
  5
92477
 10
61.077131
 20
161.664233
 30
0.0
 11
61.077131
 21
161.06696
 31
0.0
  0
LINE
  8
0
  5
92478
 10
65.606456
 20
161.315824
 30
0.0
 11
65.606456
 21
160.818096
 31
0.0
  0
LINE
  8
0
  5
92479
 10
65.108728
 20
161.813552
 30
0.0
 11
61.226449
 21
161.813552
 31
0.0
  0
LINE
  8
0
  5
9247A
 10
64.113272
 20
160.071504
 30
0.0
 11
62.072587
 21
160.071504
 31
0.0
  0
LINE
  8
0
  5
9247B
 10
64.611
 20
161.06696
 30
0.0
 11
62.072587
 21
161.06696
 31
0.0
  0
LINE
  8
0
  5
9247C
 10
61.823723
 20
160.818096
 30
0.0
 11
61.823723
 21
160.320368
 31
0.0
  0
LINE
  8
0
  5
9247D
 10
57.742353
 20
156.338544
 30
0.0
 11
42.412331
 21
156.338544
 31
0.0
  0
LINE
  8
0
  5
9247E
 10
41.914603
 20
159.076048
 30
0.0
 11
41.914603
 21
157.582864
 31
0.0
  0
LINE
  8
0
  5
9247F
 10
65.606456
 20
157.085136
 30
0.0
 11
64.859864
 21
157.085136
 31
0.0
  0
LINE
  8
0
  5
92480
 10
41.914603
 20
155.343088
 30
0.0
 11
41.914603
 21
155.840816
 31
0.0
  0
LINE
  8
0
  5
92481
 10
58.986673
 20
155.343088
 30
0.0
 11
58.986673
 21
155.840816
 31
0.0
  0
LINE
  8
0
  5
92482
 10
58.240081
 20
155.343088
 30
0.0
 11
58.240081
 21
155.840816
 31
0.0
  0
LINE
  8
0
  5
92483
 10
61.823723
 20
187.446544
 30
0.0
 11
61.823723
 21
186.948816
 31
0.0
  0
LINE
  8
0
  5
92484
 10
62.072587
 20
186.699952
 30
0.0
 11
64.611
 21
186.699952
 31
0.0
  0
LINE
  8
0
  5
92485
 10
62.072587
 20
187.695408
 30
0.0
 11
64.113272
 21
187.695408
 31
0.0
  0
LINE
  8
0
  5
92486
 10
57.991217
 20
187.944272
 30
0.0
 11
57.991217
 21
190.184048
 31
0.0
  0
LINE
  8
0
  5
92487
 10
58.986673
 20
188.193136
 30
0.0
 11
58.986673
 21
190.184048
 31
0.0
  0
LINE
  8
0
  5
92488
 10
65.606456
 20
191.926096
 30
0.0
 11
65.606456
 21
191.179504
 31
0.0
  0
LINE
  8
0
  5
92489
 10
66.601912
 20
191.926096
 30
0.0
 11
66.601912
 21
190.432912
 31
0.0
  0
LINE
  8
0
  5
9248A
 10
66.104184
 20
189.935184
 30
0.0
 11
64.013726
 21
189.935184
 31
0.0
  0
LINE
  8
0
  5
9248B
 10
61.226449
 20
185.95336
 30
0.0
 11
65.108728
 21
185.95336
 31
0.0
  0
LINE
  8
0
  5
9248C
 10
60.828267
 20
186.948816
 30
0.0
 11
58.986673
 21
186.948816
 31
0.0
  0
LINE
  8
0
  5
9248D
 10
65.606456
 20
186.948816
 30
0.0
 11
65.606456
 21
186.451088
 31
0.0
  0
LINE
  8
0
  5
9248E
 10
63.715089
 20
190.681776
 30
0.0
 11
59.484401
 21
190.681776
 31
0.0
  0
LINE
  8
0
  5
9248F
 10
64.362136
 20
191.677232
 30
0.0
 11
59.484401
 21
191.677232
 31
0.0
  0
LINE
  8
0
  5
92490
 10
59.484401
 20
187.695408
 30
0.0
 11
60.828267
 21
187.695408
 31
0.0
  0
LINE
  8
0
  5
92491
 10
61.077131
 20
186.699952
 30
0.0
 11
61.077131
 21
186.102678
 31
0.0
  0
LINE
  8
0
  5
92492
 10
63.864408
 20
190.084502
 30
0.0
 11
63.864408
 21
190.532457
 31
0.0
  0
LINE
  8
0
  5
92493
 10
65.108728
 20
190.93064
 30
0.0
 11
65.357592
 21
190.93064
 31
0.0
  0
LINE
  8
0
  5
92494
 10
61.823723
 20
116.27144
 30
0.0
 11
61.823723
 21
115.773712
 31
0.0
  0
LINE
  8
0
  5
92495
 10
64.611
 20
116.520304
 30
0.0
 11
62.072587
 21
116.520304
 31
0.0
  0
LINE
  8
0
  5
92496
 10
64.113272
 20
115.524848
 30
0.0
 11
62.072587
 21
115.524848
 31
0.0
  0
LINE
  8
0
  5
92497
 10
57.991217
 20
113.036208
 30
0.0
 11
57.991217
 21
115.275984
 31
0.0
  0
LINE
  8
0
  5
92498
 10
58.986673
 20
113.036208
 30
0.0
 11
58.986673
 21
115.02712
 31
0.0
  0
LINE
  8
0
  5
92499
 10
65.606456
 20
112.040752
 30
0.0
 11
65.606456
 21
111.29416
 31
0.0
  0
LINE
  8
0
  5
9249A
 10
66.601912
 20
112.787344
 30
0.0
 11
66.601912
 21
111.29416
 31
0.0
  0
LINE
  8
0
  5
9249B
 10
65.108728
 20
117.266896
 30
0.0
 11
61.226449
 21
117.266896
 31
0.0
  0
LINE
  8
0
  5
9249C
 10
58.986673
 20
116.27144
 30
0.0
 11
60.828267
 21
116.27144
 31
0.0
  0
LINE
  8
0
  5
9249D
 10
65.606456
 20
116.769168
 30
0.0
 11
65.606456
 21
116.27144
 31
0.0
  0
LINE
  8
0
  5
9249E
 10
59.484401
 20
112.53848
 30
0.0
 11
63.715089
 21
112.53848
 31
0.0
  0
LINE
  8
0
  5
9249F
 10
59.484401
 20
111.543024
 30
0.0
 11
64.362136
 21
111.543024
 31
0.0
  0
LINE
  8
0
  5
924A0
 10
60.828267
 20
115.524848
 30
0.0
 11
59.484401
 21
115.524848
 31
0.0
  0
LINE
  8
0
  5
924A1
 10
61.077131
 20
117.117577
 30
0.0
 11
61.077131
 21
116.520304
 31
0.0
  0
LINE
  8
0
  5
924A2
 10
63.864408
 20
112.687798
 30
0.0
 11
63.864408
 21
113.135753
 31
0.0
  0
LINE
  8
0
  5
924A3
 10
65.357592
 20
112.289616
 30
0.0
 11
65.108728
 21
112.289616
 31
0.0
  0
LINE
  8
0
  5
924A4
 10
44.08399
 20
131.501184
 30
0.0
 11
44.408245
 21
131.82544
 31
0.0
  0
LINE
  8
0
  5
924A5
 10
43.832624
 20
131.752549
 30
0.0
 11
44.08399
 21
131.501184
 31
0.0
  0
LINE
  8
0
  5
924A6
 10
43.407787
 20
130.58112
 30
0.0
 11
43.407787
 21
131.576576
 31
0.0
  0
LINE
  8
0
  5
924A7
 10
44.78331
 20
131.355832
 30
0.0
 11
43.832624
 21
130.405146
 31
0.0
  0
LINE
  8
0
  5
924A8
 10
42.362558
 20
132.621804
 30
0.0
 11
44.258927
 21
132.621804
 31
0.0
  0
LINE
  8
0
  5
924A9
 10
42.412331
 20
131.82544
 30
0.0
 11
44.408245
 21
131.82544
 31
0.0
  0
LINE
  8
0
  5
924AA
 10
44.408245
 20
134.31408
 30
0.0
 11
44.08399
 21
134.638335
 31
0.0
  0
LINE
  8
0
  5
924AB
 10
44.08399
 20
134.638335
 30
0.0
 11
43.832624
 21
134.38697
 31
0.0
  0
LINE
  8
0
  5
924AC
 10
43.407787
 20
134.562944
 30
0.0
 11
43.407787
 21
135.5584
 31
0.0
  0
LINE
  8
0
  5
924AD
 10
43.832624
 20
135.734373
 30
0.0
 11
44.78331
 21
134.783687
 31
0.0
  0
LINE
  8
0
  5
924AE
 10
44.258927
 20
133.517715
 30
0.0
 11
42.362558
 21
133.517715
 31
0.0
  0
LINE
  8
0
  5
924AF
 10
44.408245
 20
134.31408
 30
0.0
 11
42.412331
 21
134.31408
 31
0.0
  0
LINE
  8
0
  5
924B0
 10
41.914603
 20
136.056128
 30
0.0
 11
41.914603
 21
134.811808
 31
0.0
  0
LINE
  8
0
  5
924B1
 10
41.914603
 20
130.083392
 30
0.0
 11
41.914603
 21
131.327712
 31
0.0
  0
LINE
  8
0
  5
924B2
 10
44.08399
 20
172.31488
 30
0.0
 11
44.408245
 21
172.639136
 31
0.0
  0
LINE
  8
0
  5
924B3
 10
43.832624
 20
172.566245
 30
0.0
 11
44.08399
 21
172.31488
 31
0.0
  0
LINE
  8
0
  5
924B4
 10
43.407787
 20
171.394816
 30
0.0
 11
43.407787
 21
172.390272
 31
0.0
  0
LINE
  8
0
  5
924B5
 10
44.78331
 20
172.169528
 30
0.0
 11
43.832624
 21
171.218842
 31
0.0
  0
LINE
  8
0
  5
924B6
 10
42.362558
 20
173.4355
 30
0.0
 11
44.258927
 21
173.4355
 31
0.0
  0
LINE
  8
0
  5
924B7
 10
42.412331
 20
172.639136
 30
0.0
 11
44.408245
 21
172.639136
 31
0.0
  0
LINE
  8
0
  5
924B8
 10
44.408245
 20
175.127776
 30
0.0
 11
44.08399
 21
175.452031
 31
0.0
  0
LINE
  8
0
  5
924B9
 10
44.08399
 20
175.452031
 30
0.0
 11
43.832624
 21
175.200666
 31
0.0
  0
LINE
  8
0
  5
924BA
 10
43.407787
 20
175.37664
 30
0.0
 11
43.407787
 21
176.372096
 31
0.0
  0
LINE
  8
0
  5
924BB
 10
43.832624
 20
176.548069
 30
0.0
 11
44.78331
 21
175.597383
 31
0.0
  0
LINE
  8
0
  5
924BC
 10
44.258927
 20
174.331411
 30
0.0
 11
42.362558
 21
174.331411
 31
0.0
  0
LINE
  8
0
  5
924BD
 10
44.408245
 20
175.127776
 30
0.0
 11
42.412331
 21
175.127776
 31
0.0
  0
LINE
  8
0
  5
924BE
 10
41.914603
 20
176.869824
 30
0.0
 11
41.914603
 21
175.625504
 31
0.0
  0
LINE
  8
0
  5
924BF
 10
41.914603
 20
170.897088
 30
0.0
 11
41.914603
 21
172.141408
 31
0.0
  0
LINE
  8
0
  5
924C0
 10
43.76214
 20
191.287923
 30
0.0
 11
42.002072
 21
189.527855
 31
0.0
  0
LINE
  8
0
  5
924C1
 10
41.914603
 20
188.939728
 30
0.0
 11
41.914603
 21
189.316687
 31
0.0
  0
LINE
  8
0
  5
924C2
 10
44.70188
 20
193.717916
 30
0.0
 11
43.557052
 21
193.717916
 31
0.0
  0
LINE
  8
0
  5
924C3
 10
41.157399
 20
190.372527
 30
0.0
 11
42.917468
 21
192.132595
 31
0.0
  0
LINE
  8
0
  5
924C4
 10
42.865926
 20
192.524091
 30
0.0
 11
42.088808
 21
192.972761
 31
0.0
  0
LINE
  8
0
  5
924C5
 10
40.720056
 20
189.316687
 30
0.0
 11
40.720056
 21
188.939728
 31
0.0
  0
LINE
  8
0
  5
924C6
 10
43.608793
 20
194.912464
 30
0.0
 11
44.70188
 21
194.912464
 31
0.0
  0
LINE
  8
0
  5
924C7
 10
42.862201
 20
194.712415
 30
0.0
 11
42.088808
 21
194.265896
 31
0.0
  0
LINE
  8
0
  5
924C8
 10
59.484401
 20
154.347632
 30
0.0
 11
64.113272
 21
154.347632
 31
0.0
  0
LINE
  8
0
  5
924C9
 10
58.986673
 20
151.1124
 30
0.0
 11
58.986673
 21
153.103312
 31
0.0
  0
LINE
  8
0
  5
924CA
 10
63.715089
 20
153.60104
 30
0.0
 11
59.484401
 21
153.60104
 31
0.0
  0
LINE
  8
0
  5
924CB
 10
57.991217
 20
150.863536
 30
0.0
 11
57.991217
 21
153.103312
 31
0.0
  0
LINE
  8
0
  5
924CC
 10
65.85532
 20
155.343088
 30
0.0
 11
65.85532
 21
153.849904
 31
0.0
  0
LINE
  8
0
  5
924CD
 10
66.601912
 20
155.343088
 30
0.0
 11
66.601912
 21
153.352176
 31
0.0
  0
LINE
  8
0
  5
924CE
 10
66.104184
 20
152.854448
 30
0.0
 11
64.013726
 21
152.854448
 31
0.0
  0
LINE
  8
0
  5
924CF
 10
60.828267
 20
149.86808
 30
0.0
 11
58.986673
 21
149.86808
 31
0.0
  0
LINE
  8
0
  5
924D0
 10
63.864408
 20
153.003766
 30
0.0
 11
63.864408
 21
153.451721
 31
0.0
  0
LINE
  8
0
  5
924D1
 10
42.412331
 20
153.60104
 30
0.0
 11
57.493489
 21
153.60104
 31
0.0
  0
LINE
  8
0
  5
924D2
 10
59.484401
 20
150.614672
 30
0.0
 11
60.828267
 21
150.614672
 31
0.0
  0
LINE
  8
0
  5
924D3
 10
61.077131
 20
149.619216
 30
0.0
 11
61.077131
 21
149.021942
 31
0.0
  0
LINE
  8
0
  5
924D4
 10
65.606456
 20
149.86808
 30
0.0
 11
65.606456
 21
149.370352
 31
0.0
  0
LINE
  8
0
  5
924D5
 10
61.226449
 20
148.872624
 30
0.0
 11
65.108728
 21
148.872624
 31
0.0
  0
LINE
  8
0
  5
924D6
 10
62.072587
 20
150.614672
 30
0.0
 11
64.113272
 21
150.614672
 31
0.0
  0
LINE
  8
0
  5
924D7
 10
62.072587
 20
149.619216
 30
0.0
 11
64.611
 21
149.619216
 31
0.0
  0
LINE
  8
0
  5
924D8
 10
61.823723
 20
150.365808
 30
0.0
 11
61.823723
 21
149.86808
 31
0.0
  0
LINE
  8
0
  5
924D9
 10
42.412331
 20
154.347632
 30
0.0
 11
57.742353
 21
154.347632
 31
0.0
  0
LINE
  8
0
  5
924DA
 10
41.914603
 20
153.103312
 30
0.0
 11
41.914603
 21
151.610128
 31
0.0
  0
LINE
  8
0
  5
924DB
 10
64.859864
 20
153.60104
 30
0.0
 11
65.606456
 21
153.60104
 31
0.0
  0
LINE
  8
0
  5
924DC
 10
41.914603
 20
154.84536
 30
0.0
 11
41.914603
 21
155.343088
 31
0.0
  0
LINE
  8
0
  5
924DD
 10
58.986673
 20
154.84536
 30
0.0
 11
58.986673
 21
155.343088
 31
0.0
  0
LINE
  8
0
  5
924DE
 10
58.240081
 20
154.84536
 30
0.0
 11
58.240081
 21
155.343088
 31
0.0
  0
LINE
  8
0
  5
924E0
 10
65.108728
 20
152.854448
 30
0.0
 11
66.104184
 21
152.854448
 31
0.0
  0
LINE
  8
0
  5
924E4
 10
65.284656
 20
152.854448
 30
0.0
 11
66.280112
 21
152.854448
 31
0.0
  0
LINE
  8
0
  5
924E9
 10
66.77784
 20
113.7828
 30
0.0
 11
66.77784
 21
152.35672
 31
0.0
  0
LINE
  8
0
  5
924EA
 10
66.77784
 20
152.35672
 30
0.0
 11
66.77784
 21
113.7828
 31
0.0
  0
LINE
  8
0
  5
924EB
 10
66.104184
 20
113.285072
 30
0.0
 11
65.108728
 21
113.285072
 31
0.0
  0
LINE
  8
0
  5
924ED
 10
65.108728
 20
113.285072
 30
0.0
 11
66.104184
 21
113.285072
 31
0.0
  0
LINE
  8
0
  5
924F1
 10
65.108728
 20
189.935184
 30
0.0
 11
66.104184
 21
189.935184
 31
0.0
  0
LINE
  8
0
  5
924F2
 10
64.058204
 20
188.442
 30
0.0
 11
61.405915
 21
188.442
 31
0.0
  0
LINE
  8
0
  5
924F6
 10
64.058204
 20
188.442
 30
0.0
 11
61.405915
 21
188.442
 31
0.0
  0
LINE
  8
0
  5
924F7
 10
65.284656
 20
189.935184
 30
0.0
 11
66.280112
 21
189.935184
 31
0.0
  0
LINE
  8
0
  5
924FD
 10
66.104184
 20
157.831728
 30
0.0
 11
65.108728
 21
157.831728
 31
0.0
  0
LINE
  8
0
  5
9250A
 10
65.284656
 20
157.831728
 30
0.0
 11
66.280112
 21
157.831728
 31
0.0
  0
ARC
  8
0
  5
9250B
 10
58.40833
 20
148.239421
 30
0.0
 40
9.418009
 50
0.0
 51
29.786946
  0
ARC
  8
0
  5
9250C
 10
58.40833
 20
117.900098
 30
0.0
 40
9.418009
 50
330.213054
 51
0.0
  0
ARC
  8
0
  5
9250D
 10
58.517197
 20
162.446754
 30
0.0
 40
9.418009
 50
330.213054
 51
0.0
  0
ARC
  8
0
  5
9250E
 10
58.517197
 20
185.441788
 30
0.0
 40
9.418009
 50
0.0
 51
29.786946
  0
ARC
  8
0
  5
92518
 10
66.280112
 20
113.7828
 30
0.0
 40
0.497728
 50
270.0
 51
0.0
  0
ARC
  8
0
  5
92519
 10
66.280112
 20
113.7828
 30
0.0
 40
0.497728
 50
270.0
 51
0.0
  0
ARC
  8
0
  5
9251E
 10
43.656651
 20
135.5584
 30
0.0
 40
0.248864
 50
90.0
 51
180.0
  0
ARC
  8
0
  5
9251F
 10
43.656651
 20
130.58112
 30
0.0
 40
0.248864
 50
270.0
 51
315.0
  0
ARC
  8
0
  5
92520
 10
43.656651
 20
131.576576
 30
0.0
 40
0.248864
 50
45.0
 51
180.0
  0
ARC
  8
0
  5
92521
 10
43.656651
 20
130.58112
 30
0.0
 40
0.248864
 50
180.0
 51
270.0
  0
ARC
  8
0
  5
92522
 10
43.656651
 20
134.562944
 30
0.0
 40
0.248864
 50
180.0
 51
315.0
  0
ARC
  8
0
  5
92523
 10
43.656651
 20
135.5584
 30
0.0
 40
0.248864
 50
45.0
 51
90.0
  0
ARC
  8
0
  5
92524
 10
43.656651
 20
176.372096
 30
0.0
 40
0.248864
 50
45.0
 51
180.0
  0
ARC
  8
0
  5
92525
 10
43.656651
 20
171.394816
 30
0.0
 40
0.248864
 50
270.0
 51
315.0
  0
ARC
  8
0
  5
92526
 10
43.656651
 20
172.390272
 30
0.0
 40
0.248864
 50
45.0
 51
180.0
  0
ARC
  8
0
  5
92527
 10
43.656651
 20
171.394816
 30
0.0
 40
0.248864
 50
180.0
 51
270.0
  0
ARC
  8
0
  5
92528
 10
43.656651
 20
175.37664
 30
0.0
 40
0.248864
 50
180.0
 51
315.0
  0
ARC
  8
0
  5
92532
 10
66.280112
 20
152.35672
 30
0.0
 40
0.497728
 50
0.0
 51
90.0
  0
ARC
  8
0
  5
92533
 10
66.280112
 20
152.35672
 30
0.0
 40
0.497728
 50
0.0
 51
90.0
  0
ARC
  8
0
  5
92538
 10
60.453157
 20
187.944272
 30
0.0
 40
0.248864
 50
240.0
 51
270.0
  0
ARC
  8
0
  5
92539
 10
60.453157
 20
187.944272
 30
0.0
 40
0.248864
 50
270.0
 51
315.0
  0
ARC
  8
0
  5
9253B
 10
64.058204
 20
188.939728
 30
0.0
 40
0.497728
 50
270.0
 51
300.0
  0
ARC
  8
0
  5
9253E
 10
64.058204
 20
188.939728
 30
0.0
 40
0.497728
 50
270.0
 51
300.0
  0
ARC
  8
0
  5
92540
 10
60.453157
 20
187.944272
 30
0.0
 40
0.248864
 50
270.0
 51
315.0
  0
ARC
  8
0
  5
92542
 10
60.453157
 20
187.944272
 30
0.0
 40
0.248864
 50
240.0
 51
270.0
  0
ARC
  8
0
  5
9254C
 10
64.058204
 20
158.827184
 30
0.0
 40
0.497728
 50
60.0
 51
90.0
  0
ARC
  8
0
  5
92555
 10
64.058204
 20
158.827184
 30
0.0
 40
0.497728
 50
60.0
 51
90.0
  0
ARC
  8
0
  5
9255B
 10
65.606456
 20
193.917008
 30
0.0
 40
0.995456
 50
0.0
 51
90.0
  0
ARC
  8
0
  5
9255C
 10
65.357592
 20
193.469052
 30
0.0
 40
0.248864
 50
0.0
 51
90.0
  0
ARC
  8
0
  5
9255D
 10
65.606456
 20
109.303248
 30
0.0
 40
0.995456
 50
270.0
 51
0.0
  0
ARC
  8
0
  5
9255E
 10
65.357592
 20
109.751203
 30
0.0
 40
0.248864
 50
270.0
 51
0.0
  0
ARC
  8
0
  5
9255F
 10
43.557052
 20
109.601884
 30
0.0
 40
0.099546
 50
121.908751
 51
270.0
  0
ARC
  8
0
  5
92560
 10
42.741494
 20
110.911687
 30
0.0
 40
1.443411
 50
301.908751
 51
45.0
  0
ARC
  8
0
  5
92561
 10
42.21324
 20
113.903569
 30
0.0
 40
0.298637
 50
180.0
 51
225.0
  0
ARC
  8
0
  5
92562
 10
43.608793
 20
109.800976
 30
0.0
 40
1.493184
 50
240.0
 51
270.0
  0
ARC
  8
0
  5
92563
 10
42.21324
 20
113.903569
 30
0.0
 40
1.493184
 50
180.0
 51
225.0
  0
ARC
  8
0
  5
92567
 10
64.013726
 20
157.682409
 30
0.0
 40
0.149318
 50
90.0
 51
180.0
  0
ARC
  8
0
  5
92568
 10
63.715089
 20
157.234454
 30
0.0
 40
0.149318
 50
270.0
 51
0.0
  0
ARC
  8
0
  5
92569
 10
60.828267
 20
159.82264
 30
0.0
 40
0.248864
 50
0.0
 51
90.0
  0
ARC
  8
0
  5
9256A
 10
61.574859
 20
159.82264
 30
0.0
 40
0.497728
 50
180.0
 51
270.0
  0
ARC
  8
0
  5
9256B
 10
66.104184
 20
157.334
 30
0.0
 40
0.497728
 50
0.0
 51
90.0
  0
ARC
  8
0
  5
9256C
 10
59.484401
 20
159.573776
 30
0.0
 40
0.497728
 50
90.0
 51
180.0
  0
ARC
  8
0
  5
9256D
 10
58.986673
 20
159.82264
 30
0.0
 40
0.995456
 50
90.0
 51
180.0
  0
ARC
  8
0
  5
9256E
 10
59.484401
 20
157.582864
 30
0.0
 40
0.497728
 50
180.0
 51
270.0
  0
ARC
  8
0
  5
9256F
 10
57.493489
 20
157.582864
 30
0.0
 40
0.497728
 50
270.0
 51
0.0
  0
ARC
  8
0
  5
92570
 10
65.108728
 20
161.315824
 30
0.0
 40
0.497728
 50
0.0
 51
90.0
  0
ARC
  8
0
  5
92571
 10
61.226449
 20
161.664233
 30
0.0
 40
0.149318
 50
90.0
 51
180.0
  0
ARC
  8
0
  5
92572
 10
60.828267
 20
161.06696
 30
0.0
 40
0.248864
 50
270.0
 51
0.0
  0
ARC
  8
0
  5
92573
 10
64.113272
 20
160.818096
 30
0.0
 40
1.493184
 50
270.0
 51
0.0
  0
ARC
  8
0
  5
92574
 10
64.113272
 20
160.818096
 30
0.0
 40
0.746592
 50
270.0
 51
0.0
  0
ARC
  8
0
  5
92575
 10
62.072587
 20
160.320368
 30
0.0
 40
0.248864
 50
180.0
 51
270.0
  0
ARC
  8
0
  5
92576
 10
62.072587
 20
160.818096
 30
0.0
 40
0.248864
 50
90.0
 51
180.0
  0
ARC
  8
0
  5
92577
 10
64.611
 20
160.818096
 30
0.0
 40
0.248864
 50
0.0
 51
90.0
  0
ARC
  8
0
  5
92578
 10
42.412331
 20
157.582864
 30
0.0
 40
0.497728
 50
180.0
 51
270.0
  0
ARC
  8
0
  5
92579
 10
65.606456
 20
156.836272
 30
0.0
 40
0.248864
 50
0.0
 51
90.0
  0
ARC
  8
0
  5
9257A
 10
42.412331
 20
155.840816
 30
0.0
 40
0.497728
 50
90.0
 51
180.0
  0
ARC
  8
0
  5
9257B
 10
59.484401
 20
155.840816
 30
0.0
 40
0.497728
 50
90.0
 51
180.0
  0
ARC
  8
0
  5
9257C
 10
57.742353
 20
155.840816
 30
0.0
 40
0.497728
 50
0.0
 51
90.0
  0
ARC
  8
0
  5
9257D
 10
64.859864
 20
156.836272
 30
0.0
 40
0.248864
 50
90.0
 51
180.0
  0
ARC
  8
0
  5
9257E
 10
64.113272
 20
156.836272
 30
0.0
 40
0.497728
 50
270.0
 51
0.0
  0
ARC
  8
0
  5
9257F
 10
63.715089
 20
190.532457
 30
0.0
 40
0.149318
 50
0.0
 51
90.0
  0
ARC
  8
0
  5
92580
 10
64.013726
 20
190.084502
 30
0.0
 40
0.149318
 50
180.0
 51
270.0
  0
ARC
  8
0
  5
92581
 10
60.828267
 20
187.944272
 30
0.0
 40
0.248864
 50
270.0
 51
0.0
  0
ARC
  8
0
  5
92582
 10
61.574859
 20
187.944272
 30
0.0
 40
0.497728
 50
90.0
 51
180.0
  0
ARC
  8
0
  5
92583
 10
64.611
 20
186.948816
 30
0.0
 40
0.248864
 50
270.0
 51
0.0
  0
ARC
  8
0
  5
92584
 10
62.072587
 20
186.948816
 30
0.0
 40
0.248864
 50
180.0
 51
270.0
  0
ARC
  8
0
  5
92585
 10
62.072587
 20
187.446544
 30
0.0
 40
0.248864
 50
90.0
 51
180.0
  0
ARC
  8
0
  5
92586
 10
64.113272
 20
186.948816
 30
0.0
 40
0.746592
 50
0.0
 51
90.0
  0
ARC
  8
0
  5
92587
 10
64.113272
 20
186.948816
 30
0.0
 40
1.493184
 50
0.0
 51
90.0
  0
ARC
  8
0
  5
92588
 10
60.828267
 20
186.699952
 30
0.0
 40
0.248864
 50
0.0
 51
90.0
  0
ARC
  8
0
  5
92589
 10
61.226449
 20
186.102678
 30
0.0
 40
0.149318
 50
180.0
 51
270.0
  0
ARC
  8
0
  5
9258A
 10
65.108728
 20
186.451088
 30
0.0
 40
0.497728
 50
270.0
 51
0.0
  0
ARC
  8
0
  5
9258B
 10
66.104184
 20
190.432912
 30
0.0
 40
0.497728
 50
270.0
 51
0.0
  0
ARC
  8
0
  5
9258C
 10
59.484401
 20
190.184048
 30
0.0
 40
0.497728
 50
90.0
 51
180.0
  0
ARC
  8
0
  5
9258D
 10
59.484401
 20
188.193136
 30
0.0
 40
0.497728
 50
180.0
 51
270.0
  0
ARC
  8
0
  5
9258E
 10
59.484401
 20
190.184048
 30
0.0
 40
1.493184
 50
90.0
 51
180.0
  0
ARC
  8
0
  5
9258F
 10
58.986673
 20
187.944272
 30
0.0
 40
0.995456
 50
180.0
 51
270.0
  0
ARC
  8
0
  5
92590
 10
65.108728
 20
191.179504
 30
0.0
 40
0.248864
 50
180.0
 51
270.0
  0
ARC
  8
0
  5
92591
 10
65.357592
 20
191.179504
 30
0.0
 40
0.248864
 50
270.0
 51
0.0
  0
ARC
  8
0
  5
92592
 10
64.362136
 20
191.179504
 30
0.0
 40
0.497728
 50
0.0
 51
90.0
  0
ARC
  8
0
  5
92593
 10
63.715089
 20
112.687798
 30
0.0
 40
0.149318
 50
270.0
 51
0.0
  0
ARC
  8
0
  5
92594
 10
64.013726
 20
113.135753
 30
0.0
 40
0.149318
 50
90.0
 51
180.0
  0
ARC
  8
0
  5
92595
 10
60.828267
 20
115.275984
 30
0.0
 40
0.248864
 50
0.0
 51
90.0
  0
ARC
  8
0
  5
92596
 10
61.574859
 20
115.275984
 30
0.0
 40
0.497728
 50
180.0
 51
270.0
  0
ARC
  8
0
  5
92597
 10
64.611
 20
116.27144
 30
0.0
 40
0.248864
 50
0.0
 51
90.0
  0
ARC
  8
0
  5
92598
 10
62.072587
 20
116.27144
 30
0.0
 40
0.248864
 50
90.0
 51
180.0
  0
ARC
  8
0
  5
92599
 10
62.072587
 20
115.773712
 30
0.0
 40
0.248864
 50
180.0
 51
270.0
  0
ARC
  8
0
  5
9259A
 10
64.113272
 20
116.27144
 30
0.0
 40
0.746592
 50
270.0
 51
0.0
  0
ARC
  8
0
  5
9259B
 10
64.113272
 20
116.27144
 30
0.0
 40
1.493184
 50
270.0
 51
0.0
  0
ARC
  8
0
  5
9259C
 10
60.828267
 20
116.520304
 30
0.0
 40
0.248864
 50
270.0
 51
0.0
  0
ARC
  8
0
  5
9259D
 10
61.226449
 20
117.117577
 30
0.0
 40
0.149318
 50
90.0
 51
180.0
  0
ARC
  8
0
  5
9259E
 10
65.108728
 20
116.769168
 30
0.0
 40
0.497728
 50
0.0
 51
90.0
  0
ARC
  8
0
  5
9259F
 10
66.104184
 20
112.787344
 30
0.0
 40
0.497728
 50
0.0
 51
90.0
  0
ARC
  8
0
  5
925A0
 10
59.484401
 20
113.036208
 30
0.0
 40
0.497728
 50
180.0
 51
270.0
  0
ARC
  8
0
  5
925A1
 10
59.484401
 20
115.02712
 30
0.0
 40
0.497728
 50
90.0
 51
180.0
  0
ARC
  8
0
  5
925A2
 10
59.484401
 20
113.036208
 30
0.0
 40
1.493184
 50
180.0
 51
270.0
  0
ARC
  8
0
  5
925A3
 10
58.986673
 20
115.275984
 30
0.0
 40
0.995456
 50
90.0
 51
180.0
  0
ARC
  8
0
  5
925A4
 10
65.108728
 20
112.040752
 30
0.0
 40
0.248864
 50
90.0
 51
180.0
  0
ARC
  8
0
  5
925A5
 10
65.357592
 20
112.040752
 30
0.0
 40
0.248864
 50
0.0
 51
90.0
  0
ARC
  8
0
  5
925A6
 10
64.362136
 20
112.040752
 30
0.0
 40
0.497728
 50
270.0
 51
0.0
  0
ARC
  8
0
  5
925A7
 10
42.362558
 20
133.06976
 30
0.0
 40
0.447955
 50
180.0
 51
270.0
  0
ARC
  8
0
  5
925A8
 10
42.412331
 20
134.811808
 30
0.0
 40
0.497728
 50
180.0
 51
270.0
  0
ARC
  8
0
  5
925A9
 10
42.412331
 20
131.327712
 30
0.0
 40
0.497728
 50
90.0
 51
180.0
  0
ARC
  8
0
  5
925AA
 10
42.362558
 20
133.06976
 30
0.0
 40
0.447955
 50
90.0
 51
180.0
  0
ARC
  8
0
  5
925AB
 10
44.258927
 20
134.259304
 30
0.0
 40
0.74159
 50
270.0
 51
0.0
  0
ARC
  8
0
  5
925AC
 10
44.258927
 20
131.880215
 30
0.0
 40
0.74159
 50
315.0
 51
90.0
  0
ARC
  8
0
  5
925AD
 10
44.258927
 20
134.259304
 30
0.0
 40
0.74159
 50
0.0
 51
45.0
  0
ARC
  8
0
  5
925AE
 10
42.362558
 20
173.883456
 30
0.0
 40
0.447955
 50
180.0
 51
270.0
  0
ARC
  8
0
  5
925AF
 10
42.412331
 20
175.625504
 30
0.0
 40
0.497728
 50
180.0
 51
270.0
  0
ARC
  8
0
  5
925B0
 10
42.412331
 20
172.141408
 30
0.0
 40
0.497728
 50
90.0
 51
180.0
  0
ARC
  8
0
  5
925B1
 10
42.362558
 20
173.883456
 30
0.0
 40
0.447955
 50
90.0
 51
180.0
  0
ARC
  8
0
  5
925B2
 10
44.258927
 20
175.073
 30
0.0
 40
0.74159
 50
270.0
 51
0.0
  0
ARC
  8
0
  5
925B3
 10
44.258927
 20
172.693911
 30
0.0
 40
0.74159
 50
315.0
 51
90.0
  0
ARC
  8
0
  5
925B4
 10
44.258927
 20
175.073
 30
0.0
 40
0.74159
 50
0.0
 51
45.0
  0
ARC
  8
0
  5
925B5
 10
43.557052
 20
193.618371
 30
0.0
 40
0.099546
 50
90.0
 51
238.091249
  0
ARC
  8
0
  5
925B6
 10
42.741494
 20
192.308569
 30
0.0
 40
1.443411
 50
315.0
 51
58.091249
  0
ARC
  8
0
  5
925B7
 10
42.21324
 20
189.316687
 30
0.0
 40
0.298637
 50
135.0
 51
180.0
  0
ARC
  8
0
  5
925B8
 10
43.608793
 20
193.41928
 30
0.0
 40
1.493184
 50
90.0
 51
120.0
  0
ARC
  8
0
  5
925B9
 10
42.21324
 20
189.316687
 30
0.0
 40
1.493184
 50
135.0
 51
180.0
  0
ARC
  8
0
  5
925BA
 10
42.741494
 20
192.308569
 30
0.0
 40
0.248864
 50
315.0
 51
60.0
  0
ARC
  8
0
  5
925BB
 10
42.462104
 20
193.619328
 30
0.0
 40
0.746592
 50
180.0
 51
240.0
  0
ARC
  8
0
  5
925BC
 10
42.462104
 20
193.619328
 30
0.0
 40
0.746592
 50
120.0
 51
180.0
  0
ARC
  8
0
  5
925BD
 10
64.013726
 20
153.003766
 30
0.0
 40
0.149318
 50
180.0
 51
270.0
  0
ARC
  8
0
  5
925BE
 10
63.715089
 20
153.451721
 30
0.0
 40
0.149318
 50
0.0
 51
90.0
  0
ARC
  8
0
  5
925BF
 10
60.828267
 20
150.863536
 30
0.0
 40
0.248864
 50
270.0
 51
0.0
  0
ARC
  8
0
  5
925C0
 10
61.574859
 20
150.863536
 30
0.0
 40
0.497728
 50
90.0
 51
180.0
  0
ARC
  8
0
  5
925C1
 10
66.104184
 20
153.352176
 30
0.0
 40
0.497728
 50
270.0
 51
0.0
  0
ARC
  8
0
  5
925C2
 10
59.484401
 20
151.1124
 30
0.0
 40
0.497728
 50
180.0
 51
270.0
  0
ARC
  8
0
  5
925C3
 10
58.986673
 20
150.863536
 30
0.0
 40
0.995456
 50
180.0
 51
270.0
  0
ARC
  8
0
  5
925C4
 10
59.484401
 20
153.103312
 30
0.0
 40
0.497728
 50
90.0
 51
180.0
  0
ARC
  8
0
  5
925C5
 10
57.493489
 20
153.103312
 30
0.0
 40
0.497728
 50
0.0
 51
90.0
  0
ARC
  8
0
  5
925C6
 10
65.108728
 20
149.370352
 30
0.0
 40
0.497728
 50
270.0
 51
0.0
  0
ARC
  8
0
  5
925C7
 10
61.226449
 20
149.021942
 30
0.0
 40
0.149318
 50
180.0
 51
270.0
  0
ARC
  8
0
  5
925C8
 10
60.828267
 20
149.619216
 30
0.0
 40
0.248864
 50
0.0
 51
90.0
  0
ARC
  8
0
  5
925C9
 10
64.113272
 20
149.86808
 30
0.0
 40
1.493184
 50
0.0
 51
90.0
  0
ARC
  8
0
  5
925CA
 10
64.113272
 20
149.86808
 30
0.0
 40
0.746592
 50
0.0
 51
90.0
  0
ARC
  8
0
  5
925CB
 10
62.072587
 20
150.365808
 30
0.0
 40
0.248864
 50
90.0
 51
180.0
  0
ARC
  8
0
  5
925CC
 10
62.072587
 20
149.86808
 30
0.0
 40
0.248864
 50
180.0
 51
270.0
  0
ARC
  8
0
  5
925CD
 10
64.611
 20
149.86808
 30
0.0
 40
0.248864
 50
270.0
 51
0.0
  0
ARC
  8
0
  5
925CE
 10
42.412331
 20
153.103312
 30
0.0
 40
0.497728
 50
90.0
 51
180.0
  0
ARC
  8
0
  5
925CF
 10
65.606456
 20
153.849904
 30
0.0
 40
0.248864
 50
270.0
 51
0.0
  0
ARC
  8
0
  5
925D0
 10
42.412331
 20
154.84536
 30
0.0
 40
0.497728
 50
180.0
 51
270.0
  0
ARC
  8
0
  5
925D1
 10
59.484401
 20
154.84536
 30
0.0
 40
0.497728
 50
180.0
 51
270.0
  0
ARC
  8
0
  5
925D2
 10
57.742353
 20
154.84536
 30
0.0
 40
0.497728
 50
270.0
 51
0.0
  0
ARC
  8
0
  5
925D3
 10
64.859864
 20
153.849904
 30
0.0
 40
0.248864
 50
180.0
 51
270.0
  0
ARC
  8
0
  5
925D4
 10
64.113272
 20
153.849904
 30
0.0
 40
0.497728
 50
0.0
 51
90.0
  0
LINE
  8
0
  5
92CB1
 10
40.720056
 20
189.867594
 30
0.0
 11
40.720056
 21
192.204439
 31
0.0
  0
LINE
  8
0
  5
92CB3
 10
66.657427
 20
185.037769
 30
0.0
 11
66.657427
 21
188.568283
 31
0.0
  0
LINE
  8
0
  5
92CB4
 10
66.657427
 20
188.568283
 30
0.0
 11
66.657427
 21
188.566799
 31
0.0
  0
LINE
  8
0
  5
92CB5
 10
64.4961
 20
184.939864
 30
0.0
 11
66.657427
 21
185.037769
 31
0.0
  0
LINE
  8
0
  5
92CB6
 10
66.657427
 20
185.037769
 30
0.0
 11
66.657427
 21
185.036285
 31
0.0
  0
LINE
  8
0
  5
92CB7
 10
65.675411
 20
188.568283
 30
0.0
 11
65.675411
 21
186.018302
 31
0.0
  0
LINE
  8
0
  5
92CB8
 10
65.675411
 20
186.018302
 30
0.0
 11
65.675411
 21
186.016819
 31
0.0
  0
LINE
  8
0
  5
92CB9
 10
65.675411
 20
186.018302
 30
0.0
 11
60.958169
 21
185.920397
 31
0.0
  0
LINE
  8
0
  5
92CBA
 10
60.958169
 20
185.920397
 30
0.0
 11
60.958169
 21
185.918914
 31
0.0
  0
LINE
  8
0
  5
92CBB
 10
58.697453
 20
185.822492
 30
0.0
 11
45.429841
 21
185.626682
 31
0.0
  0
LINE
  8
0
  5
92CBC
 10
45.429841
 20
185.626682
 30
0.0
 11
45.429841
 21
185.625199
 31
0.0
  0
LINE
  8
0
  5
92CBD
 10
60.269867
 20
186.705121
 30
0.0
 11
58.697453
 21
185.822492
 31
0.0
  0
LINE
  8
0
  5
92CBE
 10
58.697453
 20
185.822492
 30
0.0
 11
58.697453
 21
185.821009
 31
0.0
  0
LINE
  8
0
  5
92CBF
 10
64.102997
 20
183.859942
 30
0.0
 11
64.102997
 21
184.939864
 31
0.0
  0
LINE
  8
0
  5
92CC0
 10
64.102997
 20
184.939864
 30
0.0
 11
64.102997
 21
184.93838
 31
0.0
  0
LINE
  8
0
  5
92CC1
 10
61.940186
 20
183.368933
 30
0.0
 11
64.102997
 21
183.859942
 31
0.0
  0
LINE
  8
0
  5
92CC2
 10
64.102997
 20
183.859942
 30
0.0
 11
64.102997
 21
183.858458
 31
0.0
  0
LINE
  8
0
  5
92CC3
 10
58.501643
 20
177.680059
 30
0.0
 11
58.501643
 21
182.781503
 31
0.0
  0
LINE
  8
0
  5
92CC4
 10
58.501643
 20
182.781503
 30
0.0
 11
58.501643
 21
182.78002
 31
0.0
  0
LINE
  8
0
  5
92CC5
 10
48.08366
 20
182.977313
 30
0.0
 11
48.08366
 21
183.468322
 31
0.0
  0
LINE
  8
0
  5
92CC6
 10
48.08366
 20
183.468322
 30
0.0
 11
48.08366
 21
183.466838
 31
0.0
  0
LINE
  8
0
  5
92CC7
 10
48.08366
 20
176.99324
 30
0.0
 11
48.08366
 21
177.484249
 31
0.0
  0
LINE
  8
0
  5
92CC8
 10
48.08366
 20
177.484249
 30
0.0
 11
48.08366
 21
177.482765
 31
0.0
  0
LINE
  8
0
  5
92CC9
 10
48.08366
 20
176.99324
 30
0.0
 11
58.992652
 21
177.18905
 31
0.0
  0
LINE
  8
0
  5
92CCA
 10
58.992652
 20
177.18905
 30
0.0
 11
58.992652
 21
177.187567
 31
0.0
  0
LINE
  8
0
  5
92CCB
 10
58.992652
 20
177.18905
 30
0.0
 11
45.429841
 21
176.895335
 31
0.0
  0
LINE
  8
0
  5
92CCC
 10
45.429841
 20
176.895335
 30
0.0
 11
45.429841
 21
176.893852
 31
0.0
  0
LINE
  8
0
  5
92CCD
 10
45.429841
 20
176.895335
 30
0.0
 11
48.08366
 21
176.99324
 31
0.0
  0
LINE
  8
0
  5
92CCE
 10
48.08366
 20
176.99324
 30
0.0
 11
48.08366
 21
176.991757
 31
0.0
  0
LINE
  8
0
  5
92CCF
 10
58.992652
 20
182.58421
 30
0.0
 11
58.992652
 21
177.18905
 31
0.0
  0
LINE
  8
0
  5
92CD0
 10
58.992652
 20
177.18905
 30
0.0
 11
58.992652
 21
177.187567
 31
0.0
  0
LINE
  8
0
  5
92CD1
 10
61.940186
 20
164.534086
 30
0.0
 11
58.992652
 21
164.631991
 31
0.0
  0
LINE
  8
0
  5
92CD2
 10
58.992652
 20
164.631991
 30
0.0
 11
58.992652
 21
164.630507
 31
0.0
  0
LINE
  8
0
  5
92CD3
 10
64.102997
 20
162.964639
 30
0.0
 11
64.594005
 21
162.964639
 31
0.0
  0
LINE
  8
0
  5
92CD4
 10
64.594005
 20
162.964639
 30
0.0
 11
64.594005
 21
162.963155
 31
0.0
  0
LINE
  8
0
  5
92CD5
 10
65.675411
 20
162.866734
 30
0.0
 11
64.102997
 21
162.964639
 31
0.0
  0
LINE
  8
0
  5
92CD6
 10
64.102997
 20
162.964639
 30
0.0
 11
64.102997
 21
162.963155
 31
0.0
  0
LINE
  8
0
  5
92CD7
 10
66.657427
 20
162.866734
 30
0.0
 11
65.675411
 21
162.866734
 31
0.0
  0
LINE
  8
0
  5
92CD8
 10
65.675411
 20
162.866734
 30
0.0
 11
65.675411
 21
162.86525
 31
0.0
  0
LINE
  8
0
  5
92CD9
 10
65.675411
 20
161.8862
 30
0.0
 11
65.675411
 21
159.334736
 31
0.0
  0
LINE
  8
0
  5
92CDA
 10
65.675411
 20
159.334736
 30
0.0
 11
65.675411
 21
159.333253
 31
0.0
  0
LINE
  8
0
  5
92CDB
 10
60.958169
 20
185.920397
 30
0.0
 11
60.958169
 21
186.705121
 31
0.0
  0
LINE
  8
0
  5
92CDC
 10
60.958169
 20
186.705121
 30
0.0
 11
60.958169
 21
186.703637
 31
0.0
  0
LINE
  8
0
  5
92CDD
 10
60.958169
 20
186.705121
 30
0.0
 11
60.269867
 21
186.705121
 31
0.0
  0
LINE
  8
0
  5
92CDE
 10
60.269867
 20
186.705121
 30
0.0
 11
60.269867
 21
186.703637
 31
0.0
  0
LINE
  8
0
  5
92CDF
 10
60.269867
 20
186.705121
 30
0.0
 11
58.697453
 21
185.822492
 31
0.0
  0
LINE
  8
0
  5
92CE0
 10
58.697453
 20
185.822492
 30
0.0
 11
58.697453
 21
185.821009
 31
0.0
  0
LINE
  8
0
  5
92CE1
 10
58.992652
 20
183.271028
 30
0.0
 11
61.940186
 21
183.368933
 31
0.0
  0
LINE
  8
0
  5
92CE2
 10
61.940186
 20
183.368933
 30
0.0
 11
61.940186
 21
183.36745
 31
0.0
  0
LINE
  8
0
  5
92CE3
 10
65.675411
 20
185.822492
 30
0.0
 11
60.958169
 21
185.920397
 31
0.0
  0
LINE
  8
0
  5
92CE4
 10
60.958169
 20
185.920397
 30
0.0
 11
60.958169
 21
185.918914
 31
0.0
  0
LINE
  8
0
  5
92CE5
 10
58.697453
 20
185.822492
 30
0.0
 11
45.429841
 21
185.626682
 31
0.0
  0
LINE
  8
0
  5
92CE6
 10
45.429841
 20
185.626682
 30
0.0
 11
45.429841
 21
185.625199
 31
0.0
  0
LINE
  8
0
  5
92CE7
 10
45.429841
 20
185.626682
 30
0.0
 11
45.429841
 21
183.468322
 31
0.0
  0
LINE
  8
0
  5
92CE8
 10
45.429841
 20
183.468322
 30
0.0
 11
45.429841
 21
183.466838
 31
0.0
  0
LINE
  8
0
  5
92CE9
 10
45.429841
 20
183.468322
 30
0.0
 11
58.992652
 21
183.271028
 31
0.0
  0
LINE
  8
0
  5
92CEA
 10
58.992652
 20
183.271028
 30
0.0
 11
58.992652
 21
183.269545
 31
0.0
  0
LINE
  8
0
  5
92CEB
 10
64.102997
 20
184.939864
 30
0.0
 11
65.675411
 21
185.037769
 31
0.0
  0
LINE
  8
0
  5
92CEC
 10
65.675411
 20
185.037769
 30
0.0
 11
65.675411
 21
185.036285
 31
0.0
  0
LINE
  8
0
  5
92CED
 10
65.675411
 20
185.037769
 30
0.0
 11
65.675411
 21
185.822492
 31
0.0
  0
LINE
  8
0
  5
92CEE
 10
65.675411
 20
185.822492
 30
0.0
 11
65.675411
 21
185.821009
 31
0.0
  0
LINE
  8
0
  5
92CEF
 10
61.940186
 20
183.368933
 30
0.0
 11
64.102997
 21
183.859942
 31
0.0
  0
LINE
  8
0
  5
92CF0
 10
64.102997
 20
183.859942
 30
0.0
 11
64.102997
 21
183.858458
 31
0.0
  0
LINE
  8
0
  5
92CF1
 10
64.102997
 20
183.859942
 30
0.0
 11
64.102997
 21
184.939864
 31
0.0
  0
LINE
  8
0
  5
92CF2
 10
64.102997
 20
184.939864
 30
0.0
 11
64.102997
 21
184.93838
 31
0.0
  0
LINE
  8
0
  5
92CF3
 10
60.958169
 20
161.199382
 30
0.0
 11
60.958169
 21
161.984105
 31
0.0
  0
LINE
  8
0
  5
92CF4
 10
60.958169
 20
161.984105
 30
0.0
 11
60.958169
 21
161.982622
 31
0.0
  0
LINE
  8
0
  5
92CF5
 10
58.697453
 20
162.08201
 30
0.0
 11
60.269867
 21
161.199382
 31
0.0
  0
LINE
  8
0
  5
92CF6
 10
60.269867
 20
161.199382
 30
0.0
 11
60.269867
 21
161.197898
 31
0.0
  0
LINE
  8
0
  5
92CF7
 10
60.269867
 20
161.199382
 30
0.0
 11
60.958169
 21
161.199382
 31
0.0
  0
LINE
  8
0
  5
92CF8
 10
60.958169
 20
161.199382
 30
0.0
 11
60.958169
 21
161.197898
 31
0.0
  0
LINE
  8
0
  5
92CF9
 10
64.102997
 20
162.964639
 30
0.0
 11
64.102997
 21
164.044561
 31
0.0
  0
LINE
  8
0
  5
92CFA
 10
64.102997
 20
164.044561
 30
0.0
 11
64.102997
 21
164.043077
 31
0.0
  0
LINE
  8
0
  5
92CFB
 10
64.102997
 20
164.044561
 30
0.0
 11
61.940186
 21
164.534086
 31
0.0
  0
LINE
  8
0
  5
92CFC
 10
61.940186
 20
164.534086
 30
0.0
 11
61.940186
 21
164.532602
 31
0.0
  0
LINE
  8
0
  5
92CFD
 10
58.992652
 20
164.631991
 30
0.0
 11
45.429841
 21
164.338276
 31
0.0
  0
LINE
  8
0
  5
92CFE
 10
45.429841
 20
164.338276
 30
0.0
 11
45.429841
 21
164.336792
 31
0.0
  0
LINE
  8
0
  5
92CFF
 10
61.940186
 20
164.534086
 30
0.0
 11
58.992652
 21
164.631991
 31
0.0
  0
LINE
  8
0
  5
92D00
 10
58.992652
 20
164.631991
 30
0.0
 11
58.992652
 21
164.630507
 31
0.0
  0
LINE
  8
0
  5
92D01
 10
64.102997
 20
162.964639
 30
0.0
 11
64.102997
 21
164.044561
 31
0.0
  0
LINE
  8
0
  5
92D02
 10
64.102997
 20
164.044561
 30
0.0
 11
64.102997
 21
164.043077
 31
0.0
  0
LINE
  8
0
  5
92D03
 10
64.102997
 20
164.044561
 30
0.0
 11
61.940186
 21
164.534086
 31
0.0
  0
LINE
  8
0
  5
92D04
 10
61.940186
 20
164.534086
 30
0.0
 11
61.940186
 21
164.532602
 31
0.0
  0
LINE
  8
0
  5
92D05
 10
45.429841
 20
164.338276
 30
0.0
 11
45.429841
 21
162.27782
 31
0.0
  0
LINE
  8
0
  5
92D06
 10
45.429841
 20
162.27782
 30
0.0
 11
45.429841
 21
162.276337
 31
0.0
  0
LINE
  8
0
  5
92D07
 10
45.429841
 20
162.27782
 30
0.0
 11
58.697453
 21
162.08201
 31
0.0
  0
LINE
  8
0
  5
92D08
 10
58.697453
 20
162.08201
 30
0.0
 11
58.697453
 21
162.080527
 31
0.0
  0
LINE
  8
0
  5
92D09
 10
60.958169
 20
161.984105
 30
0.0
 11
65.675411
 21
162.08201
 31
0.0
  0
LINE
  8
0
  5
92D0A
 10
65.675411
 20
162.08201
 30
0.0
 11
65.675411
 21
162.080527
 31
0.0
  0
LINE
  8
0
  5
92D0B
 10
65.675411
 20
162.08201
 30
0.0
 11
65.675411
 21
162.866734
 31
0.0
  0
LINE
  8
0
  5
92D0C
 10
65.675411
 20
162.866734
 30
0.0
 11
65.675411
 21
162.86525
 31
0.0
  0
LINE
  8
0
  5
92D0D
 10
65.675411
 20
162.866734
 30
0.0
 11
64.102997
 21
162.964639
 31
0.0
  0
LINE
  8
0
  5
92D0E
 10
64.102997
 20
162.964639
 30
0.0
 11
64.102997
 21
162.963155
 31
0.0
  0
LINE
  8
0
  5
92D0F
 10
58.697453
 20
162.08201
 30
0.0
 11
60.269867
 21
161.199382
 31
0.0
  0
LINE
  8
0
  5
92D10
 10
60.269867
 20
161.199382
 30
0.0
 11
60.269867
 21
161.197898
 31
0.0
  0
LINE
  8
0
  5
92D11
 10
60.269867
 20
161.199382
 30
0.0
 11
60.958169
 21
161.199382
 31
0.0
  0
LINE
  8
0
  5
92D12
 10
60.958169
 20
161.199382
 30
0.0
 11
60.958169
 21
161.197898
 31
0.0
  0
LINE
  8
0
  5
92D13
 10
60.958169
 20
161.199382
 30
0.0
 11
60.958169
 21
161.984105
 31
0.0
  0
LINE
  8
0
  5
92D14
 10
60.958169
 20
161.984105
 30
0.0
 11
60.958169
 21
161.982622
 31
0.0
  0
LINE
  8
0
  5
92D15
 10
65.675411
 20
162.08201
 30
0.0
 11
65.675411
 21
162.866734
 31
0.0
  0
LINE
  8
0
  5
92D16
 10
65.675411
 20
162.866734
 30
0.0
 11
65.675411
 21
162.86525
 31
0.0
  0
LINE
  8
0
  5
92D17
 10
66.657427
 20
162.866734
 30
0.0
 11
65.675411
 21
162.866734
 31
0.0
  0
LINE
  8
0
  5
92D18
 10
65.675411
 20
162.866734
 30
0.0
 11
65.675411
 21
162.86525
 31
0.0
  0
LINE
  8
0
  5
92D19
 10
66.657427
 20
159.334736
 30
0.0
 11
66.657427
 21
162.866734
 31
0.0
  0
LINE
  8
0
  5
92D1A
 10
66.657427
 20
162.866734
 30
0.0
 11
66.657427
 21
162.86525
 31
0.0
  0
LINE
  8
0
  5
92D1B
 10
60.958169
 20
161.984105
 30
0.0
 11
65.675411
 21
161.8862
 31
0.0
  0
LINE
  8
0
  5
92D1C
 10
65.675411
 20
161.8862
 30
0.0
 11
65.675411
 21
161.884717
 31
0.0
  0
LINE
  8
0
  5
92D1D
 10
65.675411
 20
161.8862
 30
0.0
 11
65.675411
 21
159.334736
 31
0.0
  0
LINE
  8
0
  5
92D1E
 10
65.675411
 20
159.334736
 30
0.0
 11
65.675411
 21
159.333253
 31
0.0
  0
LINE
  8
0
  5
92D1F
 10
65.675411
 20
159.334736
 30
0.0
 11
66.657427
 21
159.334736
 31
0.0
  0
LINE
  8
0
  5
92D20
 10
66.657427
 20
159.334736
 30
0.0
 11
66.657427
 21
159.333253
 31
0.0
  0
LINE
  8
0
  5
92D21
 10
66.657427
 20
159.334736
 30
0.0
 11
66.657427
 21
162.866734
 31
0.0
  0
LINE
  8
0
  5
92D22
 10
66.657427
 20
162.866734
 30
0.0
 11
66.657427
 21
162.86525
 31
0.0
  0
LINE
  8
0
  5
92D23
 10
48.08366
 20
164.436181
 30
0.0
 11
58.992652
 21
164.631991
 31
0.0
  0
LINE
  8
0
  5
92D24
 10
58.992652
 20
164.631991
 30
0.0
 11
58.992652
 21
164.630507
 31
0.0
  0
LINE
  8
0
  5
92D25
 10
58.992652
 20
164.631991
 30
0.0
 11
45.429841
 21
164.338276
 31
0.0
  0
LINE
  8
0
  5
92D26
 10
45.429841
 20
164.338276
 30
0.0
 11
45.429841
 21
164.336792
 31
0.0
  0
LINE
  8
0
  5
92D27
 10
45.429841
 20
164.338276
 30
0.0
 11
48.08366
 21
164.436181
 31
0.0
  0
LINE
  8
0
  5
92D28
 10
48.08366
 20
164.436181
 30
0.0
 11
48.08366
 21
164.434697
 31
0.0
  0
LINE
  8
0
  5
92D29
 10
65.675411
 20
185.037769
 30
0.0
 11
65.675411
 21
185.822492
 31
0.0
  0
LINE
  8
0
  5
92D2A
 10
65.675411
 20
185.822492
 30
0.0
 11
65.675411
 21
185.821009
 31
0.0
  0
LINE
  8
0
  5
92D2B
 10
65.675411
 20
159.334736
 30
0.0
 11
66.657427
 21
159.334736
 31
0.0
  0
LINE
  8
0
  5
92D2C
 10
66.657427
 20
159.334736
 30
0.0
 11
66.657427
 21
159.333253
 31
0.0
  0
LINE
  8
0
  5
92D2D
 10
65.675411
 20
185.822492
 30
0.0
 11
60.958169
 21
185.920397
 31
0.0
  0
LINE
  8
0
  5
92D2E
 10
60.958169
 20
185.920397
 30
0.0
 11
60.958169
 21
185.918914
 31
0.0
  0
LINE
  8
0
  5
92D2F
 10
60.958169
 20
185.920397
 30
0.0
 11
60.958169
 21
186.705121
 31
0.0
  0
LINE
  8
0
  5
92D30
 10
60.958169
 20
186.705121
 30
0.0
 11
60.958169
 21
186.703637
 31
0.0
  0
LINE
  8
0
  5
92D31
 10
45.429841
 20
162.27782
 30
0.0
 11
58.697453
 21
162.08201
 31
0.0
  0
LINE
  8
0
  5
92D32
 10
58.697453
 20
162.08201
 30
0.0
 11
58.697453
 21
162.080527
 31
0.0
  0
LINE
  8
0
  5
92D33
 10
65.675411
 20
161.8862
 30
0.0
 11
60.958169
 21
161.984105
 31
0.0
  0
LINE
  8
0
  5
92D34
 10
60.958169
 20
161.984105
 30
0.0
 11
60.958169
 21
161.982622
 31
0.0
  0
LINE
  8
0
  5
92D35
 10
58.795358
 20
162.08201
 30
0.0
 11
58.599548
 21
162.08201
 31
0.0
  0
LINE
  8
0
  5
92D36
 10
58.599548
 20
162.08201
 30
0.0
 11
58.599548
 21
162.080527
 31
0.0
  0
LINE
  8
0
  5
92D37
 10
60.958169
 20
161.984105
 30
0.0
 11
65.675411
 21
161.8862
 31
0.0
  0
LINE
  8
0
  5
92D38
 10
65.675411
 20
161.8862
 30
0.0
 11
65.675411
 21
161.884717
 31
0.0
  0
LINE
  8
0
  5
92D39
 10
58.599548
 20
162.08201
 30
0.0
 11
58.795358
 21
162.08201
 31
0.0
  0
LINE
  8
0
  5
92D3A
 10
58.795358
 20
162.08201
 30
0.0
 11
58.795358
 21
162.080527
 31
0.0
  0
LINE
  8
0
  5
92D3B
 10
60.958169
 20
161.984105
 30
0.0
 11
65.675411
 21
161.8862
 31
0.0
  0
LINE
  8
0
  5
92D3C
 10
65.675411
 20
161.8862
 30
0.0
 11
65.675411
 21
161.884717
 31
0.0
  0
LINE
  8
0
  5
92D3D
 10
64.594005
 20
162.964639
 30
0.0
 11
64.102997
 21
162.964639
 31
0.0
  0
LINE
  8
0
  5
92D3E
 10
64.102997
 20
162.964639
 30
0.0
 11
64.102997
 21
162.963155
 31
0.0
  0
LINE
  8
0
  5
92D3F
 10
58.992652
 20
183.271028
 30
0.0
 11
61.940186
 21
183.368933
 31
0.0
  0
LINE
  8
0
  5
92D40
 10
61.940186
 20
183.368933
 30
0.0
 11
61.940186
 21
183.36745
 31
0.0
  0
LINE
  8
0
  5
92D41
 10
66.657427
 20
188.568283
 30
0.0
 11
65.675411
 21
188.568283
 31
0.0
  0
LINE
  8
0
  5
92D42
 10
65.675411
 20
188.568283
 30
0.0
 11
65.675411
 21
188.566799
 31
0.0
  0
LINE
  8
0
  5
92D43
 10
65.675411
 20
188.568283
 30
0.0
 11
65.675411
 21
186.018302
 31
0.0
  0
LINE
  8
0
  5
92D44
 10
65.675411
 20
186.018302
 30
0.0
 11
65.675411
 21
186.016819
 31
0.0
  0
LINE
  8
0
  5
92D45
 10
66.657427
 20
185.037769
 30
0.0
 11
66.657427
 21
188.568283
 31
0.0
  0
LINE
  8
0
  5
92D46
 10
66.657427
 20
188.568283
 30
0.0
 11
66.657427
 21
188.566799
 31
0.0
  0
LINE
  8
0
  5
92D47
 10
65.675411
 20
186.018302
 30
0.0
 11
60.958169
 21
185.920397
 31
0.0
  0
LINE
  8
0
  5
92D48
 10
60.958169
 20
185.920397
 30
0.0
 11
60.958169
 21
185.918914
 31
0.0
  0
LINE
  8
0
  5
92D49
 10
65.675411
 20
185.037769
 30
0.0
 11
66.657427
 21
185.037769
 31
0.0
  0
LINE
  8
0
  5
92D4A
 10
66.657427
 20
185.037769
 30
0.0
 11
66.657427
 21
185.036285
 31
0.0
  0
LINE
  8
0
  5
92D4B
 10
45.429841
 20
185.626682
 30
0.0
 11
45.429841
 21
183.468322
 31
0.0
  0
LINE
  8
0
  5
92D4C
 10
45.429841
 20
183.468322
 30
0.0
 11
45.429841
 21
183.466838
 31
0.0
  0
LINE
  8
0
  5
92D4D
 10
45.429841
 20
183.468322
 30
0.0
 11
45.429841
 21
176.895335
 31
0.0
  0
LINE
  8
0
  5
92D4E
 10
45.429841
 20
176.895335
 30
0.0
 11
45.429841
 21
176.893852
 31
0.0
  0
LINE
  8
0
  5
92D4F
 10
45.429841
 20
176.895335
 30
0.0
 11
45.429841
 21
171.009167
 31
0.0
  0
LINE
  8
0
  5
92D50
 10
45.429841
 20
171.009167
 30
0.0
 11
45.429841
 21
171.007684
 31
0.0
  0
LINE
  8
0
  5
92D51
 10
45.429841
 20
171.009167
 30
0.0
 11
45.429841
 21
164.338276
 31
0.0
  0
LINE
  8
0
  5
92D52
 10
45.429841
 20
164.338276
 30
0.0
 11
45.429841
 21
164.336792
 31
0.0
  0
LINE
  8
0
  5
92D53
 10
45.429841
 20
164.338276
 30
0.0
 11
45.429841
 21
162.27782
 31
0.0
  0
LINE
  8
0
  5
92D54
 10
45.429841
 20
162.27782
 30
0.0
 11
45.429841
 21
162.276337
 31
0.0
  0
LINE
  8
0
  5
92D55
 10
60.958169
 20
186.705121
 30
0.0
 11
60.269867
 21
186.705121
 31
0.0
  0
LINE
  8
0
  5
92D56
 10
60.269867
 20
186.705121
 30
0.0
 11
60.269867
 21
186.703637
 31
0.0
  0
LINE
  8
0
  5
92D57
 10
66.657427
 20
188.568283
 30
0.0
 11
65.675411
 21
188.568283
 31
0.0
  0
LINE
  8
0
  5
92D58
 10
65.675411
 20
188.568283
 30
0.0
 11
65.675411
 21
188.566799
 31
0.0
  0
LINE
  8
0
  5
92D59
 10
58.992652
 20
164.631991
 30
0.0
 11
48.08366
 21
164.436181
 31
0.0
  0
LINE
  8
0
  5
92D5A
 10
48.08366
 20
164.436181
 30
0.0
 11
48.08366
 21
164.434697
 31
0.0
  0
LINE
  8
0
  5
92D5B
 10
48.08366
 20
170.911262
 30
0.0
 11
45.429841
 21
171.009167
 31
0.0
  0
LINE
  8
0
  5
92D5C
 10
45.429841
 20
171.009167
 30
0.0
 11
45.429841
 21
171.007684
 31
0.0
  0
LINE
  8
0
  5
92D5D
 10
45.429841
 20
171.009167
 30
0.0
 11
58.992652
 21
170.715452
 31
0.0
  0
LINE
  8
0
  5
92D5E
 10
58.992652
 20
170.715452
 30
0.0
 11
58.992652
 21
170.713969
 31
0.0
  0
LINE
  8
0
  5
92D5F
 10
58.992652
 20
170.715452
 30
0.0
 11
48.08366
 21
170.911262
 31
0.0
  0
LINE
  8
0
  5
92D60
 10
48.08366
 20
170.911262
 30
0.0
 11
48.08366
 21
170.909779
 31
0.0
  0
LINE
  8
0
  5
92D61
 10
58.992652
 20
165.318809
 30
0.0
 11
61.940186
 21
165.416714
 31
0.0
  0
LINE
  8
0
  5
92D62
 10
61.940186
 20
165.416714
 30
0.0
 11
61.940186
 21
165.415231
 31
0.0
  0
LINE
  8
0
  5
92D63
 10
64.102997
 20
166.005628
 30
0.0
 11
64.102997
 21
181.898875
 31
0.0
  0
LINE
  8
0
  5
92D64
 10
64.102997
 20
181.898875
 30
0.0
 11
64.102997
 21
181.897391
 31
0.0
  0
LINE
  8
0
  5
92D65
 10
64.102997
 20
181.898875
 30
0.0
 11
61.940186
 21
182.486305
 31
0.0
  0
LINE
  8
0
  5
92D66
 10
61.940186
 20
182.486305
 30
0.0
 11
61.940186
 21
182.484821
 31
0.0
  0
LINE
  8
0
  5
92D67
 10
61.940186
 20
182.486305
 30
0.0
 11
58.992652
 21
182.58421
 31
0.0
  0
LINE
  8
0
  5
92D68
 10
58.992652
 20
182.58421
 30
0.0
 11
58.992652
 21
182.582726
 31
0.0
  0
LINE
  8
0
  5
92D69
 10
61.940186
 20
182.486305
 30
0.0
 11
58.992652
 21
182.58421
 31
0.0
  0
LINE
  8
0
  5
92D6A
 10
58.992652
 20
182.58421
 30
0.0
 11
58.992652
 21
182.582726
 31
0.0
  0
LINE
  8
0
  5
92D6B
 10
58.992652
 20
182.58421
 30
0.0
 11
58.992652
 21
177.18905
 31
0.0
  0
LINE
  8
0
  5
92D6C
 10
58.992652
 20
177.18905
 30
0.0
 11
58.992652
 21
177.187567
 31
0.0
  0
LINE
  8
0
  5
92D6D
 10
64.102997
 20
181.898875
 30
0.0
 11
61.940186
 21
182.486305
 31
0.0
  0
LINE
  8
0
  5
92D6E
 10
61.940186
 20
182.486305
 30
0.0
 11
61.940186
 21
182.484821
 31
0.0
  0
LINE
  8
0
  5
92D6F
 10
64.102997
 20
166.005628
 30
0.0
 11
64.102997
 21
181.898875
 31
0.0
  0
LINE
  8
0
  5
92D70
 10
64.102997
 20
181.898875
 30
0.0
 11
64.102997
 21
181.897391
 31
0.0
  0
LINE
  8
0
  5
92D71
 10
58.992652
 20
177.18905
 30
0.0
 11
45.429841
 21
176.895335
 31
0.0
  0
LINE
  8
0
  5
92D72
 10
45.429841
 20
176.895335
 30
0.0
 11
45.429841
 21
176.893852
 31
0.0
  0
LINE
  8
0
  5
92D73
 10
45.429841
 20
176.895335
 30
0.0
 11
45.429841
 21
171.009167
 31
0.0
  0
LINE
  8
0
  5
92D74
 10
45.429841
 20
171.009167
 30
0.0
 11
45.429841
 21
171.007684
 31
0.0
  0
LINE
  8
0
  5
92D75
 10
45.429841
 20
171.009167
 30
0.0
 11
58.992652
 21
170.715452
 31
0.0
  0
LINE
  8
0
  5
92D76
 10
58.992652
 20
170.715452
 30
0.0
 11
58.992652
 21
170.713969
 31
0.0
  0
LINE
  8
0
  5
92D77
 10
58.992652
 20
170.715452
 30
0.0
 11
58.992652
 21
165.318809
 31
0.0
  0
LINE
  8
0
  5
92D78
 10
58.992652
 20
165.318809
 30
0.0
 11
58.992652
 21
165.317326
 31
0.0
  0
LINE
  8
0
  5
92D79
 10
58.992652
 20
165.318809
 30
0.0
 11
61.940186
 21
165.416714
 31
0.0
  0
LINE
  8
0
  5
92D7A
 10
61.940186
 20
165.416714
 30
0.0
 11
61.940186
 21
165.415231
 31
0.0
  0
LINE
  8
0
  5
92D7B
 10
61.940186
 20
165.416714
 30
0.0
 11
64.102997
 21
166.005628
 31
0.0
  0
LINE
  8
0
  5
92D7C
 10
64.102997
 20
166.005628
 30
0.0
 11
64.102997
 21
166.004144
 31
0.0
  0
LINE
  8
0
  5
92D7D
 10
61.940186
 20
165.416714
 30
0.0
 11
64.102997
 21
166.005628
 31
0.0
  0
LINE
  8
0
  5
92D7E
 10
64.102997
 20
166.005628
 30
0.0
 11
64.102997
 21
166.004144
 31
0.0
  0
LINE
  8
0
  5
92D7F
 10
58.992652
 20
170.715452
 30
0.0
 11
58.992652
 21
165.318809
 31
0.0
  0
LINE
  8
0
  5
92D80
 10
58.992652
 20
165.318809
 30
0.0
 11
58.992652
 21
165.317326
 31
0.0
  0
LINE
  8
0
  5
92D81
 10
48.08366
 20
164.927189
 30
0.0
 11
58.501643
 21
165.122999
 31
0.0
  0
LINE
  8
0
  5
92D82
 10
58.501643
 20
165.122999
 30
0.0
 11
58.501643
 21
165.121516
 31
0.0
  0
LINE
  8
0
  5
92D83
 10
48.08366
 20
170.420254
 30
0.0
 11
48.08366
 21
170.911262
 31
0.0
  0
LINE
  8
0
  5
92D84
 10
48.08366
 20
170.911262
 30
0.0
 11
48.08366
 21
170.909779
 31
0.0
  0
LINE
  8
0
  5
92D85
 10
48.08366
 20
164.436181
 30
0.0
 11
48.08366
 21
164.927189
 31
0.0
  0
LINE
  8
0
  5
92D86
 10
48.08366
 20
164.927189
 30
0.0
 11
48.08366
 21
164.925706
 31
0.0
  0
LINE
  8
0
  5
92D87
 10
58.501643
 20
170.224444
 30
0.0
 11
48.08366
 21
170.420254
 31
0.0
  0
LINE
  8
0
  5
92D88
 10
48.08366
 20
170.420254
 30
0.0
 11
48.08366
 21
170.41877
 31
0.0
  0
LINE
  8
0
  5
92D89
 10
48.08366
 20
170.420254
 30
0.0
 11
48.08366
 21
170.911262
 31
0.0
  0
LINE
  8
0
  5
92D8A
 10
48.08366
 20
170.911262
 30
0.0
 11
48.08366
 21
170.909779
 31
0.0
  0
LINE
  8
0
  5
92D8B
 10
48.08366
 20
170.911262
 30
0.0
 11
45.429841
 21
171.009167
 31
0.0
  0
LINE
  8
0
  5
92D8C
 10
45.429841
 20
171.009167
 30
0.0
 11
45.429841
 21
171.007684
 31
0.0
  0
LINE
  8
0
  5
92D8D
 10
45.429841
 20
171.009167
 30
0.0
 11
45.429841
 21
164.338276
 31
0.0
  0
LINE
  8
0
  5
92D8E
 10
45.429841
 20
164.338276
 30
0.0
 11
45.429841
 21
164.336792
 31
0.0
  0
LINE
  8
0
  5
92D8F
 10
58.501643
 20
170.224444
 30
0.0
 11
48.08366
 21
170.420254
 31
0.0
  0
LINE
  8
0
  5
92D90
 10
48.08366
 20
170.420254
 30
0.0
 11
48.08366
 21
170.41877
 31
0.0
  0
LINE
  8
0
  5
92D91
 10
48.08366
 20
164.927189
 30
0.0
 11
58.501643
 21
165.122999
 31
0.0
  0
LINE
  8
0
  5
92D92
 10
58.501643
 20
165.122999
 30
0.0
 11
58.501643
 21
165.121516
 31
0.0
  0
LINE
  8
0
  5
92D93
 10
58.501643
 20
165.122999
 30
0.0
 11
58.501643
 21
170.224444
 31
0.0
  0
LINE
  8
0
  5
92D94
 10
58.501643
 20
170.224444
 30
0.0
 11
58.501643
 21
170.22296
 31
0.0
  0
LINE
  8
0
  5
92D95
 10
45.429841
 20
164.338276
 30
0.0
 11
48.08366
 21
164.436181
 31
0.0
  0
LINE
  8
0
  5
92D96
 10
48.08366
 20
164.436181
 30
0.0
 11
48.08366
 21
164.434697
 31
0.0
  0
LINE
  8
0
  5
92D97
 10
48.08366
 20
164.436181
 30
0.0
 11
48.08366
 21
164.927189
 31
0.0
  0
LINE
  8
0
  5
92D98
 10
48.08366
 20
164.927189
 30
0.0
 11
48.08366
 21
164.925706
 31
0.0
  0
LINE
  8
0
  5
92D99
 10
58.501643
 20
165.122999
 30
0.0
 11
58.501643
 21
170.224444
 31
0.0
  0
LINE
  8
0
  5
92D9A
 10
58.501643
 20
170.224444
 30
0.0
 11
58.501643
 21
170.22296
 31
0.0
  0
LINE
  8
0
  5
92D9B
 10
58.992652
 20
177.18905
 30
0.0
 11
48.08366
 21
176.99324
 31
0.0
  0
LINE
  8
0
  5
92D9C
 10
48.08366
 20
176.99324
 30
0.0
 11
48.08366
 21
176.991757
 31
0.0
  0
LINE
  8
0
  5
92D9D
 10
48.08366
 20
170.911262
 30
0.0
 11
58.992652
 21
170.715452
 31
0.0
  0
LINE
  8
0
  5
92D9E
 10
58.992652
 20
170.715452
 30
0.0
 11
58.992652
 21
170.713969
 31
0.0
  0
LINE
  8
0
  5
92D9F
 10
48.08366
 20
177.484249
 30
0.0
 11
58.501643
 21
177.680059
 31
0.0
  0
LINE
  8
0
  5
92DA0
 10
58.501643
 20
177.680059
 30
0.0
 11
58.501643
 21
177.678575
 31
0.0
  0
LINE
  8
0
  5
92DA1
 10
58.501643
 20
182.781503
 30
0.0
 11
48.08366
 21
182.977313
 31
0.0
  0
LINE
  8
0
  5
92DA2
 10
48.08366
 20
182.977313
 30
0.0
 11
48.08366
 21
182.97583
 31
0.0
  0
LINE
  8
0
  5
92DA3
 10
48.08366
 20
182.977313
 30
0.0
 11
48.08366
 21
183.468322
 31
0.0
  0
LINE
  8
0
  5
92DA4
 10
48.08366
 20
183.468322
 30
0.0
 11
48.08366
 21
183.466838
 31
0.0
  0
LINE
  8
0
  5
92DA5
 10
48.08366
 20
183.468322
 30
0.0
 11
45.429841
 21
183.468322
 31
0.0
  0
LINE
  8
0
  5
92DA6
 10
45.429841
 20
183.468322
 30
0.0
 11
45.429841
 21
183.466838
 31
0.0
  0
LINE
  8
0
  5
92DA7
 10
45.429841
 20
183.468322
 30
0.0
 11
45.429841
 21
176.895335
 31
0.0
  0
LINE
  8
0
  5
92DA8
 10
45.429841
 20
176.895335
 30
0.0
 11
45.429841
 21
176.893852
 31
0.0
  0
LINE
  8
0
  5
92DA9
 10
58.501643
 20
177.680059
 30
0.0
 11
58.501643
 21
182.781503
 31
0.0
  0
LINE
  8
0
  5
92DAA
 10
58.501643
 20
182.781503
 30
0.0
 11
58.501643
 21
182.78002
 31
0.0
  0
LINE
  8
0
  5
92DAB
 10
58.501643
 20
182.781503
 30
0.0
 11
48.08366
 21
182.977313
 31
0.0
  0
LINE
  8
0
  5
92DAC
 10
48.08366
 20
182.977313
 30
0.0
 11
48.08366
 21
182.97583
 31
0.0
  0
LINE
  8
0
  5
92DAD
 10
48.08366
 20
177.484249
 30
0.0
 11
58.501643
 21
177.680059
 31
0.0
  0
LINE
  8
0
  5
92DAE
 10
58.501643
 20
177.680059
 30
0.0
 11
58.501643
 21
177.678575
 31
0.0
  0
LINE
  8
0
  5
92DAF
 10
48.08366
 20
176.99324
 30
0.0
 11
48.08366
 21
177.484249
 31
0.0
  0
LINE
  8
0
  5
92DB0
 10
48.08366
 20
177.484249
 30
0.0
 11
48.08366
 21
177.482765
 31
0.0
  0
LINE
  8
0
  5
92DB1
 10
45.429841
 20
176.895335
 30
0.0
 11
48.08366
 21
176.99324
 31
0.0
  0
LINE
  8
0
  5
92DB2
 10
48.08366
 20
176.99324
 30
0.0
 11
48.08366
 21
176.991757
 31
0.0
  0
LINE
  8
0
  5
92DB3
 10
48.08366
 20
183.468322
 30
0.0
 11
45.429841
 21
183.468322
 31
0.0
  0
LINE
  8
0
  5
92DB4
 10
45.429841
 20
183.468322
 30
0.0
 11
45.429841
 21
183.466838
 31
0.0
  0
LINE
  8
0
  5
92DB5
 10
45.429841
 20
183.468322
 30
0.0
 11
58.992652
 21
183.271028
 31
0.0
  0
LINE
  8
0
  5
92DB6
 10
58.992652
 20
183.271028
 30
0.0
 11
58.992652
 21
183.269545
 31
0.0
  0
LINE
  8
0
  5
92DB7
 10
58.992652
 20
183.271028
 30
0.0
 11
48.08366
 21
183.468322
 31
0.0
  0
LINE
  8
0
  5
92DB8
 10
48.08366
 20
183.468322
 30
0.0
 11
48.08366
 21
183.466838
 31
0.0
  0
LINE
  8
0
  5
92DBA
 10
58.992652
 20
183.271028
 30
0.0
 11
58.992652
 21
183.269545
 31
0.0
  0
LINE
  8
0
  5
92DBB
 10
65.675411
 20
185.037769
 30
0.0
 11
66.657427
 21
185.037769
 31
0.0
  0
LINE
  8
0
  5
92DBC
 10
66.657427
 20
185.037769
 30
0.0
 11
66.657427
 21
185.036285
 31
0.0
  0
LINE
  8
0
  5
92DBE
 10
64.4961
 20
184.939864
 30
0.0
 11
64.4961
 21
184.93838
 31
0.0
  0
LINE
  8
0
  5
92DBF
 10
64.102997
 20
184.939864
 30
0.0
 11
65.675411
 21
185.037769
 31
0.0
  0
LINE
  8
0
  5
92DC0
 10
65.675411
 20
185.037769
 30
0.0
 11
65.675411
 21
185.036285
 31
0.0
  0
LINE
  8
0
  5
92DC1
 10
60.958169
 20
161.984105
 30
0.0
 11
65.675411
 21
162.08201
 31
0.0
  0
LINE
  8
0
  5
92DC2
 10
65.675411
 20
162.08201
 30
0.0
 11
65.675411
 21
162.080527
 31
0.0
  0
LINE
  8
0
  5
92DC3
 10
65.615524
 20
114.928108
 30
0.0
 11
64.082008
 21
114.818926
 31
0.0
  0
LINE
  8
0
  5
92DC4
 10
64.082008
 20
114.818926
 30
0.0
 11
64.082008
 21
114.817272
 31
0.0
  0
LINE
  8
0
  5
92DC5
 10
64.082008
 20
114.818926
 30
0.0
 11
63.20524
 21
114.382196
 31
0.0
  0
LINE
  8
0
  5
92DC6
 10
63.20524
 20
114.382196
 30
0.0
 11
63.20524
 21
114.380542
 31
0.0
  0
LINE
  8
0
  5
92DC7
 10
64.082008
 20
114.818926
 30
0.0
 11
63.20524
 21
114.382196
 31
0.0
  0
LINE
  8
0
  5
92DC8
 10
63.20524
 20
114.382196
 30
0.0
 11
63.20524
 21
114.380542
 31
0.0
  0
LINE
  8
0
  5
92DC9
 10
65.615524
 20
114.928108
 30
0.0
 11
64.082008
 21
114.818926
 31
0.0
  0
LINE
  8
0
  5
92DCA
 10
64.082008
 20
114.818926
 30
0.0
 11
64.082008
 21
114.817272
 31
0.0
  0
LINE
  8
0
  5
92DCB
 10
65.615524
 20
114.382196
 30
0.0
 11
63.20524
 21
114.382196
 31
0.0
  0
LINE
  8
0
  5
92DCC
 10
63.20524
 20
114.382196
 30
0.0
 11
63.20524
 21
114.380542
 31
0.0
  0
LINE
  8
0
  5
92DCD
 10
65.615524
 20
117.335083
 30
0.0
 11
65.615524
 21
114.382196
 31
0.0
  0
LINE
  8
0
  5
92DCE
 10
65.615524
 20
114.382196
 30
0.0
 11
65.615524
 21
114.380542
 31
0.0
  0
LINE
  8
0
  5
92DCF
 10
66.164745
 20
113.396246
 30
0.0
 11
66.164745
 21
117.335083
 31
0.0
  0
LINE
  8
0
  5
92DD0
 10
66.164745
 20
117.335083
 30
0.0
 11
66.164745
 21
117.333429
 31
0.0
  0
LINE
  8
0
  5
92DD1
 10
65.615524
 20
114.382196
 30
0.0
 11
63.20524
 21
114.382196
 31
0.0
  0
LINE
  8
0
  5
92DD2
 10
63.20524
 20
114.382196
 30
0.0
 11
63.20524
 21
114.380542
 31
0.0
  0
LINE
  8
0
  5
92DD3
 10
63.20524
 20
114.382196
 30
0.0
 11
63.20524
 21
113.396246
 31
0.0
  0
LINE
  8
0
  5
92DD4
 10
63.20524
 20
113.396246
 30
0.0
 11
63.20524
 21
113.394592
 31
0.0
  0
LINE
  8
0
  5
92DD5
 10
63.20524
 20
113.396246
 30
0.0
 11
66.164745
 21
113.396246
 31
0.0
  0
LINE
  8
0
  5
92DD6
 10
66.164745
 20
113.396246
 30
0.0
 11
66.164745
 21
113.394592
 31
0.0
  0
LINE
  8
0
  5
92DD7
 10
61.013322
 20
116.569152
 30
0.0
 11
61.013322
 21
117.335083
 31
0.0
  0
LINE
  8
0
  5
92DD8
 10
61.013322
 20
117.335083
 30
0.0
 11
61.013322
 21
117.333429
 31
0.0
  0
LINE
  8
0
  5
92DD9
 10
58.71222
 20
117.444266
 30
0.0
 11
60.245736
 21
116.569152
 31
0.0
  0
LINE
  8
0
  5
92DDA
 10
60.245736
 20
116.569152
 30
0.0
 11
60.245736
 21
116.567498
 31
0.0
  0
LINE
  8
0
  5
92DDB
 10
61.013322
 20
117.335083
 30
0.0
 11
63.861989
 21
117.335083
 31
0.0
  0
LINE
  8
0
  5
92DDC
 10
63.861989
 20
117.335083
 30
0.0
 11
63.861989
 21
117.333429
 31
0.0
  0
LINE
  8
0
  5
92DDD
 10
58.71222
 20
117.444266
 30
0.0
 11
60.245736
 21
116.569152
 31
0.0
  0
LINE
  8
0
  5
92DDE
 10
60.245736
 20
116.569152
 30
0.0
 11
60.245736
 21
116.567498
 31
0.0
  0
LINE
  8
0
  5
92DDF
 10
60.245736
 20
116.569152
 30
0.0
 11
61.013322
 21
116.569152
 31
0.0
  0
LINE
  8
0
  5
92DE0
 10
61.013322
 20
116.569152
 30
0.0
 11
61.013322
 21
116.567498
 31
0.0
  0
LINE
  8
0
  5
92DE1
 10
61.013322
 20
116.569152
 30
0.0
 11
61.013322
 21
117.335083
 31
0.0
  0
LINE
  8
0
  5
92DE2
 10
61.013322
 20
117.335083
 30
0.0
 11
61.013322
 21
117.333429
 31
0.0
  0
LINE
  8
0
  5
92DE3
 10
60.245736
 20
116.569152
 30
0.0
 11
61.013322
 21
116.569152
 31
0.0
  0
LINE
  8
0
  5
92DE4
 10
61.013322
 20
116.569152
 30
0.0
 11
61.013322
 21
116.567498
 31
0.0
  0
LINE
  8
0
  5
92DE5
 10
64.629574
 20
140.20052
 30
0.0
 11
65.615524
 21
140.20052
 31
0.0
  0
LINE
  8
0
  5
92DE6
 10
65.615524
 20
140.20052
 30
0.0
 11
65.615524
 21
140.198865
 31
0.0
  0
LINE
  8
0
  5
92DE7
 10
65.615524
 20
140.20052
 30
0.0
 11
65.615524
 21
140.528067
 31
0.0
  0
LINE
  8
0
  5
92DE8
 10
65.615524
 20
140.528067
 30
0.0
 11
65.615524
 21
140.526412
 31
0.0
  0
LINE
  8
0
  5
92DE9
 10
58.930585
 20
140.418884
 30
0.0
 11
58.930585
 21
139.434589
 31
0.0
  0
LINE
  8
0
  5
92DEA
 10
58.930585
 20
139.434589
 30
0.0
 11
58.930585
 21
139.432934
 31
0.0
  0
LINE
  8
0
  5
92DEB
 10
58.930585
 20
139.434589
 30
0.0
 11
64.629574
 21
139.434589
 31
0.0
  0
LINE
  8
0
  5
92DEC
 10
64.629574
 20
139.434589
 30
0.0
 11
64.629574
 21
139.432934
 31
0.0
  0
LINE
  8
0
  5
92DED
 10
65.615524
 20
147.858174
 30
0.0
 11
66.603128
 21
147.858174
 31
0.0
  0
LINE
  8
0
  5
92DEE
 10
66.603128
 20
147.858174
 30
0.0
 11
66.603128
 21
147.85652
 31
0.0
  0
LINE
  8
0
  5
92DEF
 10
66.603128
 20
147.858174
 30
0.0
 11
66.603128
 21
148.84247
 31
0.0
  0
LINE
  8
0
  5
92DF0
 10
66.603128
 20
148.84247
 30
0.0
 11
66.603128
 21
148.840816
 31
0.0
  0
LINE
  8
0
  5
92DF1
 10
66.603128
 20
148.84247
 30
0.0
 11
64.629574
 21
148.84247
 31
0.0
  0
LINE
  8
0
  5
92DF2
 10
64.629574
 20
148.84247
 30
0.0
 11
64.629574
 21
148.840816
 31
0.0
  0
LINE
  8
0
  5
92DF3
 10
64.629574
 20
148.84247
 30
0.0
 11
64.629574
 21
143.810155
 31
0.0
  0
LINE
  8
0
  5
92DF4
 10
64.629574
 20
143.810155
 30
0.0
 11
64.629574
 21
143.808501
 31
0.0
  0
LINE
  8
0
  5
92DF5
 10
64.629574
 20
143.810155
 30
0.0
 11
65.615524
 21
143.810155
 31
0.0
  0
LINE
  8
0
  5
92DF6
 10
65.615524
 20
143.810155
 30
0.0
 11
65.615524
 21
143.808501
 31
0.0
  0
LINE
  8
0
  5
92DF7
 10
65.615524
 20
143.810155
 30
0.0
 11
65.615524
 21
147.858174
 31
0.0
  0
LINE
  8
0
  5
92DF8
 10
65.615524
 20
147.858174
 30
0.0
 11
65.615524
 21
147.85652
 31
0.0
  0
LINE
  8
0
  5
92DF9
 10
64.629574
 20
143.810155
 30
0.0
 11
64.629574
 21
143.482608
 31
0.0
  0
LINE
  8
0
  5
92DFA
 10
64.629574
 20
143.482608
 30
0.0
 11
64.629574
 21
143.480954
 31
0.0
  0
LINE
  8
0
  5
92DFB
 10
65.615524
 20
143.482608
 30
0.0
 11
65.615524
 21
143.810155
 31
0.0
  0
LINE
  8
0
  5
92DFC
 10
65.615524
 20
143.810155
 30
0.0
 11
65.615524
 21
143.808501
 31
0.0
  0
LINE
  8
0
  5
92DFD
 10
64.629574
 20
143.482608
 30
0.0
 11
65.615524
 21
143.482608
 31
0.0
  0
LINE
  8
0
  5
92DFE
 10
65.615524
 20
143.482608
 30
0.0
 11
65.615524
 21
143.480954
 31
0.0
  0
LINE
  8
0
  5
92DFF
 10
65.615524
 20
147.858174
 30
0.0
 11
66.603128
 21
147.858174
 31
0.0
  0
LINE
  8
0
  5
92E00
 10
66.603128
 20
147.858174
 30
0.0
 11
66.603128
 21
147.85652
 31
0.0
  0
LINE
  8
0
  5
92E01
 10
66.603128
 20
133.52716
 30
0.0
 11
66.603128
 21
147.858174
 31
0.0
  0
LINE
  8
0
  5
92E02
 10
66.603128
 20
147.858174
 30
0.0
 11
66.603128
 21
147.85652
 31
0.0
  0
LINE
  8
0
  5
92E03
 10
65.615524
 20
143.810155
 30
0.0
 11
65.615524
 21
147.858174
 31
0.0
  0
LINE
  8
0
  5
92E04
 10
65.615524
 20
147.858174
 30
0.0
 11
65.615524
 21
147.85652
 31
0.0
  0
LINE
  8
0
  5
92E05
 10
65.615524
 20
143.482608
 30
0.0
 11
65.615524
 21
143.810155
 31
0.0
  0
LINE
  8
0
  5
92E06
 10
65.615524
 20
143.810155
 30
0.0
 11
65.615524
 21
143.808501
 31
0.0
  0
LINE
  8
0
  5
92E07
 10
65.615524
 20
141.621545
 30
0.0
 11
65.615524
 21
143.482608
 31
0.0
  0
LINE
  8
0
  5
92E08
 10
65.615524
 20
143.482608
 30
0.0
 11
65.615524
 21
143.480954
 31
0.0
  0
LINE
  8
0
  5
92E09
 10
65.615524
 20
140.528067
 30
0.0
 11
65.615524
 21
141.621545
 31
0.0
  0
LINE
  8
0
  5
92E0A
 10
65.615524
 20
141.621545
 30
0.0
 11
65.615524
 21
141.61989
 31
0.0
  0
LINE
  8
0
  5
92E0B
 10
65.615524
 20
140.20052
 30
0.0
 11
65.615524
 21
140.528067
 31
0.0
  0
LINE
  8
0
  5
92E0C
 10
65.615524
 20
140.528067
 30
0.0
 11
65.615524
 21
140.526412
 31
0.0
  0
LINE
  8
0
  5
92E0D
 10
66.603128
 20
133.52716
 30
0.0
 11
65.615524
 21
133.52716
 31
0.0
  0
LINE
  8
0
  5
92E0E
 10
65.615524
 20
133.52716
 30
0.0
 11
65.615524
 21
140.20052
 31
0.0
  0
LINE
  8
0
  5
92E0F
 10
65.615524
 20
140.20052
 30
0.0
 11
65.615524
 21
140.198865
 31
0.0
  0
LINE
  8
0
  5
92E10
 10
65.615524
 20
132.54121
 30
0.0
 11
66.603128
 21
132.54121
 31
0.0
  0
LINE
  8
0
  5
92E11
 10
66.603128
 20
132.54121
 30
0.0
 11
66.603128
 21
132.539556
 31
0.0
  0
LINE
  8
0
  5
92E12
 10
58.930585
 20
126.742965
 30
0.0
 11
58.930585
 21
125.758669
 31
0.0
  0
LINE
  8
0
  5
92E13
 10
58.930585
 20
125.758669
 30
0.0
 11
58.930585
 21
125.757015
 31
0.0
  0
LINE
  8
0
  5
92E14
 10
58.930585
 20
125.758669
 30
0.0
 11
65.615524
 21
125.649487
 31
0.0
  0
LINE
  8
0
  5
92E15
 10
65.615524
 20
125.649487
 30
0.0
 11
65.615524
 21
125.647832
 31
0.0
  0
LINE
  8
0
  5
92E16
 10
65.615524
 20
125.649487
 30
0.0
 11
65.615524
 21
125.978688
 31
0.0
  0
LINE
  8
0
  5
92E17
 10
65.615524
 20
125.978688
 30
0.0
 11
65.615524
 21
125.977034
 31
0.0
  0
LINE
  8
0
  5
92E18
 10
66.603128
 20
152.781307
 30
0.0
 11
64.629574
 21
152.781307
 31
0.0
  0
LINE
  8
0
  5
92E19
 10
64.629574
 20
152.781307
 30
0.0
 11
64.629574
 21
152.779653
 31
0.0
  0
LINE
  8
0
  5
92E1A
 10
63.20524
 20
151.797011
 30
0.0
 11
64.082008
 21
151.249445
 31
0.0
  0
LINE
  8
0
  5
92E1B
 10
64.082008
 20
151.249445
 30
0.0
 11
64.082008
 21
151.247791
 31
0.0
  0
LINE
  8
0
  5
92E1C
 10
64.082008
 20
151.249445
 30
0.0
 11
65.615524
 21
151.249445
 31
0.0
  0
LINE
  8
0
  5
92E1D
 10
65.615524
 20
151.249445
 30
0.0
 11
65.615524
 21
151.247791
 31
0.0
  0
LINE
  8
0
  5
92E1E
 10
64.082008
 20
151.249445
 30
0.0
 11
65.615524
 21
151.249445
 31
0.0
  0
LINE
  8
0
  5
92E1F
 10
65.615524
 20
151.249445
 30
0.0
 11
65.615524
 21
151.247791
 31
0.0
  0
LINE
  8
0
  5
92E20
 10
63.20524
 20
151.797011
 30
0.0
 11
64.082008
 21
151.249445
 31
0.0
  0
LINE
  8
0
  5
92E21
 10
64.082008
 20
151.249445
 30
0.0
 11
64.082008
 21
151.247791
 31
0.0
  0
LINE
  8
0
  5
92E22
 10
61.013322
 20
149.608401
 30
0.0
 11
60.245736
 21
149.608401
 31
0.0
  0
LINE
  8
0
  5
92E23
 10
60.245736
 20
149.608401
 30
0.0
 11
60.245736
 21
149.606747
 31
0.0
  0
LINE
  8
0
  5
92E24
 10
63.752807
 20
148.84247
 30
0.0
 11
61.013322
 21
148.84247
 31
0.0
  0
LINE
  8
0
  5
92E25
 10
61.013322
 20
148.84247
 30
0.0
 11
61.013322
 21
148.840816
 31
0.0
  0
LINE
  8
0
  5
92E26
 10
61.013322
 20
148.84247
 30
0.0
 11
61.013322
 21
149.608401
 31
0.0
  0
LINE
  8
0
  5
92E27
 10
61.013322
 20
149.608401
 30
0.0
 11
61.013322
 21
149.606747
 31
0.0
  0
LINE
  8
0
  5
92E28
 10
61.013322
 20
149.608401
 30
0.0
 11
60.245736
 21
149.608401
 31
0.0
  0
LINE
  8
0
  5
92E29
 10
60.245736
 20
149.608401
 30
0.0
 11
60.245736
 21
149.606747
 31
0.0
  0
LINE
  8
0
  5
92E2A
 10
60.245736
 20
149.608401
 30
0.0
 11
58.71222
 21
148.733288
 31
0.0
  0
LINE
  8
0
  5
92E2B
 10
58.71222
 20
148.733288
 30
0.0
 11
58.71222
 21
148.731633
 31
0.0
  0
LINE
  8
0
  5
92E2C
 10
63.752807
 20
148.84247
 30
0.0
 11
61.013322
 21
148.84247
 31
0.0
  0
LINE
  8
0
  5
92E2D
 10
61.013322
 20
148.84247
 30
0.0
 11
61.013322
 21
148.840816
 31
0.0
  0
LINE
  8
0
  5
92E2E
 10
60.245736
 20
149.608401
 30
0.0
 11
58.71222
 21
148.733288
 31
0.0
  0
LINE
  8
0
  5
92E2F
 10
58.71222
 20
148.733288
 30
0.0
 11
58.71222
 21
148.731633
 31
0.0
  0
LINE
  8
0
  5
92E30
 10
61.013322
 20
148.84247
 30
0.0
 11
61.013322
 21
149.608401
 31
0.0
  0
LINE
  8
0
  5
92E31
 10
61.013322
 20
149.608401
 30
0.0
 11
61.013322
 21
149.606747
 31
0.0
  0
LINE
  8
0
  5
92E32
 10
64.629574
 20
148.84247
 30
0.0
 11
64.629574
 21
143.810155
 31
0.0
  0
LINE
  8
0
  5
92E33
 10
64.629574
 20
143.810155
 30
0.0
 11
64.629574
 21
143.808501
 31
0.0
  0
LINE
  8
0
  5
92E34
 10
64.629574
 20
143.810155
 30
0.0
 11
64.629574
 21
143.482608
 31
0.0
  0
LINE
  8
0
  5
92E35
 10
64.629574
 20
143.482608
 30
0.0
 11
64.629574
 21
143.480954
 31
0.0
  0
LINE
  8
0
  5
92E36
 10
64.629574
 20
143.482608
 30
0.0
 11
64.629574
 21
141.621545
 31
0.0
  0
LINE
  8
0
  5
92E37
 10
64.629574
 20
141.621545
 30
0.0
 11
64.629574
 21
141.61989
 31
0.0
  0
LINE
  8
0
  5
92E38
 10
58.492201
 20
137.136796
 30
0.0
 11
58.492201
 21
142.387476
 31
0.0
  0
LINE
  8
0
  5
92E39
 10
58.492201
 20
142.387476
 30
0.0
 11
58.492201
 21
142.385821
 31
0.0
  0
LINE
  8
0
  5
92E3A
 10
45.340688
 20
143.044224
 30
0.0
 11
58.930585
 21
142.825859
 31
0.0
  0
LINE
  8
0
  5
92E3B
 10
58.930585
 20
142.825859
 30
0.0
 11
58.930585
 21
142.824205
 31
0.0
  0
LINE
  8
0
  5
92E3C
 10
58.492201
 20
142.387476
 30
0.0
 11
48.080173
 21
142.496658
 31
0.0
  0
LINE
  8
0
  5
92E3D
 10
48.080173
 20
142.496658
 30
0.0
 11
48.080173
 21
142.495004
 31
0.0
  0
LINE
  8
0
  5
92E3E
 10
48.080173
 20
142.496658
 30
0.0
 11
48.080173
 21
143.044224
 31
0.0
  0
LINE
  8
0
  5
92E3F
 10
48.080173
 20
143.044224
 30
0.0
 11
48.080173
 21
143.04257
 31
0.0
  0
LINE
  8
0
  5
92E40
 10
48.080173
 20
136.480047
 30
0.0
 11
48.080173
 21
136.918431
 31
0.0
  0
LINE
  8
0
  5
92E41
 10
48.080173
 20
136.918431
 30
0.0
 11
48.080173
 21
136.916777
 31
0.0
  0
LINE
  8
0
  5
92E42
 10
64.629574
 20
122.6966
 30
0.0
 11
64.629574
 21
122.367398
 31
0.0
  0
LINE
  8
0
  5
92E43
 10
64.629574
 20
122.367398
 30
0.0
 11
64.629574
 21
122.365744
 31
0.0
  0
LINE
  8
0
  5
92E44
 10
64.629574
 20
122.367398
 30
0.0
 11
65.615524
 21
122.367398
 31
0.0
  0
LINE
  8
0
  5
92E45
 10
65.615524
 20
122.367398
 30
0.0
 11
65.615524
 21
122.365744
 31
0.0
  0
LINE
  8
0
  5
92E46
 10
65.615524
 20
122.367398
 30
0.0
 11
65.615524
 21
122.6966
 31
0.0
  0
LINE
  8
0
  5
92E47
 10
65.615524
 20
122.6966
 30
0.0
 11
65.615524
 21
122.694945
 31
0.0
  0
LINE
  8
0
  5
92E48
 10
65.615524
 20
118.319379
 30
0.0
 11
65.615524
 21
122.367398
 31
0.0
  0
LINE
  8
0
  5
92E49
 10
65.615524
 20
122.367398
 30
0.0
 11
65.615524
 21
122.365744
 31
0.0
  0
LINE
  8
0
  5
92E4A
 10
64.629574
 20
122.367398
 30
0.0
 11
64.629574
 21
117.335083
 31
0.0
  0
LINE
  8
0
  5
92E4B
 10
64.629574
 20
117.335083
 30
0.0
 11
64.629574
 21
117.333429
 31
0.0
  0
LINE
  8
0
  5
92E4C
 10
66.603128
 20
117.335083
 30
0.0
 11
66.603128
 21
118.319379
 31
0.0
  0
LINE
  8
0
  5
92E4D
 10
66.603128
 20
118.319379
 30
0.0
 11
66.603128
 21
118.317725
 31
0.0
  0
LINE
  8
0
  5
92E4E
 10
66.603128
 20
118.319379
 30
0.0
 11
65.615524
 21
118.319379
 31
0.0
  0
LINE
  8
0
  5
92E4F
 10
65.615524
 20
118.319379
 30
0.0
 11
65.615524
 21
118.317725
 31
0.0
  0
LINE
  8
0
  5
92E50
 10
64.629574
 20
117.335083
 30
0.0
 11
66.603128
 21
117.335083
 31
0.0
  0
LINE
  8
0
  5
92E51
 10
66.603128
 20
117.335083
 30
0.0
 11
66.603128
 21
117.333429
 31
0.0
  0
LINE
  8
0
  5
92E52
 10
63.20524
 20
113.396246
 30
0.0
 11
66.164745
 21
113.396246
 31
0.0
  0
LINE
  8
0
  5
92E53
 10
66.164745
 20
113.396246
 30
0.0
 11
66.603128
 21
113.396246
 31
0.0
  0
LINE
  8
0
  5
92E54
 10
66.603128
 20
113.396246
 30
0.0
 11
66.603128
 21
113.394592
 31
0.0
  0
LINE
  8
0
  5
92E55
 10
66.164745
 20
113.396246
 30
0.0
 11
66.603128
 21
113.396246
 31
0.0
  0
LINE
  8
0
  5
92E56
 10
66.603128
 20
113.396246
 30
0.0
 11
66.603128
 21
113.394592
 31
0.0
  0
LINE
  8
0
  5
92E57
 10
66.603128
 20
113.396246
 30
0.0
 11
66.603128
 21
117.335083
 31
0.0
  0
LINE
  8
0
  5
92E58
 10
66.603128
 20
117.335083
 30
0.0
 11
66.603128
 21
117.333429
 31
0.0
  0
LINE
  8
0
  5
92E59
 10
63.20524
 20
114.382196
 30
0.0
 11
63.20524
 21
113.396246
 31
0.0
  0
LINE
  8
0
  5
92E5A
 10
63.20524
 20
113.396246
 30
0.0
 11
63.20524
 21
113.394592
 31
0.0
  0
LINE
  8
0
  5
92E5B
 10
58.492201
 20
129.040757
 30
0.0
 11
48.080173
 21
129.259122
 31
0.0
  0
LINE
  8
0
  5
92E5C
 10
48.080173
 20
129.259122
 30
0.0
 11
48.080173
 21
129.257468
 31
0.0
  0
LINE
  8
0
  5
92E5D
 10
64.629574
 20
124.556009
 30
0.0
 11
64.629574
 21
122.6966
 31
0.0
  0
LINE
  8
0
  5
92E5E
 10
64.629574
 20
122.6966
 30
0.0
 11
64.629574
 21
122.694945
 31
0.0
  0
LINE
  8
0
  5
92E5F
 10
64.629574
 20
122.6966
 30
0.0
 11
65.615524
 21
122.6966
 31
0.0
  0
LINE
  8
0
  5
92E60
 10
65.615524
 20
122.6966
 30
0.0
 11
65.615524
 21
122.694945
 31
0.0
  0
LINE
  8
0
  5
92E61
 10
65.615524
 20
122.6966
 30
0.0
 11
65.615524
 21
124.556009
 31
0.0
  0
LINE
  8
0
  5
92E62
 10
65.615524
 20
124.556009
 30
0.0
 11
65.615524
 21
124.554354
 31
0.0
  0
LINE
  8
0
  5
92E63
 10
64.629574
 20
124.556009
 30
0.0
 11
64.629574
 21
122.6966
 31
0.0
  0
LINE
  8
0
  5
92E64
 10
64.629574
 20
122.6966
 30
0.0
 11
64.629574
 21
122.694945
 31
0.0
  0
LINE
  8
0
  5
92E65
 10
64.629574
 20
122.6966
 30
0.0
 11
64.629574
 21
122.367398
 31
0.0
  0
LINE
  8
0
  5
92E66
 10
64.629574
 20
122.367398
 30
0.0
 11
64.629574
 21
122.365744
 31
0.0
  0
LINE
  8
0
  5
92E67
 10
64.629574
 20
122.367398
 30
0.0
 11
64.629574
 21
117.335083
 31
0.0
  0
LINE
  8
0
  5
92E68
 10
64.629574
 20
117.335083
 30
0.0
 11
64.629574
 21
117.333429
 31
0.0
  0
LINE
  8
0
  5
92E69
 10
66.603128
 20
118.319379
 30
0.0
 11
66.603128
 21
132.54121
 31
0.0
  0
LINE
  8
0
  5
92E6A
 10
66.603128
 20
132.54121
 30
0.0
 11
66.603128
 21
132.539556
 31
0.0
  0
LINE
  8
0
  5
92E6B
 10
58.273836
 20
133.745525
 30
0.0
 11
58.273836
 21
132.432028
 31
0.0
  0
LINE
  8
0
  5
92E6C
 10
58.273836
 20
132.432028
 30
0.0
 11
58.273836
 21
132.430374
 31
0.0
  0
LINE
  8
0
  5
92E6D
 10
58.273836
 20
132.432028
 30
0.0
 11
45.340688
 21
132.213663
 31
0.0
  0
LINE
  8
0
  5
92E6E
 10
45.340688
 20
132.213663
 30
0.0
 11
45.340688
 21
132.212009
 31
0.0
  0
LINE
  8
0
  5
92E6F
 10
45.340688
 20
148.514923
 30
0.0
 11
45.340688
 21
143.044224
 31
0.0
  0
LINE
  8
0
  5
92E70
 10
45.340688
 20
143.044224
 30
0.0
 11
45.340688
 21
143.04257
 31
0.0
  0
LINE
  8
0
  5
92E71
 10
45.340688
 20
143.044224
 30
0.0
 11
45.340688
 21
136.370865
 31
0.0
  0
LINE
  8
0
  5
92E72
 10
45.340688
 20
136.370865
 30
0.0
 11
45.340688
 21
136.369211
 31
0.0
  0
LINE
  8
0
  5
92E73
 10
45.340688
 20
136.370865
 30
0.0
 11
45.340688
 21
133.96389
 31
0.0
  0
LINE
  8
0
  5
92E74
 10
45.340688
 20
133.96389
 30
0.0
 11
45.340688
 21
133.962236
 31
0.0
  0
LINE
  8
0
  5
92E75
 10
45.340688
 20
133.96389
 30
0.0
 11
45.340688
 21
133.745525
 31
0.0
  0
LINE
  8
0
  5
92E76
 10
45.340688
 20
133.745525
 30
0.0
 11
45.340688
 21
133.743871
 31
0.0
  0
LINE
  8
0
  5
92E77
 10
45.340688
 20
133.745525
 30
0.0
 11
45.340688
 21
133.088777
 31
0.0
  0
LINE
  8
0
  5
92E78
 10
45.340688
 20
133.088777
 30
0.0
 11
45.340688
 21
133.087122
 31
0.0
  0
LINE
  8
0
  5
92E79
 10
45.340688
 20
133.088777
 30
0.0
 11
45.340688
 21
132.432028
 31
0.0
  0
LINE
  8
0
  5
92E7A
 10
45.340688
 20
132.432028
 30
0.0
 11
45.340688
 21
132.430374
 31
0.0
  0
LINE
  8
0
  5
92E7B
 10
45.340688
 20
132.432028
 30
0.0
 11
45.340688
 21
132.213663
 31
0.0
  0
LINE
  8
0
  5
92E7C
 10
45.340688
 20
132.213663
 30
0.0
 11
45.340688
 21
132.212009
 31
0.0
  0
LINE
  8
0
  5
92E7D
 10
45.340688
 20
132.213663
 30
0.0
 11
45.340688
 21
129.806688
 31
0.0
  0
LINE
  8
0
  5
92E7E
 10
45.340688
 20
129.806688
 30
0.0
 11
45.340688
 21
129.805034
 31
0.0
  0
LINE
  8
0
  5
92E7F
 10
45.340688
 20
129.806688
 30
0.0
 11
45.340688
 21
123.133329
 31
0.0
  0
LINE
  8
0
  5
92E80
 10
45.340688
 20
123.133329
 30
0.0
 11
45.340688
 21
123.131675
 31
0.0
  0
LINE
  8
0
  5
92E81
 10
45.340688
 20
123.133329
 30
0.0
 11
45.340688
 21
117.664285
 31
0.0
  0
LINE
  8
0
  5
92E82
 10
45.340688
 20
117.664285
 30
0.0
 11
45.340688
 21
117.66263
 31
0.0
  0
LINE
  8
0
  5
92E83
 10
45.340688
 20
133.96389
 30
0.0
 11
45.340688
 21
133.745525
 31
0.0
  0
LINE
  8
0
  5
92E84
 10
45.340688
 20
133.745525
 30
0.0
 11
45.340688
 21
133.743871
 31
0.0
  0
LINE
  8
0
  5
92E86
 10
58.273836
 20
133.745525
 30
0.0
 11
58.273836
 21
133.743871
 31
0.0
  0
LINE
  8
0
  5
92E89
 10
58.273836
 20
133.52716
 30
0.0
 11
58.273836
 21
133.525506
 31
0.0
  0
LINE
  8
0
  5
92E8A
 10
45.340688
 20
133.745525
 30
0.0
 11
45.340688
 21
133.088777
 31
0.0
  0
LINE
  8
0
  5
92E8B
 10
45.340688
 20
133.088777
 30
0.0
 11
45.340688
 21
133.087122
 31
0.0
  0
LINE
  8
0
  5
92E8C
 10
45.340688
 20
133.088777
 30
0.0
 11
58.273836
 21
133.088777
 31
0.0
  0
LINE
  8
0
  5
92E8D
 10
58.273836
 20
133.088777
 30
0.0
 11
58.273836
 21
133.087122
 31
0.0
  0
LINE
  8
0
  5
92E8F
 10
45.340688
 20
132.432028
 30
0.0
 11
45.340688
 21
132.430374
 31
0.0
  0
LINE
  8
0
  5
92E91
 10
58.273836
 20
132.652047
 30
0.0
 11
58.273836
 21
132.650393
 31
0.0
  0
LINE
  8
0
  5
92E92
 10
45.340688
 20
133.088777
 30
0.0
 11
45.340688
 21
132.432028
 31
0.0
  0
LINE
  8
0
  5
92E93
 10
45.340688
 20
132.432028
 30
0.0
 11
45.340688
 21
132.430374
 31
0.0
  0
LINE
  8
0
  5
92E95
 10
58.273836
 20
132.432028
 30
0.0
 11
58.273836
 21
132.430374
 31
0.0
  0
LINE
  8
0
  5
92E96
 10
45.340688
 20
132.432028
 30
0.0
 11
45.340688
 21
132.213663
 31
0.0
  0
LINE
  8
0
  5
92E97
 10
45.340688
 20
132.213663
 30
0.0
 11
45.340688
 21
132.212009
 31
0.0
  0
LINE
  8
0
  5
92E98
 10
58.492201
 20
123.790078
 30
0.0
 11
58.492201
 21
129.040757
 31
0.0
  0
LINE
  8
0
  5
92E99
 10
58.492201
 20
129.040757
 30
0.0
 11
58.492201
 21
129.039103
 31
0.0
  0
LINE
  8
0
  5
92E9A
 10
45.340688
 20
133.96389
 30
0.0
 11
58.273836
 21
133.745525
 31
0.0
  0
LINE
  8
0
  5
92E9B
 10
58.273836
 20
133.745525
 30
0.0
 11
58.273836
 21
133.743871
 31
0.0
  0
LINE
  8
0
  5
92E9C
 10
58.273836
 20
148.733288
 30
0.0
 11
45.340688
 21
148.514923
 31
0.0
  0
LINE
  8
0
  5
92E9D
 10
45.340688
 20
148.514923
 30
0.0
 11
45.340688
 21
148.513269
 31
0.0
  0
LINE
  8
0
  5
92E9E
 10
65.615524
 20
125.978688
 30
0.0
 11
65.615524
 21
132.54121
 31
0.0
  0
LINE
  8
0
  5
92E9F
 10
65.615524
 20
132.54121
 30
0.0
 11
65.615524
 21
132.539556
 31
0.0
  0
LINE
  8
0
  5
92EA0
 10
65.615524
 20
125.649487
 30
0.0
 11
65.615524
 21
125.978688
 31
0.0
  0
LINE
  8
0
  5
92EA1
 10
65.615524
 20
125.978688
 30
0.0
 11
65.615524
 21
125.977034
 31
0.0
  0
LINE
  8
0
  5
92EA2
 10
65.615524
 20
124.556009
 30
0.0
 11
65.615524
 21
125.649487
 31
0.0
  0
LINE
  8
0
  5
92EA3
 10
65.615524
 20
125.649487
 30
0.0
 11
65.615524
 21
125.647832
 31
0.0
  0
LINE
  8
0
  5
92EA4
 10
65.615524
 20
122.367398
 30
0.0
 11
65.615524
 21
122.6966
 31
0.0
  0
LINE
  8
0
  5
92EA5
 10
65.615524
 20
122.6966
 30
0.0
 11
65.615524
 21
124.556009
 31
0.0
  0
LINE
  8
0
  5
92EA6
 10
65.615524
 20
124.556009
 30
0.0
 11
65.615524
 21
124.554354
 31
0.0
  0
LINE
  8
0
  5
92EA7
 10
65.615524
 20
118.319379
 30
0.0
 11
65.615524
 21
122.367398
 31
0.0
  0
LINE
  8
0
  5
92EA8
 10
65.615524
 20
122.367398
 30
0.0
 11
65.615524
 21
122.365744
 31
0.0
  0
LINE
  8
0
  5
92EA9
 10
58.930585
 20
139.434589
 30
0.0
 11
58.930585
 21
136.698412
 31
0.0
  0
LINE
  8
0
  5
92EAA
 10
58.930585
 20
136.698412
 30
0.0
 11
58.930585
 21
136.696758
 31
0.0
  0
LINE
  8
0
  5
92EAB
 10
58.273836
 20
133.745525
 30
0.0
 11
58.273836
 21
132.432028
 31
0.0
  0
LINE
  8
0
  5
92EAC
 10
58.273836
 20
132.432028
 30
0.0
 11
58.273836
 21
132.430374
 31
0.0
  0
LINE
  8
0
  5
92EAD
 10
58.930585
 20
136.698412
 30
0.0
 11
45.340688
 21
136.370865
 31
0.0
  0
LINE
  8
0
  5
92EAE
 10
45.340688
 20
136.370865
 30
0.0
 11
45.340688
 21
136.369211
 31
0.0
  0
LINE
  8
0
  5
92EAF
 10
45.340688
 20
136.370865
 30
0.0
 11
45.340688
 21
133.96389
 31
0.0
  0
LINE
  8
0
  5
92EB0
 10
45.340688
 20
133.96389
 30
0.0
 11
45.340688
 21
133.962236
 31
0.0
  0
LINE
  8
0
  5
92EB1
 10
45.340688
 20
133.96389
 30
0.0
 11
58.273836
 21
133.745525
 31
0.0
  0
LINE
  8
0
  5
92EB2
 10
58.273836
 20
133.745525
 30
0.0
 11
58.273836
 21
133.743871
 31
0.0
  0
LINE
  8
0
  5
92EB3
 10
58.273836
 20
132.432028
 30
0.0
 11
45.340688
 21
132.213663
 31
0.0
  0
LINE
  8
0
  5
92EB4
 10
45.340688
 20
132.213663
 30
0.0
 11
45.340688
 21
132.212009
 31
0.0
  0
LINE
  8
0
  5
92EB5
 10
45.340688
 20
132.213663
 30
0.0
 11
45.340688
 21
129.806688
 31
0.0
  0
LINE
  8
0
  5
92EB6
 10
45.340688
 20
129.806688
 30
0.0
 11
45.340688
 21
129.805034
 31
0.0
  0
LINE
  8
0
  5
92EB7
 10
45.340688
 20
129.806688
 30
0.0
 11
58.930585
 21
129.479141
 31
0.0
  0
LINE
  8
0
  5
92EB8
 10
58.930585
 20
129.479141
 30
0.0
 11
58.930585
 21
129.477487
 31
0.0
  0
LINE
  8
0
  5
92EB9
 10
58.930585
 20
129.479141
 30
0.0
 11
58.930585
 21
126.742965
 31
0.0
  0
LINE
  8
0
  5
92EBA
 10
58.930585
 20
126.742965
 30
0.0
 11
58.930585
 21
126.74131
 31
0.0
  0
LINE
  8
0
  5
92EBB
 10
58.930585
 20
126.742965
 30
0.0
 11
64.629574
 21
126.742965
 31
0.0
  0
LINE
  8
0
  5
92EBC
 10
64.629574
 20
126.742965
 30
0.0
 11
64.629574
 21
126.74131
 31
0.0
  0
LINE
  8
0
  5
92EBD
 10
48.080173
 20
129.697506
 30
0.0
 11
45.340688
 21
129.806688
 31
0.0
  0
LINE
  8
0
  5
92EBE
 10
45.340688
 20
129.806688
 30
0.0
 11
45.340688
 21
129.805034
 31
0.0
  0
LINE
  8
0
  5
92EBF
 10
45.340688
 20
129.806688
 30
0.0
 11
58.930585
 21
129.479141
 31
0.0
  0
LINE
  8
0
  5
92EC0
 10
58.930585
 20
129.479141
 30
0.0
 11
58.930585
 21
129.477487
 31
0.0
  0
LINE
  8
0
  5
92EC1
 10
58.930585
 20
129.479141
 30
0.0
 11
48.080173
 21
129.697506
 31
0.0
  0
LINE
  8
0
  5
92EC2
 10
48.080173
 20
129.697506
 30
0.0
 11
48.080173
 21
129.695852
 31
0.0
  0
LINE
  8
0
  5
92EC3
 10
65.615524
 20
117.335083
 30
0.0
 11
65.615524
 21
114.382196
 31
0.0
  0
LINE
  8
0
  5
92EC4
 10
65.615524
 20
114.382196
 30
0.0
 11
65.615524
 21
114.380542
 31
0.0
  0
LINE
  8
0
  5
92EC5
 10
66.603128
 20
148.84247
 30
0.0
 11
66.603128
 21
152.781307
 31
0.0
  0
LINE
  8
0
  5
92EC6
 10
66.603128
 20
152.781307
 30
0.0
 11
66.603128
 21
152.779653
 31
0.0
  0
LINE
  8
0
  5
92EC7
 10
66.603128
 20
147.858174
 30
0.0
 11
66.603128
 21
148.84247
 31
0.0
  0
LINE
  8
0
  5
92EC8
 10
66.603128
 20
148.84247
 30
0.0
 11
66.603128
 21
148.840816
 31
0.0
  0
LINE
  8
0
  5
92EC9
 10
66.603128
 20
133.52716
 30
0.0
 11
66.603128
 21
147.858174
 31
0.0
  0
LINE
  8
0
  5
92ECA
 10
66.603128
 20
147.858174
 30
0.0
 11
66.603128
 21
147.85652
 31
0.0
  0
LINE
  8
0
  5
92ECB
 10
66.603128
 20
132.54121
 30
0.0
 11
66.603128
 21
133.52716
 31
0.0
  0
LINE
  8
0
  5
92ECC
 10
66.603128
 20
133.52716
 30
0.0
 11
66.603128
 21
133.525506
 31
0.0
  0
LINE
  8
0
  5
92ECE
 10
66.603128
 20
132.54121
 30
0.0
 11
66.603128
 21
132.539556
 31
0.0
  0
LINE
  8
0
  5
92ED0
 10
66.603128
 20
118.319379
 30
0.0
 11
66.603128
 21
118.317725
 31
0.0
  0
LINE
  8
0
  5
92ED2
 10
66.603128
 20
117.335083
 30
0.0
 11
66.603128
 21
117.333429
 31
0.0
  0
LINE
  8
0
  5
92ED3
 10
55.094313
 20
117.553448
 30
0.0
 11
61.231686
 21
117.444266
 31
0.0
  0
LINE
  8
0
  5
92ED4
 10
61.231686
 20
117.444266
 30
0.0
 11
61.231686
 21
117.442611
 31
0.0
  0
LINE
  8
0
  5
92ED5
 10
48.080173
 20
129.697506
 30
0.0
 11
58.930585
 21
129.479141
 31
0.0
  0
LINE
  8
0
  5
92ED6
 10
58.930585
 20
129.479141
 30
0.0
 11
58.930585
 21
129.477487
 31
0.0
  0
LINE
  8
0
  5
92ED7
 10
58.930585
 20
123.351694
 30
0.0
 11
45.340688
 21
123.133329
 31
0.0
  0
LINE
  8
0
  5
92ED8
 10
45.340688
 20
123.133329
 30
0.0
 11
45.340688
 21
123.131675
 31
0.0
  0
LINE
  8
0
  5
92ED9
 10
58.930585
 20
129.479141
 30
0.0
 11
58.930585
 21
126.742965
 31
0.0
  0
LINE
  8
0
  5
92EDA
 10
58.930585
 20
126.742965
 30
0.0
 11
58.930585
 21
126.74131
 31
0.0
  0
LINE
  8
0
  5
92EDB
 10
58.930585
 20
126.742965
 30
0.0
 11
58.930585
 21
125.758669
 31
0.0
  0
LINE
  8
0
  5
92EDC
 10
58.930585
 20
125.758669
 30
0.0
 11
58.930585
 21
125.757015
 31
0.0
  0
LINE
  8
0
  5
92EDD
 10
58.930585
 20
125.758669
 30
0.0
 11
58.930585
 21
124.665191
 31
0.0
  0
LINE
  8
0
  5
92EDE
 10
58.930585
 20
124.665191
 30
0.0
 11
58.930585
 21
124.663537
 31
0.0
  0
LINE
  8
0
  5
92EDF
 10
58.930585
 20
124.665191
 30
0.0
 11
58.930585
 21
123.351694
 31
0.0
  0
LINE
  8
0
  5
92EE0
 10
58.930585
 20
123.351694
 30
0.0
 11
58.930585
 21
123.35004
 31
0.0
  0
LINE
  8
0
  5
92EE1
 10
58.930585
 20
125.758669
 30
0.0
 11
58.930585
 21
124.665191
 31
0.0
  0
LINE
  8
0
  5
92EE2
 10
58.930585
 20
124.665191
 30
0.0
 11
58.930585
 21
124.663537
 31
0.0
  0
LINE
  8
0
  5
92EE3
 10
58.930585
 20
124.665191
 30
0.0
 11
65.615524
 21
124.556009
 31
0.0
  0
LINE
  8
0
  5
92EE4
 10
65.615524
 20
124.556009
 30
0.0
 11
65.615524
 21
124.554354
 31
0.0
  0
LINE
  8
0
  5
92EE5
 10
65.615524
 20
124.556009
 30
0.0
 11
65.615524
 21
125.649487
 31
0.0
  0
LINE
  8
0
  5
92EE6
 10
65.615524
 20
125.649487
 30
0.0
 11
65.615524
 21
125.647832
 31
0.0
  0
LINE
  8
0
  5
92EE7
 10
58.930585
 20
124.665191
 30
0.0
 11
58.930585
 21
123.351694
 31
0.0
  0
LINE
  8
0
  5
92EE8
 10
58.930585
 20
123.351694
 30
0.0
 11
58.930585
 21
123.35004
 31
0.0
  0
LINE
  8
0
  5
92EE9
 10
58.930585
 20
123.351694
 30
0.0
 11
45.340688
 21
123.133329
 31
0.0
  0
LINE
  8
0
  5
92EEA
 10
45.340688
 20
123.133329
 30
0.0
 11
45.340688
 21
123.131675
 31
0.0
  0
LINE
  8
0
  5
92EEB
 10
45.340688
 20
123.133329
 30
0.0
 11
45.340688
 21
117.664285
 31
0.0
  0
LINE
  8
0
  5
92EEC
 10
45.340688
 20
117.664285
 30
0.0
 11
45.340688
 21
117.66263
 31
0.0
  0
LINE
  8
0
  5
92EED
 10
45.340688
 20
117.664285
 30
0.0
 11
64.629574
 21
117.335083
 31
0.0
  0
LINE
  8
0
  5
92EEE
 10
64.629574
 20
117.335083
 30
0.0
 11
64.629574
 21
117.333429
 31
0.0
  0
LINE
  8
0
  5
92EEF
 10
48.080173
 20
129.259122
 30
0.0
 11
48.080173
 21
129.697506
 31
0.0
  0
LINE
  8
0
  5
92EF0
 10
48.080173
 20
129.697506
 30
0.0
 11
48.080173
 21
129.695852
 31
0.0
  0
LINE
  8
0
  5
92EF1
 10
48.080173
 20
123.133329
 30
0.0
 11
48.080173
 21
123.680895
 31
0.0
  0
LINE
  8
0
  5
92EF2
 10
48.080173
 20
123.680895
 30
0.0
 11
48.080173
 21
123.679241
 31
0.0
  0
LINE
  8
0
  5
92EF3
 10
64.629574
 20
140.20052
 30
0.0
 11
64.629574
 21
125.978688
 31
0.0
  0
LINE
  8
0
  5
92EF4
 10
64.629574
 20
125.978688
 30
0.0
 11
64.629574
 21
125.977034
 31
0.0
  0
LINE
  8
0
  5
92EF5
 10
66.603128
 20
118.319379
 30
0.0
 11
65.615524
 21
118.319379
 31
0.0
  0
LINE
  8
0
  5
92EF6
 10
65.615524
 20
118.319379
 30
0.0
 11
65.615524
 21
118.317725
 31
0.0
  0
LINE
  8
0
  5
92EF7
 10
58.930585
 20
142.825859
 30
0.0
 11
58.930585
 21
141.512362
 31
0.0
  0
LINE
  8
0
  5
92EF8
 10
58.930585
 20
141.512362
 30
0.0
 11
58.930585
 21
141.510708
 31
0.0
  0
LINE
  8
0
  5
92EF9
 10
58.930585
 20
141.512362
 30
0.0
 11
58.930585
 21
140.418884
 31
0.0
  0
LINE
  8
0
  5
92EFA
 10
58.930585
 20
140.418884
 30
0.0
 11
58.930585
 21
140.41723
 31
0.0
  0
LINE
  8
0
  5
92EFB
 10
58.930585
 20
140.418884
 30
0.0
 11
58.930585
 21
139.434589
 31
0.0
  0
LINE
  8
0
  5
92EFC
 10
58.930585
 20
139.434589
 30
0.0
 11
58.930585
 21
139.432934
 31
0.0
  0
LINE
  8
0
  5
92EFD
 10
58.930585
 20
139.434589
 30
0.0
 11
58.930585
 21
136.698412
 31
0.0
  0
LINE
  8
0
  5
92EFE
 10
58.930585
 20
136.698412
 30
0.0
 11
58.930585
 21
136.696758
 31
0.0
  0
LINE
  8
0
  5
92EFF
 10
65.615524
 20
140.528067
 30
0.0
 11
65.615524
 21
141.621545
 31
0.0
  0
LINE
  8
0
  5
92F00
 10
65.615524
 20
141.621545
 30
0.0
 11
65.615524
 21
141.61989
 31
0.0
  0
LINE
  8
0
  5
92F01
 10
58.930585
 20
141.512362
 30
0.0
 11
58.930585
 21
140.418884
 31
0.0
  0
LINE
  8
0
  5
92F02
 10
58.930585
 20
140.418884
 30
0.0
 11
58.930585
 21
140.41723
 31
0.0
  0
LINE
  8
0
  5
92F03
 10
58.930585
 20
140.418884
 30
0.0
 11
65.615524
 21
140.528067
 31
0.0
  0
LINE
  8
0
  5
92F04
 10
65.615524
 20
140.528067
 30
0.0
 11
65.615524
 21
140.526412
 31
0.0
  0
LINE
  8
0
  5
92F05
 10
64.629574
 20
143.482608
 30
0.0
 11
64.629574
 21
141.621545
 31
0.0
  0
LINE
  8
0
  5
92F06
 10
64.629574
 20
141.621545
 30
0.0
 11
64.629574
 21
141.61989
 31
0.0
  0
LINE
  8
0
  5
92F07
 10
65.615524
 20
141.621545
 30
0.0
 11
65.615524
 21
143.482608
 31
0.0
  0
LINE
  8
0
  5
92F08
 10
65.615524
 20
143.482608
 30
0.0
 11
65.615524
 21
143.480954
 31
0.0
  0
LINE
  8
0
  5
92F09
 10
65.615524
 20
141.621545
 30
0.0
 11
58.930585
 21
141.512362
 31
0.0
  0
LINE
  8
0
  5
92F0A
 10
58.930585
 20
141.512362
 30
0.0
 11
58.930585
 21
141.510708
 31
0.0
  0
LINE
  8
0
  5
92F0B
 10
64.629574
 20
148.84247
 30
0.0
 11
45.340688
 21
148.514923
 31
0.0
  0
LINE
  8
0
  5
92F0C
 10
45.340688
 20
148.514923
 30
0.0
 11
45.340688
 21
148.513269
 31
0.0
  0
LINE
  8
0
  5
92F0D
 10
45.340688
 20
148.514923
 30
0.0
 11
45.340688
 21
143.044224
 31
0.0
  0
LINE
  8
0
  5
92F0E
 10
45.340688
 20
143.044224
 30
0.0
 11
45.340688
 21
143.04257
 31
0.0
  0
LINE
  8
0
  5
92F0F
 10
45.340688
 20
143.044224
 30
0.0
 11
58.930585
 21
142.825859
 31
0.0
  0
LINE
  8
0
  5
92F10
 10
58.930585
 20
142.825859
 30
0.0
 11
58.930585
 21
142.824205
 31
0.0
  0
LINE
  8
0
  5
92F11
 10
58.930585
 20
142.825859
 30
0.0
 11
58.930585
 21
141.512362
 31
0.0
  0
LINE
  8
0
  5
92F12
 10
58.930585
 20
141.512362
 30
0.0
 11
58.930585
 21
141.510708
 31
0.0
  0
LINE
  8
0
  5
92F13
 10
58.930585
 20
136.698412
 30
0.0
 11
45.340688
 21
136.370865
 31
0.0
  0
LINE
  8
0
  5
92F14
 10
45.340688
 20
136.370865
 30
0.0
 11
45.340688
 21
136.369211
 31
0.0
  0
LINE
  8
0
  5
92F15
 10
48.080173
 20
136.918431
 30
0.0
 11
58.492201
 21
137.136796
 31
0.0
  0
LINE
  8
0
  5
92F16
 10
58.492201
 20
137.136796
 30
0.0
 11
58.492201
 21
137.135142
 31
0.0
  0
LINE
  8
0
  5
92F17
 10
48.080173
 20
142.496658
 30
0.0
 11
48.080173
 21
143.044224
 31
0.0
  0
LINE
  8
0
  5
92F18
 10
48.080173
 20
143.044224
 30
0.0
 11
48.080173
 21
143.04257
 31
0.0
  0
LINE
  8
0
  5
92F19
 10
45.340688
 20
143.044224
 30
0.0
 11
45.340688
 21
136.370865
 31
0.0
  0
LINE
  8
0
  5
92F1A
 10
45.340688
 20
136.370865
 30
0.0
 11
45.340688
 21
136.369211
 31
0.0
  0
LINE
  8
0
  5
92F1B
 10
58.492201
 20
142.387476
 30
0.0
 11
48.080173
 21
142.496658
 31
0.0
  0
LINE
  8
0
  5
92F1C
 10
48.080173
 20
142.496658
 30
0.0
 11
48.080173
 21
142.495004
 31
0.0
  0
LINE
  8
0
  5
92F1D
 10
48.080173
 20
136.918431
 30
0.0
 11
58.492201
 21
137.136796
 31
0.0
  0
LINE
  8
0
  5
92F1E
 10
58.492201
 20
137.136796
 30
0.0
 11
58.492201
 21
137.135142
 31
0.0
  0
LINE
  8
0
  5
92F1F
 10
58.492201
 20
137.136796
 30
0.0
 11
58.492201
 21
142.387476
 31
0.0
  0
LINE
  8
0
  5
92F20
 10
58.492201
 20
142.387476
 30
0.0
 11
58.492201
 21
142.385821
 31
0.0
  0
LINE
  8
0
  5
92F21
 10
48.080173
 20
136.480047
 30
0.0
 11
48.080173
 21
136.918431
 31
0.0
  0
LINE
  8
0
  5
92F22
 10
48.080173
 20
136.918431
 30
0.0
 11
48.080173
 21
136.916777
 31
0.0
  0
LINE
  8
0
  5
92F23
 10
45.340688
 20
117.664285
 30
0.0
 11
64.629574
 21
117.335083
 31
0.0
  0
LINE
  8
0
  5
92F24
 10
64.629574
 20
117.335083
 30
0.0
 11
64.629574
 21
117.333429
 31
0.0
  0
LINE
  8
0
  5
92F25
 10
65.615524
 20
117.335083
 30
0.0
 11
65.615524
 21
117.333429
 31
0.0
  0
LINE
  8
0
  5
92F27
 10
55.094313
 20
117.553448
 30
0.0
 11
55.094313
 21
117.551794
 31
0.0
  0
LINE
  8
0
  5
92F28
 10
64.629574
 20
117.335083
 30
0.0
 11
66.603128
 21
117.335083
 31
0.0
  0
LINE
  8
0
  5
92F29
 10
66.603128
 20
117.335083
 30
0.0
 11
66.603128
 21
117.333429
 31
0.0
  0
LINE
  8
0
  5
92F2A
 10
66.603128
 20
148.84247
 30
0.0
 11
64.629574
 21
148.84247
 31
0.0
  0
LINE
  8
0
  5
92F2B
 10
64.629574
 20
148.84247
 30
0.0
 11
64.629574
 21
148.840816
 31
0.0
  0
LINE
  8
0
  5
92F2C
 10
65.615524
 20
148.84247
 30
0.0
 11
66.053908
 21
148.84247
 31
0.0
  0
LINE
  8
0
  5
92F2D
 10
66.053908
 20
148.84247
 30
0.0
 11
66.053908
 21
148.840816
 31
0.0
  0
LINE
  8
0
  5
92F2F
 10
65.615524
 20
148.84247
 30
0.0
 11
65.615524
 21
148.840816
 31
0.0
  0
LINE
  8
0
  5
92F30
 10
64.629574
 20
148.84247
 30
0.0
 11
45.340688
 21
148.514923
 31
0.0
  0
LINE
  8
0
  5
92F31
 10
45.340688
 20
148.514923
 30
0.0
 11
45.340688
 21
148.513269
 31
0.0
  0
LINE
  8
0
  5
92F32
 10
45.340688
 20
148.514923
 30
0.0
 11
58.273836
 21
148.733288
 31
0.0
  0
LINE
  8
0
  5
92F33
 10
58.273836
 20
148.733288
 30
0.0
 11
58.273836
 21
148.731633
 31
0.0
  0
LINE
  8
0
  5
92F35
 10
55.094313
 20
148.624105
 30
0.0
 11
55.094313
 21
148.622451
 31
0.0
  0
LINE
  8
0
  5
92F36
 10
63.20524
 20
151.797011
 30
0.0
 11
65.615524
 21
151.797011
 31
0.0
  0
LINE
  8
0
  5
92F37
 10
65.615524
 20
151.797011
 30
0.0
 11
65.615524
 21
151.795357
 31
0.0
  0
LINE
  8
0
  5
92F38
 10
63.20524
 20
152.781307
 30
0.0
 11
63.20524
 21
151.797011
 31
0.0
  0
LINE
  8
0
  5
92F39
 10
63.20524
 20
151.797011
 30
0.0
 11
63.20524
 21
151.795357
 31
0.0
  0
LINE
  8
0
  5
92F3A
 10
63.20524
 20
151.797011
 30
0.0
 11
65.615524
 21
151.797011
 31
0.0
  0
LINE
  8
0
  5
92F3B
 10
65.615524
 20
151.797011
 30
0.0
 11
65.615524
 21
151.795357
 31
0.0
  0
LINE
  8
0
  5
92F3C
 10
66.164745
 20
152.781307
 30
0.0
 11
63.20524
 21
152.781307
 31
0.0
  0
LINE
  8
0
  5
92F3D
 10
63.20524
 20
152.781307
 30
0.0
 11
63.20524
 21
152.779653
 31
0.0
  0
LINE
  8
0
  5
92F3E
 10
66.164745
 20
148.84247
 30
0.0
 11
66.164745
 21
152.781307
 31
0.0
  0
LINE
  8
0
  5
92F3F
 10
66.164745
 20
152.781307
 30
0.0
 11
66.164745
 21
152.779653
 31
0.0
  0
LINE
  8
0
  5
92F40
 10
65.615524
 20
151.797011
 30
0.0
 11
65.615524
 21
148.84247
 31
0.0
  0
LINE
  8
0
  5
92F41
 10
65.615524
 20
148.84247
 30
0.0
 11
65.615524
 21
148.840816
 31
0.0
  0
LINE
  8
0
  5
92F42
 10
65.615524
 20
148.84247
 30
0.0
 11
66.053908
 21
148.84247
 31
0.0
  0
LINE
  8
0
  5
92F43
 10
66.053908
 20
148.84247
 30
0.0
 11
66.053908
 21
148.840816
 31
0.0
  0
LINE
  8
0
  5
92F44
 10
63.20524
 20
152.781307
 30
0.0
 11
63.20524
 21
151.797011
 31
0.0
  0
LINE
  8
0
  5
92F45
 10
63.20524
 20
151.797011
 30
0.0
 11
63.20524
 21
151.795357
 31
0.0
  0
LINE
  8
0
  5
92F46
 10
65.615524
 20
151.797011
 30
0.0
 11
65.615524
 21
148.84247
 31
0.0
  0
LINE
  8
0
  5
92F47
 10
65.615524
 20
148.84247
 30
0.0
 11
65.615524
 21
148.840816
 31
0.0
  0
LINE
  8
0
  5
92F48
 10
66.603128
 20
152.781307
 30
0.0
 11
66.164745
 21
152.781307
 31
0.0
  0
LINE
  8
0
  5
92F49
 10
66.164745
 20
152.781307
 30
0.0
 11
66.164745
 21
152.779653
 31
0.0
  0
LINE
  8
0
  5
92F4B
 10
66.603128
 20
152.781307
 30
0.0
 11
66.603128
 21
152.779653
 31
0.0
  0
LINE
  8
0
  5
92F4C
 10
66.164745
 20
152.781307
 30
0.0
 11
63.20524
 21
152.781307
 31
0.0
  0
LINE
  8
0
  5
92F4D
 10
63.20524
 20
152.781307
 30
0.0
 11
63.20524
 21
152.779653
 31
0.0
  0
LINE
  8
0
  5
92F4E
 10
64.629574
 20
152.781307
 30
0.0
 11
66.603128
 21
152.781307
 31
0.0
  0
LINE
  8
0
  5
92F4F
 10
66.603128
 20
152.781307
 30
0.0
 11
66.603128
 21
152.779653
 31
0.0
  0
LINE
  8
0
  5
92F50
 10
66.603128
 20
152.781307
 30
0.0
 11
66.164745
 21
152.781307
 31
0.0
  0
LINE
  8
0
  5
92F51
 10
66.164745
 20
152.781307
 30
0.0
 11
66.164745
 21
152.779653
 31
0.0
  0
LINE
  8
0
  5
92F52
 10
48.080173
 20
129.259122
 30
0.0
 11
48.080173
 21
129.697506
 31
0.0
  0
LINE
  8
0
  5
92F53
 10
48.080173
 20
129.697506
 30
0.0
 11
48.080173
 21
129.695852
 31
0.0
  0
LINE
  8
0
  5
92F54
 10
48.080173
 20
129.697506
 30
0.0
 11
45.340688
 21
129.806688
 31
0.0
  0
LINE
  8
0
  5
92F55
 10
45.340688
 20
129.806688
 30
0.0
 11
45.340688
 21
129.805034
 31
0.0
  0
LINE
  8
0
  5
92F56
 10
45.340688
 20
129.806688
 30
0.0
 11
45.340688
 21
123.133329
 31
0.0
  0
LINE
  8
0
  5
92F57
 10
45.340688
 20
123.133329
 30
0.0
 11
45.340688
 21
123.131675
 31
0.0
  0
LINE
  8
0
  5
92F58
 10
58.492201
 20
123.790078
 30
0.0
 11
58.492201
 21
129.040757
 31
0.0
  0
LINE
  8
0
  5
92F59
 10
58.492201
 20
129.040757
 30
0.0
 11
58.492201
 21
129.039103
 31
0.0
  0
LINE
  8
0
  5
92F5A
 10
58.492201
 20
129.040757
 30
0.0
 11
48.080173
 21
129.259122
 31
0.0
  0
LINE
  8
0
  5
92F5B
 10
48.080173
 20
129.259122
 30
0.0
 11
48.080173
 21
129.257468
 31
0.0
  0
LINE
  8
0
  5
92F5C
 10
48.080173
 20
123.680895
 30
0.0
 11
58.492201
 21
123.790078
 31
0.0
  0
LINE
  8
0
  5
92F5D
 10
58.492201
 20
123.790078
 30
0.0
 11
58.492201
 21
123.788423
 31
0.0
  0
LINE
  8
0
  5
92F5E
 10
48.080173
 20
123.133329
 30
0.0
 11
48.080173
 21
123.680895
 31
0.0
  0
LINE
  8
0
  5
92F5F
 10
48.080173
 20
123.680895
 30
0.0
 11
48.080173
 21
123.679241
 31
0.0
  0
LINE
  8
0
  5
92F60
 10
48.080173
 20
123.680895
 30
0.0
 11
58.492201
 21
123.790078
 31
0.0
  0
LINE
  8
0
  5
92F61
 10
58.492201
 20
123.790078
 30
0.0
 11
58.492201
 21
123.788423
 31
0.0
  0
LINE
  8
0
  5
92F62
 10
65.615524
 20
133.52716
 30
0.0
 11
65.615524
 21
140.20052
 31
0.0
  0
LINE
  8
0
  5
92F63
 10
65.615524
 20
140.20052
 30
0.0
 11
65.615524
 21
140.198865
 31
0.0
  0
LINE
  8
0
  5
92F64
 10
64.629574
 20
140.20052
 30
0.0
 11
64.629574
 21
125.978688
 31
0.0
  0
LINE
  8
0
  5
92F65
 10
64.629574
 20
125.978688
 30
0.0
 11
64.629574
 21
125.977034
 31
0.0
  0
LINE
  8
0
  5
92F66
 10
65.615524
 20
132.54121
 30
0.0
 11
66.603128
 21
132.54121
 31
0.0
  0
LINE
  8
0
  5
92F67
 10
66.603128
 20
132.54121
 30
0.0
 11
66.603128
 21
132.539556
 31
0.0
  0
LINE
  8
0
  5
92F68
 10
66.603128
 20
132.54121
 30
0.0
 11
66.603128
 21
133.52716
 31
0.0
  0
LINE
  8
0
  5
92F69
 10
66.603128
 20
133.52716
 30
0.0
 11
66.603128
 21
133.525506
 31
0.0
  0
LINE
  8
0
  5
92F6A
 10
66.603128
 20
133.52716
 30
0.0
 11
65.615524
 21
133.52716
 31
0.0
  0
LINE
  8
0
  5
92F6B
 10
65.615524
 20
133.52716
 30
0.0
 11
65.615524
 21
133.525506
 31
0.0
  0
LINE
  8
0
  5
92F6C
 10
64.629574
 20
125.978688
 30
0.0
 11
65.615524
 21
125.978688
 31
0.0
  0
LINE
  8
0
  5
92F6D
 10
65.615524
 20
125.978688
 30
0.0
 11
65.615524
 21
125.977034
 31
0.0
  0
LINE
  8
0
  5
92F6E
 10
65.615524
 20
125.978688
 30
0.0
 11
65.615524
 21
132.54121
 31
0.0
  0
LINE
  8
0
  5
92F6F
 10
65.615524
 20
132.54121
 30
0.0
 11
65.615524
 21
132.539556
 31
0.0
  0
LINE
  8
0
  5
92F70
 10
61.013322
 20
117.335083
 30
0.0
 11
63.861989
 21
117.335083
 31
0.0
  0
LINE
  8
0
  5
92F71
 10
63.861989
 20
117.335083
 30
0.0
 11
63.861989
 21
117.333429
 31
0.0
  0
LINE
  8
0
  5
93493
 10
65.69543
 20
189.020569
 30
0.0
 11
65.675411
 21
188.568283
 31
0.0
  0
LINE
  8
0
  5
93494
 10
65.69543
 20
158.746343
 30
0.0
 11
65.675411
 21
159.334736
 31
0.0
  0
LINE
  8
0
  5
93495
 10
40.720056
 20
192.204439
 30
0.0
 11
40.72328
 21
194.530272
 31
0.0
  0
LINE
  8
0
  5
93496
 10
40.72328
 20
194.530272
 30
0.0
 11
43.608793
 21
194.912464
 31
0.0
  0
LINE
  8
0
  5
93497
 10
40.720056
 20
113.735128
 30
0.0
 11
40.721362
 21
108.344704
 31
0.0
  0
LINE
  8
0
  5
93498
 10
40.721362
 20
108.344704
 30
0.0
 11
43.62198
 21
108.299467
 31
0.0
  0
ENDSEC
  0
EOF
