  0
SECTION
  2
HEADER
  9
$ACADVER
  1
AC1009
  9
$INSBASE
 10
0.0
 20
0.0
 30
0.0
  9
$EXTMIN
 10
28.712702
 20
81.001272
 30
0.0
  9
$EXTMAX
 10
68.461134
 20
193.001272
 30
0.0
  9
$LIMMIN
 10
25.942294
 20
78.601971
  9
$LIMMAX
 10
75.149526
 20
194.404987
  9
$ORTHOMODE
 70
     0
  9
$REGENMODE
 70
     1
  9
$FILLMODE
 70
     1
  9
$QTEXTMODE
 70
     0
  9
$MIRRTEXT
 70
     1
  9
$DRAGMODE
 70
     2
  9
$LTSCALE
 40
1.0
  9
$OSMODE
 70
     1
  9
$ATTMODE
 70
     1
  9
$TEXTSIZE
 40
0.2
  9
$TRACEWID
 40
0.05
  9
$TEXTSTYLE
  7
STANDARD
  9
$CLAYER
  8
0
  9
$CELTYPE
  6
BYLAYER
  9
$CECOLOR
 62
   256
  9
$DIMSCALE
 40
4.5
  9
$DIMASZ
 40
0.18
  9
$DIMEXO
 40
0.0625
  9
$DIMDLI
 40
0.38
  9
$DIMRND
 40
0.0
  9
$DIMDLE
 40
0.0
  9
$DIMEXE
 40
0.18
  9
$DIMTP
 40
0.0
  9
$DIMTM
 40
0.0
  9
$DIMTXT
 40
0.45
  9
$DIMCEN
 40
0.09
  9
$DIMTSZ
 40
0.0
  9
$DIMTOL
 70
     0
  9
$DIMLIM
 70
     0
  9
$DIMTIH
 70
     1
  9
$DIMTOH
 70
     1
  9
$DIMSE1
 70
     0
  9
$DIMSE2
 70
     0
  9
$DIMTAD
 70
     1
  9
$DIMZIN
 70
     0
  9
$DIMBLK
  1

  9
$DIMASO
 70
     1
  9
$DIMSHO
 70
     1
  9
$DIMPOST
  1

  9
$DIMAPOST
  1

  9
$DIMALT
 70
     0
  9
$DIMALTD
 70
     2
  9
$DIMALTF
 40
25.4
  9
$DIMLFAC
 40
1.0
  9
$DIMTOFL
 70
     0
  9
$DIMTVP
 40
0.0
  9
$DIMTIX
 70
     0
  9
$DIMSOXD
 70
     0
  9
$DIMSAH
 70
     0
  9
$DIMBLK1
  1

  9
$DIMBLK2
  1

  9
$DIMSTYLE
  2
*UNNAMED
  9
$DIMCLRD
 70
     0
  9
$DIMCLRE
 70
     0
  9
$DIMCLRT
 70
     0
  9
$DIMTFAC
 40
1.0
  9
$DIMGAP
 40
0.09
  9
$LUNITS
 70
     2
  9
$LUPREC
 70
     4
  9
$SKETCHINC
 40
0.1
  9
$FILLETRAD
 40
0.0
  9
$AUNITS
 70
     0
  9
$AUPREC
 70
     0
  9
$MENU
  1
acad
  9
$ELEVATION
 40
0.0
  9
$PELEVATION
 40
0.0
  9
$THICKNESS
 40
0.0
  9
$LIMCHECK
 70
     0
  9
$BLIPMODE
 70
     1
  9
$CHAMFERA
 40
0.0
  9
$CHAMFERB
 40
0.0
  9
$SKPOLY
 70
     0
  9
$TDCREATE
 40
2451218.682874537
  9
$TDUPDATE
 40
2451218.682874537
  9
$TDINDWG
 40
0.0000000000
  9
$TDUSRTIMER
 40
0.0000000000
  9
$USRTIMER
 70
     1
  9
$ANGBASE
 50
0.0
  9
$ANGDIR
 70
     0
  9
$PDMODE
 70
     0
  9
$PDSIZE
 40
0.0
  9
$PLINEWID
 40
0.0
  9
$COORDS
 70
     1
  9
$SPLFRAME
 70
     0
  9
$SPLINETYPE
 70
     6
  9
$SPLINESEGS
 70
     8
  9
$ATTDIA
 70
     0
  9
$ATTREQ
 70
     1
  9
$HANDLING
 70
     1
  9
$HANDSEED
  5
49458
  9
$SURFTAB1
 70
     6
  9
$SURFTAB2
 70
     6
  9
$SURFTYPE
 70
     6
  9
$SURFU
 70
     6
  9
$SURFV
 70
     6
  9
$UCSNAME
  2

  9
$UCSORG
 10
26.1920768149959
 20
78.85154752877051
 30
0.0
  9
$UCSXDIR
 10
1.0
 20
0.0
 30
0.0
  9
$UCSYDIR
 10
0.0
 20
1.0
 30
0.0
  9
$PUCSNAME
  2

  9
$PUCSORG
 10
0.0
 20
0.0
 30
0.0
  9
$PUCSXDIR
 10
1.0
 20
0.0
 30
0.0
  9
$PUCSYDIR
 10
0.0
 20
1.0
 30
0.0
  9
$USERI1
 70
     0
  9
$USERI2
 70
     0
  9
$USERI3
 70
     0
  9
$USERI4
 70
     0
  9
$USERI5
 70
     0
  9
$USERR1
 40
0.0
  9
$USERR2
 40
0.0
  9
$USERR3
 40
0.0
  9
$USERR4
 40
0.0
  9
$USERR5
 40
0.0
  9
$WORLDVIEW
 70
     1
  9
$SHADEDGE
 70
     3
  9
$SHADEDIF
 70
    70
  9
$TILEMODE
 70
     1
  9
$MAXACTVP
 70
    16
  9
$PINSBASE
 10
0.0
 20
0.0
 30
0.0
  9
$PLIMCHECK
 70
     0
  9
$PEXTMIN
 10
1.000000E+20
 20
1.000000E+20
 30
1.000000E+20
  9
$PEXTMAX
 10
-1.000000E+20
 20
-1.000000E+20
 30
-1.000000E+20
  9
$PLIMMIN
 10
0.0
 20
0.0
  9
$PLIMMAX
 10
12.0
 20
9.0
  9
$UNITMODE
 70
     0
  9
$VISRETAIN
 70
     0
  9
$PLINEGEN
 70
     0
  9
$PSLTSCALE
 70
     1
  9
$TREEDEPTH
 70
  3020
  9
$DWGCODEPAGE
  3
iso8859-1
  0
ENDSEC
  0
SECTION
  2
TABLES
  0
TABLE
  2
VPORT
 70
     2
  0
VPORT
  2
*ACTIVE
 70
     0
 10
0.0
 20
0.0
 11
1.0
 21
1.0
 12
122.233603
 22
137.626569
 13
0.0
 23
0.0
 14
1.0
 24
1.0
 15
0.0
 25
0.0
 16
0.0
 26
0.0
 36
1.0
 17
0.0
 27
0.0
 37
0.0
 40
119.297071
 41
1.658281
 42
50.0
 43
0.0
 44
0.0
 50
0.0
 51
0.0
 71
     0
 72
   100
 73
     1
 74
     1
 75
     0
 76
     0
 77
     0
 78
     0
  0
ENDTAB
  0
TABLE
  2
LTYPE
 70
     1
  0
LTYPE
  2
CONTINUOUS
 70
    64
  3
Solid line
 72
    65
 73
     0
 40
0.0
  0
ENDTAB
  0
TABLE
  2
LAYER
 70
     1
  0
LAYER
  2
0
 70
    64
 62
     7
  6
CONTINUOUS
  0
ENDTAB
  0
TABLE
  2
STYLE
 70
     1
  0
STYLE
  2
STANDARD
 70
     0
 40
0.0
 41
1.0
 50
0.0
 71
     0
 42
0.2
  3
txt
  4

  0
ENDTAB
  0
TABLE
  2
VIEW
 70
     0
  0
ENDTAB
  0
TABLE
  2
UCS
 70
     0
  0
ENDTAB
  0
TABLE
  2
APPID
 70
     1
  0
APPID
  2
ACAD
 70
    64
  0
ENDTAB
  0
TABLE
  2
DIMSTYLE
 70
     0
  0
ENDTAB
  0
ENDSEC
  0
SECTION
  2
BLOCKS
  0
BLOCK
  8
0
  5
49452
  2
73830
 70
    64
 10
440.848374
 20
1407.449189
 30
0.0
  3
73830
  0
ENDBLK
  8
0
  5
49453
  0
BLOCK
  8
0
  5
49454
  2
DF
 70
    64
 10
922.739764
 20
276.264907
 30
0.0
  3
DF
  0
ENDBLK
  8
0
  5
49455
  0
BLOCK
  8
0
  5
49456
  2
IU
 70
    64
 10
924.839764
 20
266.864907
 30
0.0
  3
IU
  0
ENDBLK
  8
0
  5
49457
  0
ENDSEC
  0
SECTION
  2
ENTITIES
  0
INSERT
  8
0
  5
3AA11
  2
73830
 10
177.999828
 20
709.671176
 30
0.0
 41
0.5
 42
0.5
 43
0.5
  0
INSERT
  8
0
  5
3AA12
  2
DF
 10
418.945523
 20
144.079035
 30
0.0
 41
0.5
 42
0.5
 43
0.5
  0
INSERT
  8
0
  5
3AA13
  2
IU
 10
419.995523
 20
139.379035
 30
0.0
 41
0.5
 42
0.5
 43
0.5
  0
INSERT
  8
0
  5
3AC95
  2
73830
 10
238.823284
 20
747.308767
 30
0.0
 41
0.5
 42
0.5
 43
0.5
  0
INSERT
  8
0
  5
3AC96
  2
DF
 10
479.768979
 20
181.716626
 30
0.0
 41
0.5
 42
0.5
 43
0.5
  0
INSERT
  8
0
  5
3AC97
  2
IU
 10
480.818979
 20
177.016626
 30
0.0
 41
0.5
 42
0.5
 43
0.5
  0
VIEWPORT
  8
0
  5
4635C
 67
     1
 68
    -1
 10
6.0
 20
4.5
 30
0.0
 40
12.0
 41
9.0
 69
     1
1001
ACAD
1000
MVIEW
1002
{
1070
    16
1010
0.0
1020
0.0
1030
0.0
1010
0.0
1020
0.0
1030
1.0
1040
0.0
1040
9.0
1040
6.0
1040
4.5
1040
50.0
1040
0.0
1040
0.0
1070
     0
1070
   100
1070
     1
1070
     1
1070
     0
1070
     0
1070
     0
1070
     0
1040
0.0
1040
0.0
1040
0.0
1040
1.0
1040
1.0
1040
0.0
1040
0.0
1070
     0
1002
{
1002
}
1002
}
  0
LINE
  8
0
  5
481D6
 10
41.212702
 20
81.001272
 30
0.0
 11
41.212702
 21
99.501272
 31
0.0
  0
LINE
  8
0
  5
481D7
 10
41.212702
 20
193.001272
 30
0.0
 11
41.212702
 21
174.879951
 31
0.0
  0
LINE
  8
0
  5
481FE
 10
41.212702
 20
99.501272
 30
0.0
 11
41.212702
 21
99.122592
 31
0.0
  0
LINE
  8
0
  5
4825E
 10
41.212702
 20
174.879951
 30
0.0
 11
41.212702
 21
174.501272
 31
0.0
  0
LINE
  8
0
  5
48270
 10
41.212702
 20
99.501272
 30
0.0
 11
41.212702
 21
174.501272
 31
0.0
  0
ARC
  8
0
  5
482DD
 10
42.712702
 20
99.122592
 30
0.0
 40
1.5
 50
180.0
 51
225.0
  0
ARC
  8
0
  5
48333
 10
42.712702
 20
174.879951
 30
0.0
 40
1.5
 50
135.0
 51
180.0
  0
LINE
  8
0
  5
4833C
 10
28.712702
 20
189.65498
 30
0.0
 11
32.058994
 21
193.001272
 31
0.0
  0
LINE
  8
0
  5
4833D
 10
28.712702
 20
186.119446
 30
0.0
 11
35.594528
 21
193.001272
 31
0.0
  0
LINE
  8
0
  5
4833E
 10
28.712702
 20
182.583912
 30
0.0
 11
39.130061
 21
193.001272
 31
0.0
  0
LINE
  8
0
  5
4833F
 10
28.712702
 20
179.048378
 30
0.0
 11
41.212702
 21
191.548378
 31
0.0
  0
LINE
  8
0
  5
48340
 10
28.712702
 20
175.512844
 30
0.0
 11
41.212702
 21
188.012844
 31
0.0
  0
LINE
  8
0
  5
48341
 10
28.712702
 20
171.977311
 30
0.0
 11
41.212702
 21
184.477311
 31
0.0
  0
LINE
  8
0
  5
48342
 10
28.712702
 20
168.441777
 30
0.0
 11
41.212702
 21
180.941777
 31
0.0
  0
LINE
  8
0
  5
48343
 10
28.712702
 20
164.906243
 30
0.0
 11
41.212702
 21
177.406243
 31
0.0
  0
LINE
  8
0
  5
48344
 10
28.712702
 20
161.370709
 30
0.0
 11
41.212702
 21
173.870709
 31
0.0
  0
LINE
  8
0
  5
48345
 10
28.712702
 20
157.835175
 30
0.0
 11
41.212702
 21
170.335175
 31
0.0
  0
LINE
  8
0
  5
48346
 10
28.712702
 20
154.299641
 30
0.0
 11
41.212702
 21
166.799641
 31
0.0
  0
LINE
  8
0
  5
48347
 10
28.712702
 20
150.764107
 30
0.0
 11
41.212702
 21
163.264107
 31
0.0
  0
LINE
  8
0
  5
48348
 10
28.712702
 20
147.228573
 30
0.0
 11
41.212702
 21
159.728573
 31
0.0
  0
LINE
  8
0
  5
48349
 10
28.712702
 20
143.693039
 30
0.0
 11
41.212702
 21
156.193039
 31
0.0
  0
LINE
  8
0
  5
4834A
 10
28.712702
 20
140.157505
 30
0.0
 11
41.212702
 21
152.657505
 31
0.0
  0
LINE
  8
0
  5
4834B
 10
28.712702
 20
136.621971
 30
0.0
 11
41.212702
 21
149.121971
 31
0.0
  0
LINE
  8
0
  5
4834C
 10
28.712702
 20
133.086438
 30
0.0
 11
41.212702
 21
145.586438
 31
0.0
  0
LINE
  8
0
  5
4834D
 10
28.712702
 20
129.550904
 30
0.0
 11
41.212702
 21
142.050904
 31
0.0
  0
LINE
  8
0
  5
4834E
 10
28.712702
 20
126.01537
 30
0.0
 11
41.212702
 21
138.51537
 31
0.0
  0
LINE
  8
0
  5
4834F
 10
28.712702
 20
122.479836
 30
0.0
 11
41.212702
 21
134.979836
 31
0.0
  0
LINE
  8
0
  5
48350
 10
28.712702
 20
118.944302
 30
0.0
 11
41.212702
 21
131.444302
 31
0.0
  0
LINE
  8
0
  5
48351
 10
28.712702
 20
115.408768
 30
0.0
 11
41.212702
 21
127.908768
 31
0.0
  0
LINE
  8
0
  5
48352
 10
28.712702
 20
111.873234
 30
0.0
 11
41.212702
 21
124.373234
 31
0.0
  0
LINE
  8
0
  5
48353
 10
28.712702
 20
108.3377
 30
0.0
 11
41.212702
 21
120.8377
 31
0.0
  0
LINE
  8
0
  5
48354
 10
28.712702
 20
104.802166
 30
0.0
 11
41.212702
 21
117.302166
 31
0.0
  0
LINE
  8
0
  5
48355
 10
28.712702
 20
101.266632
 30
0.0
 11
41.212702
 21
113.766632
 31
0.0
  0
LINE
  8
0
  5
48356
 10
28.712702
 20
97.731098
 30
0.0
 11
41.212702
 21
110.231098
 31
0.0
  0
LINE
  8
0
  5
48357
 10
28.712702
 20
94.195565
 30
0.0
 11
41.212702
 21
106.695565
 31
0.0
  0
LINE
  8
0
  5
48358
 10
28.712702
 20
90.660031
 30
0.0
 11
41.212702
 21
103.160031
 31
0.0
  0
LINE
  8
0
  5
48359
 10
28.712702
 20
87.124497
 30
0.0
 11
41.212702
 21
99.624497
 31
0.0
  0
LINE
  8
0
  5
4835A
 10
28.712702
 20
83.588963
 30
0.0
 11
41.212702
 21
96.088963
 31
0.0
  0
LINE
  8
0
  5
4835B
 10
29.660545
 20
81.001272
 30
0.0
 11
41.212702
 21
92.553429
 31
0.0
  0
LINE
  8
0
  5
4835C
 10
33.196079
 20
81.001272
 30
0.0
 11
41.212702
 21
89.017895
 31
0.0
  0
LINE
  8
0
  5
4835D
 10
36.731613
 20
81.001272
 30
0.0
 11
41.212702
 21
85.482361
 31
0.0
  0
LINE
  8
0
  5
4835E
 10
40.267146
 20
81.001272
 30
0.0
 11
41.212702
 21
81.946827
 31
0.0
  0
LINE
  8
0
  5
48BDA
 10
66.818606
 20
98.992685
 30
0.0
 11
66.818606
 21
138.296259
 31
0.0
  0
LINE
  8
0
  5
48BDB
 10
68.050606
 20
103.625005
 30
0.0
 11
68.050606
 21
133.663939
 31
0.0
  0
LINE
  8
0
  5
48BDC
 10
68.158395
 20
147.730605
 30
0.0
 11
68.158395
 21
170.497965
 31
0.0
  0
LINE
  8
0
  5
48BDD
 10
66.926395
 20
143.098285
 30
0.0
 11
66.926395
 21
175.130285
 31
0.0
  0
LINE
  8
0
  5
48BDE
 10
66.926395
 20
143.098285
 30
0.0
 11
63.476795
 21
143.038072
 31
0.0
  0
LINE
  8
0
  5
48BDF
 10
63.476795
 20
175.070072
 30
0.0
 11
63.476795
 21
174.084321
 31
0.0
  0
LINE
  8
0
  5
48BE0
 10
66.926395
 20
175.009859
 30
0.0
 11
63.476795
 21
175.070072
 31
0.0
  0
LINE
  8
0
  5
48BE1
 10
64.357094
 20
144.532062
 30
0.0
 11
63.476795
 21
144.023822
 31
0.0
  0
LINE
  8
0
  5
48BE2
 10
65.940795
 20
144.559706
 30
0.0
 11
64.357094
 21
144.532062
 31
0.0
  0
LINE
  8
0
  5
48BE3
 10
65.940795
 20
144.066831
 30
0.0
 11
63.476795
 21
144.023822
 31
0.0
  0
LINE
  8
0
  5
48BE4
 10
65.940795
 20
174.041312
 30
0.0
 11
63.476795
 21
174.084321
 31
0.0
  0
LINE
  8
0
  5
48BE5
 10
61.308475
 20
171.029761
 30
0.0
 11
61.308475
 21
171.127672
 31
0.0
  0
LINE
  8
0
  5
48BE6
 10
64.357094
 20
173.576081
 30
0.0
 11
63.476795
 21
174.084321
 31
0.0
  0
LINE
  8
0
  5
48BE7
 10
63.476795
 20
143.038072
 30
0.0
 11
63.476795
 21
144.023822
 31
0.0
  0
LINE
  8
0
  5
48BE8
 10
65.940795
 20
173.548437
 30
0.0
 11
64.357094
 21
173.576081
 31
0.0
  0
LINE
  8
0
  5
48BE9
 10
61.308475
 20
134.316161
 30
0.0
 11
61.308475
 21
134.414072
 31
0.0
  0
LINE
  8
0
  5
48BEB
 10
61.693751
 20
100.534072
 30
0.0
 11
64.319779
 21
100.534072
 31
0.0
  0
LINE
  8
0
  5
48BED
 10
61.693751
 20
100.534072
 30
0.0
 11
64.319779
 21
100.534072
 31
0.0
  0
LINE
  8
0
  5
48BF3
 10
64.374302
 20
136.754872
 30
0.0
 11
61.861022
 21
136.754872
 31
0.0
  0
LINE
  8
0
  5
48BF4
 10
64.374302
 20
100.534072
 30
0.0
 11
61.861022
 21
100.534072
 31
0.0
  0
LINE
  8
0
  5
48BF5
 10
64.275742
 20
99.055672
 30
0.0
 11
65.359902
 21
99.055672
 31
0.0
  0
LINE
  8
0
  5
48BF6
 10
64.374302
 20
173.468472
 30
0.0
 11
61.861022
 21
173.468472
 31
0.0
  0
LINE
  8
0
  5
48BF7
 10
43.819461
 20
94.127672
 30
0.0
 11
43.676702
 21
94.127672
 31
0.0
  0
LINE
  8
0
  5
48BF8
 10
43.517874
 20
94.219371
 30
0.0
 11
43.676702
 21
94.127672
 31
0.0
  0
LINE
  8
0
  5
48BF9
 10
42.395422
 20
173.961272
 30
0.0
 11
42.395422
 21
162.010872
 31
0.0
  0
LINE
  8
0
  5
48BFA
 10
42.395422
 20
156.097272
 30
0.0
 11
42.395422
 21
144.393272
 31
0.0
  0
LINE
  8
0
  5
48BFB
 10
42.395422
 20
115.687672
 30
0.0
 11
42.395422
 21
100.041272
 31
0.0
  0
LINE
  8
0
  5
48BFC
 10
41.212702
 20
100.041272
 30
0.0
 11
41.212702
 21
173.961272
 31
0.0
  0
LINE
  8
0
  5
48BFD
 10
45.155102
 20
179.874872
 30
0.0
 11
65.852702
 21
179.874872
 31
0.0
  0
LINE
  8
0
  5
48BFE
 10
65.606302
 20
178.692152
 30
0.0
 11
45.155102
 21
178.692152
 31
0.0
  0
LINE
  8
0
  5
48BFF
 10
42.395422
 20
137.001272
 30
0.0
 11
42.395422
 21
121.601272
 31
0.0
  0
LINE
  8
0
  5
48C00
 10
65.852702
 20
178.445752
 30
0.0
 11
65.852702
 21
176.918072
 31
0.0
  0
LINE
  8
0
  5
48C01
 10
66.838302
 20
178.889272
 30
0.0
 11
66.838302
 21
176.918072
 31
0.0
  0
LINE
  8
0
  5
48C02
 10
65.852702
 20
94.127672
 30
0.0
 11
45.155102
 21
94.127672
 31
0.0
  0
LINE
  8
0
  5
48C03
 10
45.155102
 20
95.310392
 30
0.0
 11
65.606302
 21
95.310392
 31
0.0
  0
LINE
  8
0
  5
48C04
 10
65.852702
 20
97.084472
 30
0.0
 11
65.852702
 21
95.556792
 31
0.0
  0
LINE
  8
0
  5
48C05
 10
66.838302
 20
97.084472
 30
0.0
 11
66.838302
 21
95.113272
 31
0.0
  0
LINE
  8
0
  5
48C06
 10
45.450782
 20
160.289412
 30
0.0
 11
45.450782
 21
160.240132
 31
0.0
  0
LINE
  8
0
  5
48C07
 10
42.482025
 20
99.458968
 30
0.0
 11
44.224667
 21
97.716326
 31
0.0
  0
LINE
  8
0
  5
48C08
 10
42.395422
 20
99.668045
 30
0.0
 11
42.395422
 21
100.041272
 31
0.0
  0
LINE
  8
0
  5
48C09
 10
44.021609
 20
95.310392
 30
0.0
 11
45.155102
 21
95.310392
 31
0.0
  0
LINE
  8
0
  5
48C0A
 10
43.388357
 20
96.880016
 30
0.0
 11
41.645715
 21
98.622658
 31
0.0
  0
LINE
  8
0
  5
48C0B
 10
42.567902
 20
96.048169
 30
0.0
 11
43.337326
 21
96.492397
 31
0.0
  0
LINE
  8
0
  5
48C0C
 10
41.212702
 20
100.041272
 30
0.0
 11
41.212702
 21
99.668045
 31
0.0
  0
LINE
  8
0
  5
48C0D
 10
45.155102
 20
94.127672
 30
0.0
 11
44.072838
 21
94.127672
 31
0.0
  0
LINE
  8
0
  5
48C0E
 10
42.567902
 20
94.767838
 30
0.0
 11
43.333638
 21
94.32574
 31
0.0
  0
LINE
  8
0
  5
48C0F
 10
64.374302
 20
141.682872
 30
0.0
 11
59.791262
 21
141.682872
 31
0.0
  0
LINE
  8
0
  5
48C10
 10
59.298462
 20
142.914872
 30
0.0
 11
59.298462
 21
144.886072
 31
0.0
  0
LINE
  8
0
  5
48C11
 10
59.791262
 20
142.422072
 30
0.0
 11
63.980062
 21
142.422072
 31
0.0
  0
LINE
  8
0
  5
48C12
 10
58.312862
 20
142.914872
 30
0.0
 11
58.312862
 21
145.132472
 31
0.0
  0
LINE
  8
0
  5
48C13
 10
66.099102
 20
142.175672
 30
0.0
 11
66.099102
 21
140.697272
 31
0.0
  0
LINE
  8
0
  5
48C14
 10
66.838302
 20
142.668472
 30
0.0
 11
66.838302
 21
140.697272
 31
0.0
  0
LINE
  8
0
  5
48C15
 10
64.275742
 20
143.161272
 30
0.0
 11
66.345502
 21
143.161272
 31
0.0
  0
LINE
  8
0
  5
48C16
 10
59.298462
 20
146.118072
 30
0.0
 11
61.121822
 21
146.118072
 31
0.0
  0
LINE
  8
0
  5
48C17
 10
64.127902
 20
142.569912
 30
0.0
 11
64.127902
 21
143.013432
 31
0.0
  0
LINE
  8
0
  5
48C18
 10
57.820062
 20
142.422072
 30
0.0
 11
42.888222
 21
142.422072
 31
0.0
  0
LINE
  8
0
  5
48C19
 10
61.121822
 20
145.378872
 30
0.0
 11
59.791262
 21
145.378872
 31
0.0
  0
LINE
  8
0
  5
48C1A
 10
64.374302
 20
144.639672
 30
0.0
 11
61.861022
 21
144.639672
 31
0.0
  0
LINE
  8
0
  5
48C1B
 10
61.368222
 20
146.955832
 30
0.0
 11
61.368222
 21
146.364472
 31
0.0
  0
LINE
  8
0
  5
48C1C
 10
65.852702
 20
146.610872
 30
0.0
 11
65.852702
 21
146.118072
 31
0.0
  0
LINE
  8
0
  5
48C1D
 10
65.359902
 20
147.103672
 30
0.0
 11
61.516062
 21
147.103672
 31
0.0
  0
LINE
  8
0
  5
48C1E
 10
64.374302
 20
145.378872
 30
0.0
 11
62.353822
 21
145.378872
 31
0.0
  0
LINE
  8
0
  5
48C1F
 10
64.867102
 20
146.364472
 30
0.0
 11
62.353822
 21
146.364472
 31
0.0
  0
LINE
  8
0
  5
48C20
 10
62.107422
 20
146.118072
 30
0.0
 11
62.107422
 21
145.625272
 31
0.0
  0
LINE
  8
0
  5
48C21
 10
58.066462
 20
141.682872
 30
0.0
 11
42.888222
 21
141.682872
 31
0.0
  0
LINE
  8
0
  5
48C22
 10
42.395422
 20
144.393272
 30
0.0
 11
42.395422
 21
142.914872
 31
0.0
  0
LINE
  8
0
  5
48C23
 10
65.852702
 20
142.422072
 30
0.0
 11
65.113502
 21
142.422072
 31
0.0
  0
LINE
  8
0
  5
48C24
 10
42.395422
 20
140.697272
 30
0.0
 11
42.395422
 21
141.190072
 31
0.0
  0
LINE
  8
0
  5
48C25
 10
59.298462
 20
140.697272
 30
0.0
 11
59.298462
 21
141.190072
 31
0.0
  0
LINE
  8
0
  5
48C26
 10
58.559262
 20
140.697272
 30
0.0
 11
58.559262
 21
141.190072
 31
0.0
  0
LINE
  8
0
  5
48C27
 10
62.107422
 20
172.482872
 30
0.0
 11
62.107422
 21
171.990072
 31
0.0
  0
LINE
  8
0
  5
48C28
 10
62.353822
 20
171.743672
 30
0.0
 11
64.867102
 21
171.743672
 31
0.0
  0
LINE
  8
0
  5
48C29
 10
62.353822
 20
172.729272
 30
0.0
 11
64.374302
 21
172.729272
 31
0.0
  0
LINE
  8
0
  5
48C2A
 10
58.312862
 20
172.975672
 30
0.0
 11
58.312862
 21
175.193272
 31
0.0
  0
LINE
  8
0
  5
48C2B
 10
59.298462
 20
173.222072
 30
0.0
 11
59.298462
 21
175.193272
 31
0.0
  0
LINE
  8
0
  5
48C2C
 10
65.852702
 20
176.918072
 30
0.0
 11
65.852702
 21
176.178872
 31
0.0
  0
LINE
  8
0
  5
48C2D
 10
66.838302
 20
176.918072
 30
0.0
 11
66.838302
 21
175.439672
 31
0.0
  0
LINE
  8
0
  5
48C2E
 10
66.345502
 20
174.946872
 30
0.0
 11
64.275742
 21
174.946872
 31
0.0
  0
LINE
  8
0
  5
48C2F
 10
61.516062
 20
171.004472
 30
0.0
 11
65.359902
 21
171.004472
 31
0.0
  0
LINE
  8
0
  5
48C30
 10
61.121822
 20
171.990072
 30
0.0
 11
59.298462
 21
171.990072
 31
0.0
  0
LINE
  8
0
  5
48C31
 10
65.852702
 20
171.990072
 30
0.0
 11
65.852702
 21
171.497272
 31
0.0
  0
LINE
  8
0
  5
48C32
 10
63.980062
 20
175.686072
 30
0.0
 11
59.791262
 21
175.686072
 31
0.0
  0
LINE
  8
0
  5
48C33
 10
64.620702
 20
176.671672
 30
0.0
 11
59.791262
 21
176.671672
 31
0.0
  0
LINE
  8
0
  5
48C34
 10
59.791262
 20
172.729272
 30
0.0
 11
61.121822
 21
172.729272
 31
0.0
  0
LINE
  8
0
  5
48C35
 10
61.368222
 20
171.743672
 30
0.0
 11
61.368222
 21
171.152312
 31
0.0
  0
LINE
  8
0
  5
48C36
 10
64.127902
 20
175.094712
 30
0.0
 11
64.127902
 21
175.538232
 31
0.0
  0
LINE
  8
0
  5
48C37
 10
65.359902
 20
175.932472
 30
0.0
 11
65.606302
 21
175.932472
 31
0.0
  0
LINE
  8
0
  5
48C38
 10
62.107422
 20
102.012472
 30
0.0
 11
62.107422
 21
101.519672
 31
0.0
  0
LINE
  8
0
  5
48C39
 10
64.867102
 20
102.258872
 30
0.0
 11
62.353822
 21
102.258872
 31
0.0
  0
LINE
  8
0
  5
48C3A
 10
64.374302
 20
101.273272
 30
0.0
 11
62.353822
 21
101.273272
 31
0.0
  0
LINE
  8
0
  5
48C3B
 10
58.312862
 20
98.809272
 30
0.0
 11
58.312862
 21
101.026872
 31
0.0
  0
LINE
  8
0
  5
48C3C
 10
59.298462
 20
98.809272
 30
0.0
 11
59.298462
 21
100.780472
 31
0.0
  0
LINE
  8
0
  5
48C3D
 10
65.852702
 20
97.823672
 30
0.0
 11
65.852702
 21
97.084472
 31
0.0
  0
LINE
  8
0
  5
48C3E
 10
66.838302
 20
98.562872
 30
0.0
 11
66.838302
 21
97.084472
 31
0.0
  0
LINE
  8
0
  5
48C3F
 10
65.359902
 20
102.998072
 30
0.0
 11
61.516062
 21
102.998072
 31
0.0
  0
LINE
  8
0
  5
48C40
 10
59.298462
 20
102.012472
 30
0.0
 11
61.121822
 21
102.012472
 31
0.0
  0
LINE
  8
0
  5
48C41
 10
65.852702
 20
102.505272
 30
0.0
 11
65.852702
 21
102.012472
 31
0.0
  0
LINE
  8
0
  5
48C42
 10
59.791262
 20
98.316472
 30
0.0
 11
63.980062
 21
98.316472
 31
0.0
  0
LINE
  8
0
  5
48C43
 10
59.791262
 20
97.330872
 30
0.0
 11
64.620702
 21
97.330872
 31
0.0
  0
LINE
  8
0
  5
48C44
 10
61.121822
 20
101.273272
 30
0.0
 11
59.791262
 21
101.273272
 31
0.0
  0
LINE
  8
0
  5
48C45
 10
61.368222
 20
102.850232
 30
0.0
 11
61.368222
 21
102.258872
 31
0.0
  0
LINE
  8
0
  5
48C46
 10
64.127902
 20
98.464312
 30
0.0
 11
64.127902
 21
98.907832
 31
0.0
  0
LINE
  8
0
  5
48C47
 10
65.606302
 20
98.070072
 30
0.0
 11
65.359902
 21
98.070072
 31
0.0
  0
LINE
  8
0
  5
48C48
 10
44.54333
 20
117.091426
 30
0.0
 11
44.864375
 21
117.412472
 31
0.0
  0
LINE
  8
0
  5
48C49
 10
44.294453
 20
117.340303
 30
0.0
 11
44.54333
 21
117.091426
 31
0.0
  0
LINE
  8
0
  5
48C4A
 10
43.873822
 20
116.180472
 30
0.0
 11
43.873822
 21
117.166072
 31
0.0
  0
LINE
  8
0
  5
48C4B
 10
45.235726
 20
116.947513
 30
0.0
 11
44.294453
 21
116.00624
 31
0.0
  0
LINE
  8
0
  5
48C4C
 10
42.838942
 20
118.200952
 30
0.0
 11
44.716535
 21
118.200952
 31
0.0
  0
LINE
  8
0
  5
48C4D
 10
42.888222
 20
117.412472
 30
0.0
 11
44.864375
 21
117.412472
 31
0.0
  0
LINE
  8
0
  5
48C4E
 10
44.864375
 20
119.876472
 30
0.0
 11
44.54333
 21
120.197517
 31
0.0
  0
LINE
  8
0
  5
48C4F
 10
44.54333
 20
120.197517
 30
0.0
 11
44.294453
 21
119.94864
 31
0.0
  0
LINE
  8
0
  5
48C50
 10
43.873822
 20
120.122872
 30
0.0
 11
43.873822
 21
121.108472
 31
0.0
  0
LINE
  8
0
  5
48C51
 10
44.294453
 20
121.282703
 30
0.0
 11
45.235726
 21
120.34143
 31
0.0
  0
LINE
  8
0
  5
48C52
 10
44.716535
 20
119.087992
 30
0.0
 11
42.838942
 21
119.087992
 31
0.0
  0
LINE
  8
0
  5
48C53
 10
44.864375
 20
119.876472
 30
0.0
 11
42.888222
 21
119.876472
 31
0.0
  0
LINE
  8
0
  5
48C54
 10
42.395422
 20
121.601272
 30
0.0
 11
42.395422
 21
120.369272
 31
0.0
  0
LINE
  8
0
  5
48C55
 10
42.395422
 20
115.687672
 30
0.0
 11
42.395422
 21
116.919672
 31
0.0
  0
LINE
  8
0
  5
48C56
 10
44.54333
 20
157.501026
 30
0.0
 11
44.864375
 21
157.822072
 31
0.0
  0
LINE
  8
0
  5
48C57
 10
44.294453
 20
157.749903
 30
0.0
 11
44.54333
 21
157.501026
 31
0.0
  0
LINE
  8
0
  5
48C58
 10
43.873822
 20
156.590072
 30
0.0
 11
43.873822
 21
157.575672
 31
0.0
  0
LINE
  8
0
  5
48C59
 10
45.235726
 20
157.357113
 30
0.0
 11
44.294453
 21
156.41584
 31
0.0
  0
LINE
  8
0
  5
48C5A
 10
42.838942
 20
158.610552
 30
0.0
 11
44.716535
 21
158.610552
 31
0.0
  0
LINE
  8
0
  5
48C5B
 10
42.888222
 20
157.822072
 30
0.0
 11
44.864375
 21
157.822072
 31
0.0
  0
LINE
  8
0
  5
48C5C
 10
44.864375
 20
160.286072
 30
0.0
 11
44.54333
 21
160.607117
 31
0.0
  0
LINE
  8
0
  5
48C5D
 10
44.54333
 20
160.607117
 30
0.0
 11
44.294453
 21
160.35824
 31
0.0
  0
LINE
  8
0
  5
48C5E
 10
43.873822
 20
160.532472
 30
0.0
 11
43.873822
 21
161.518072
 31
0.0
  0
LINE
  8
0
  5
48C5F
 10
44.294453
 20
161.692303
 30
0.0
 11
45.235726
 21
160.75103
 31
0.0
  0
LINE
  8
0
  5
48C60
 10
44.716535
 20
159.497592
 30
0.0
 11
42.838942
 21
159.497592
 31
0.0
  0
LINE
  8
0
  5
48C61
 10
44.864375
 20
160.286072
 30
0.0
 11
42.888222
 21
160.286072
 31
0.0
  0
LINE
  8
0
  5
48C62
 10
42.395422
 20
162.010872
 30
0.0
 11
42.395422
 21
160.778872
 31
0.0
  0
LINE
  8
0
  5
48C63
 10
42.395422
 20
156.097272
 30
0.0
 11
42.395422
 21
157.329272
 31
0.0
  0
LINE
  8
0
  5
48C64
 10
44.224667
 20
176.286217
 30
0.0
 11
42.482025
 21
174.543576
 31
0.0
  0
LINE
  8
0
  5
48C65
 10
42.395422
 20
173.961272
 30
0.0
 11
42.395422
 21
174.334498
 31
0.0
  0
LINE
  8
0
  5
48C66
 10
45.155102
 20
178.692152
 30
0.0
 11
44.021609
 21
178.692152
 31
0.0
  0
LINE
  8
0
  5
48C67
 10
41.645715
 20
175.379885
 30
0.0
 11
43.388357
 21
177.122527
 31
0.0
  0
LINE
  8
0
  5
48C68
 10
43.337326
 20
177.510146
 30
0.0
 11
42.567902
 21
177.954374
 31
0.0
  0
LINE
  8
0
  5
48C69
 10
41.212702
 20
174.334498
 30
0.0
 11
41.212702
 21
173.961272
 31
0.0
  0
LINE
  8
0
  5
48C6A
 10
44.072838
 20
179.874872
 30
0.0
 11
45.155102
 21
179.874872
 31
0.0
  0
LINE
  8
0
  5
48C6B
 10
43.333638
 20
179.676803
 30
0.0
 11
42.567902
 21
179.234706
 31
0.0
  0
LINE
  8
0
  5
48C6C
 10
59.791262
 20
139.711672
 30
0.0
 11
64.374302
 21
139.711672
 31
0.0
  0
LINE
  8
0
  5
48C6D
 10
59.298462
 20
136.508472
 30
0.0
 11
59.298462
 21
138.479672
 31
0.0
  0
LINE
  8
0
  5
48C6E
 10
63.980062
 20
138.972472
 30
0.0
 11
59.791262
 21
138.972472
 31
0.0
  0
LINE
  8
0
  5
48C6F
 10
58.312862
 20
136.262072
 30
0.0
 11
58.312862
 21
138.479672
 31
0.0
  0
LINE
  8
0
  5
48C70
 10
66.099102
 20
140.697272
 30
0.0
 11
66.099102
 21
139.218872
 31
0.0
  0
LINE
  8
0
  5
48C71
 10
66.838302
 20
140.697272
 30
0.0
 11
66.838302
 21
138.726072
 31
0.0
  0
LINE
  8
0
  5
48C72
 10
66.345502
 20
138.233272
 30
0.0
 11
64.275742
 21
138.233272
 31
0.0
  0
LINE
  8
0
  5
48C73
 10
61.121822
 20
135.276472
 30
0.0
 11
59.298462
 21
135.276472
 31
0.0
  0
LINE
  8
0
  5
48C74
 10
64.127902
 20
138.381112
 30
0.0
 11
64.127902
 21
138.824632
 31
0.0
  0
LINE
  8
0
  5
48C75
 10
42.888222
 20
138.972472
 30
0.0
 11
57.820062
 21
138.972472
 31
0.0
  0
LINE
  8
0
  5
48C76
 10
59.791262
 20
136.015672
 30
0.0
 11
61.121822
 21
136.015672
 31
0.0
  0
LINE
  8
0
  5
48C77
 10
61.368222
 20
135.030072
 30
0.0
 11
61.368222
 21
134.438712
 31
0.0
  0
LINE
  8
0
  5
48C78
 10
65.852702
 20
135.276472
 30
0.0
 11
65.852702
 21
134.783672
 31
0.0
  0
LINE
  8
0
  5
48C79
 10
61.516062
 20
134.290872
 30
0.0
 11
65.359902
 21
134.290872
 31
0.0
  0
LINE
  8
0
  5
48C7A
 10
62.353822
 20
136.015672
 30
0.0
 11
64.374302
 21
136.015672
 31
0.0
  0
LINE
  8
0
  5
48C7B
 10
62.353822
 20
135.030072
 30
0.0
 11
64.867102
 21
135.030072
 31
0.0
  0
LINE
  8
0
  5
48C7C
 10
62.107422
 20
135.769272
 30
0.0
 11
62.107422
 21
135.276472
 31
0.0
  0
LINE
  8
0
  5
48C7D
 10
42.888222
 20
139.711672
 30
0.0
 11
58.066462
 21
139.711672
 31
0.0
  0
LINE
  8
0
  5
48C7E
 10
42.395422
 20
138.479672
 30
0.0
 11
42.395422
 21
137.001272
 31
0.0
  0
LINE
  8
0
  5
48C7F
 10
65.113502
 20
138.972472
 30
0.0
 11
65.852702
 21
138.972472
 31
0.0
  0
LINE
  8
0
  5
48C80
 10
42.395422
 20
140.204472
 30
0.0
 11
42.395422
 21
140.697272
 31
0.0
  0
LINE
  8
0
  5
48C81
 10
59.298462
 20
140.204472
 30
0.0
 11
59.298462
 21
140.697272
 31
0.0
  0
LINE
  8
0
  5
48C82
 10
58.559262
 20
140.204472
 30
0.0
 11
58.559262
 21
140.697272
 31
0.0
  0
LINE
  8
0
  5
48C84
 10
65.359902
 20
138.233272
 30
0.0
 11
66.345502
 21
138.233272
 31
0.0
  0
LINE
  8
0
  5
48C88
 10
65.534089
 20
138.233272
 30
0.0
 11
66.519689
 21
138.233272
 31
0.0
  0
LINE
  8
0
  5
48C8F
 10
66.345502
 20
99.055672
 30
0.0
 11
65.359902
 21
99.055672
 31
0.0
  0
LINE
  8
0
  5
48C91
 10
65.359902
 20
99.055672
 30
0.0
 11
66.345502
 21
99.055672
 31
0.0
  0
LINE
  8
0
  5
48C95
 10
65.359902
 20
174.946872
 30
0.0
 11
66.345502
 21
174.946872
 31
0.0
  0
LINE
  8
0
  5
48CA1
 10
66.345502
 20
143.161272
 30
0.0
 11
65.359902
 21
143.161272
 31
0.0
  0
LINE
  8
0
  5
48CA8
 10
66.026889
 20
144.132919
 30
0.0
 11
66.026889
 21
173.975224
 31
0.0
  0
ARC
  8
0
  5
48CAF
 10
58.725845
 20
133.663939
 30
0.0
 40
9.324762
 50
0.0
 51
29.786946
  0
ARC
  8
0
  5
48CB0
 10
58.725845
 20
103.625005
 30
0.0
 40
9.324762
 50
330.213054
 51
0.0
  0
ARC
  8
0
  5
48CB1
 10
58.833634
 20
147.730605
 30
0.0
 40
9.324762
 50
330.213054
 51
0.0
  0
ARC
  8
0
  5
48CB2
 10
58.833634
 20
170.497965
 30
0.0
 40
9.324762
 50
0.0
 51
29.786946
  0
ARC
  8
0
  5
48CC2
 10
44.120222
 20
121.108472
 30
0.0
 40
0.2464
 50
90.0
 51
180.0
  0
ARC
  8
0
  5
48CC3
 10
44.120222
 20
116.180472
 30
0.0
 40
0.2464
 50
270.0
 51
315.0
  0
ARC
  8
0
  5
48CC4
 10
44.120222
 20
117.166072
 30
0.0
 40
0.2464
 50
45.0
 51
180.0
  0
ARC
  8
0
  5
48CC5
 10
44.120222
 20
116.180472
 30
0.0
 40
0.2464
 50
180.0
 51
270.0
  0
ARC
  8
0
  5
48CC6
 10
44.120222
 20
120.122872
 30
0.0
 40
0.2464
 50
180.0
 51
315.0
  0
ARC
  8
0
  5
48CC7
 10
44.120222
 20
121.108472
 30
0.0
 40
0.2464
 50
45.0
 51
90.0
  0
ARC
  8
0
  5
48CC8
 10
44.120222
 20
161.518072
 30
0.0
 40
0.2464
 50
45.0
 51
180.0
  0
ARC
  8
0
  5
48CC9
 10
44.120222
 20
156.590072
 30
0.0
 40
0.2464
 50
270.0
 51
315.0
  0
ARC
  8
0
  5
48CCA
 10
44.120222
 20
157.575672
 30
0.0
 40
0.2464
 50
45.0
 51
180.0
  0
ARC
  8
0
  5
48CCB
 10
44.120222
 20
156.590072
 30
0.0
 40
0.2464
 50
180.0
 51
270.0
  0
ARC
  8
0
  5
48CCC
 10
44.120222
 20
160.532472
 30
0.0
 40
0.2464
 50
180.0
 51
315.0
  0
ARC
  8
0
  5
48CD6
 10
66.519689
 20
137.740472
 30
0.0
 40
0.4928
 50
0.0
 51
90.0
  0
ARC
  8
0
  5
48CFF
 10
65.852702
 20
178.889272
 30
0.0
 40
0.9856
 50
0.0
 51
90.0
  0
ARC
  8
0
  5
48D00
 10
65.606302
 20
178.445752
 30
0.0
 40
0.2464
 50
0.0
 51
90.0
  0
ARC
  8
0
  5
48D01
 10
65.852702
 20
95.113272
 30
0.0
 40
0.9856
 50
270.0
 51
0.0
  0
ARC
  8
0
  5
48D02
 10
65.606302
 20
95.556792
 30
0.0
 40
0.2464
 50
270.0
 51
0.0
  0
ARC
  8
0
  5
48D03
 10
44.021609
 20
95.408952
 30
0.0
 40
0.09856
 50
121.908751
 51
270.0
  0
ARC
  8
0
  5
48D04
 10
43.214126
 20
96.705785
 30
0.0
 40
1.42912
 50
301.908751
 51
45.0
  0
ARC
  8
0
  5
48D05
 10
42.691102
 20
99.668045
 30
0.0
 40
0.29568
 50
180.0
 51
225.0
  0
ARC
  8
0
  5
48D06
 10
44.072838
 20
95.606072
 30
0.0
 40
1.4784
 50
240.0
 51
270.0
  0
ARC
  8
0
  5
48D07
 10
42.691102
 20
99.668045
 30
0.0
 40
1.4784
 50
180.0
 51
225.0
  0
ARC
  8
0
  5
48D08
 10
43.214126
 20
96.705785
 30
0.0
 40
0.2464
 50
300.0
 51
45.0
  0
ARC
  8
0
  5
48D09
 10
42.937502
 20
95.408003
 30
0.0
 40
0.7392
 50
120.0
 51
180.0
  0
ARC
  8
0
  5
48D0A
 10
42.937502
 20
95.408003
 30
0.0
 40
0.7392
 50
180.0
 51
240.0
  0
ARC
  8
0
  5
48D0B
 10
64.275742
 20
143.013432
 30
0.0
 40
0.14784
 50
90.0
 51
180.0
  0
ARC
  8
0
  5
48D0C
 10
63.980062
 20
142.569912
 30
0.0
 40
0.14784
 50
270.0
 51
0.0
  0
ARC
  8
0
  5
48D0D
 10
61.121822
 20
145.132472
 30
0.0
 40
0.2464
 50
0.0
 51
90.0
  0
ARC
  8
0
  5
48D0E
 10
61.861022
 20
145.132472
 30
0.0
 40
0.4928
 50
180.0
 51
270.0
  0
ARC
  8
0
  5
48D0F
 10
66.345502
 20
142.668472
 30
0.0
 40
0.4928
 50
0.0
 51
90.0
  0
ARC
  8
0
  5
48D10
 10
59.791262
 20
144.886072
 30
0.0
 40
0.4928
 50
90.0
 51
180.0
  0
ARC
  8
0
  5
48D11
 10
59.298462
 20
145.132472
 30
0.0
 40
0.9856
 50
90.0
 51
180.0
  0
ARC
  8
0
  5
48D12
 10
59.791262
 20
142.914872
 30
0.0
 40
0.4928
 50
180.0
 51
270.0
  0
ARC
  8
0
  5
48D13
 10
57.820062
 20
142.914872
 30
0.0
 40
0.4928
 50
270.0
 51
0.0
  0
ARC
  8
0
  5
48D14
 10
65.359902
 20
146.610872
 30
0.0
 40
0.4928
 50
0.0
 51
90.0
  0
ARC
  8
0
  5
48D15
 10
61.516062
 20
146.955832
 30
0.0
 40
0.14784
 50
90.0
 51
180.0
  0
ARC
  8
0
  5
48D16
 10
61.121822
 20
146.364472
 30
0.0
 40
0.2464
 50
270.0
 51
0.0
  0
ARC
  8
0
  5
48D17
 10
64.374302
 20
146.118072
 30
0.0
 40
1.4784
 50
270.0
 51
0.0
  0
ARC
  8
0
  5
48D18
 10
64.374302
 20
146.118072
 30
0.0
 40
0.7392
 50
270.0
 51
0.0
  0
ARC
  8
0
  5
48D19
 10
62.353822
 20
145.625272
 30
0.0
 40
0.2464
 50
180.0
 51
270.0
  0
ARC
  8
0
  5
48D1A
 10
62.353822
 20
146.118072
 30
0.0
 40
0.2464
 50
90.0
 51
180.0
  0
ARC
  8
0
  5
48D1B
 10
64.867102
 20
146.118072
 30
0.0
 40
0.2464
 50
0.0
 51
90.0
  0
ARC
  8
0
  5
48D1C
 10
42.888222
 20
142.914872
 30
0.0
 40
0.4928
 50
180.0
 51
270.0
  0
ARC
  8
0
  5
48D1D
 10
65.852702
 20
142.175672
 30
0.0
 40
0.2464
 50
0.0
 51
90.0
  0
ARC
  8
0
  5
48D1E
 10
42.888222
 20
141.190072
 30
0.0
 40
0.4928
 50
90.0
 51
180.0
  0
ARC
  8
0
  5
48D1F
 10
59.791262
 20
141.190072
 30
0.0
 40
0.4928
 50
90.0
 51
180.0
  0
ARC
  8
0
  5
48D20
 10
58.066462
 20
141.190072
 30
0.0
 40
0.4928
 50
0.0
 51
90.0
  0
ARC
  8
0
  5
48D21
 10
65.113502
 20
142.175672
 30
0.0
 40
0.2464
 50
90.0
 51
180.0
  0
ARC
  8
0
  5
48D22
 10
64.374302
 20
142.175672
 30
0.0
 40
0.4928
 50
270.0
 51
0.0
  0
ARC
  8
0
  5
48D23
 10
63.980062
 20
175.538232
 30
0.0
 40
0.14784
 50
0.0
 51
90.0
  0
ARC
  8
0
  5
48D24
 10
64.275742
 20
175.094712
 30
0.0
 40
0.14784
 50
180.0
 51
270.0
  0
ARC
  8
0
  5
48D25
 10
61.121822
 20
172.975672
 30
0.0
 40
0.2464
 50
270.0
 51
0.0
  0
ARC
  8
0
  5
48D26
 10
61.861022
 20
172.975672
 30
0.0
 40
0.4928
 50
90.0
 51
180.0
  0
ARC
  8
0
  5
48D27
 10
64.867102
 20
171.990072
 30
0.0
 40
0.2464
 50
270.0
 51
0.0
  0
ARC
  8
0
  5
48D28
 10
62.353822
 20
171.990072
 30
0.0
 40
0.2464
 50
180.0
 51
270.0
  0
ARC
  8
0
  5
48D29
 10
62.353822
 20
172.482872
 30
0.0
 40
0.2464
 50
90.0
 51
180.0
  0
ARC
  8
0
  5
48D2A
 10
64.374302
 20
171.990072
 30
0.0
 40
0.7392
 50
0.0
 51
90.0
  0
ARC
  8
0
  5
48D2B
 10
64.374302
 20
171.990072
 30
0.0
 40
1.4784
 50
0.0
 51
90.0
  0
ARC
  8
0
  5
48D2C
 10
61.121822
 20
171.743672
 30
0.0
 40
0.2464
 50
0.0
 51
90.0
  0
ARC
  8
0
  5
48D2D
 10
61.516062
 20
171.152312
 30
0.0
 40
0.14784
 50
180.0
 51
270.0
  0
ARC
  8
0
  5
48D2E
 10
65.359902
 20
171.497272
 30
0.0
 40
0.4928
 50
270.0
 51
0.0
  0
ARC
  8
0
  5
48D2F
 10
66.345502
 20
175.439672
 30
0.0
 40
0.4928
 50
270.0
 51
0.0
  0
ARC
  8
0
  5
48D30
 10
59.791262
 20
175.193272
 30
0.0
 40
0.4928
 50
90.0
 51
180.0
  0
ARC
  8
0
  5
48D31
 10
59.791262
 20
173.222072
 30
0.0
 40
0.4928
 50
180.0
 51
270.0
  0
ARC
  8
0
  5
48D32
 10
59.791262
 20
175.193272
 30
0.0
 40
1.4784
 50
90.0
 51
180.0
  0
ARC
  8
0
  5
48D33
 10
59.298462
 20
172.975672
 30
0.0
 40
0.9856
 50
180.0
 51
270.0
  0
ARC
  8
0
  5
48D34
 10
65.359902
 20
176.178872
 30
0.0
 40
0.2464
 50
180.0
 51
270.0
  0
ARC
  8
0
  5
48D35
 10
65.606302
 20
176.178872
 30
0.0
 40
0.2464
 50
270.0
 51
0.0
  0
ARC
  8
0
  5
48D36
 10
64.620702
 20
176.178872
 30
0.0
 40
0.4928
 50
0.0
 51
90.0
  0
ARC
  8
0
  5
48D37
 10
63.980062
 20
98.464312
 30
0.0
 40
0.14784
 50
270.0
 51
0.0
  0
ARC
  8
0
  5
48D38
 10
64.275742
 20
98.907832
 30
0.0
 40
0.14784
 50
90.0
 51
180.0
  0
ARC
  8
0
  5
48D39
 10
61.121822
 20
101.026872
 30
0.0
 40
0.2464
 50
0.0
 51
90.0
  0
ARC
  8
0
  5
48D3A
 10
61.861022
 20
101.026872
 30
0.0
 40
0.4928
 50
180.0
 51
270.0
  0
ARC
  8
0
  5
48D3B
 10
64.867102
 20
102.012472
 30
0.0
 40
0.2464
 50
0.0
 51
90.0
  0
ARC
  8
0
  5
48D3C
 10
62.353822
 20
102.012472
 30
0.0
 40
0.2464
 50
90.0
 51
180.0
  0
ARC
  8
0
  5
48D3D
 10
62.353822
 20
101.519672
 30
0.0
 40
0.2464
 50
180.0
 51
270.0
  0
ARC
  8
0
  5
48D3E
 10
64.374302
 20
102.012472
 30
0.0
 40
0.7392
 50
270.0
 51
0.0
  0
ARC
  8
0
  5
48D3F
 10
64.374302
 20
102.012472
 30
0.0
 40
1.4784
 50
270.0
 51
0.0
  0
ARC
  8
0
  5
48D40
 10
61.121822
 20
102.258872
 30
0.0
 40
0.2464
 50
270.0
 51
0.0
  0
ARC
  8
0
  5
48D41
 10
61.516062
 20
102.850232
 30
0.0
 40
0.14784
 50
90.0
 51
180.0
  0
ARC
  8
0
  5
48D42
 10
65.359902
 20
102.505272
 30
0.0
 40
0.4928
 50
0.0
 51
90.0
  0
ARC
  8
0
  5
48D43
 10
66.345502
 20
98.562872
 30
0.0
 40
0.4928
 50
0.0
 51
90.0
  0
ARC
  8
0
  5
48D44
 10
59.791262
 20
98.809272
 30
0.0
 40
0.4928
 50
180.0
 51
270.0
  0
ARC
  8
0
  5
48D45
 10
59.791262
 20
100.780472
 30
0.0
 40
0.4928
 50
90.0
 51
180.0
  0
ARC
  8
0
  5
48D46
 10
59.791262
 20
98.809272
 30
0.0
 40
1.4784
 50
180.0
 51
270.0
  0
ARC
  8
0
  5
48D47
 10
59.298462
 20
101.026872
 30
0.0
 40
0.9856
 50
90.0
 51
180.0
  0
ARC
  8
0
  5
48D48
 10
65.359902
 20
97.823672
 30
0.0
 40
0.2464
 50
90.0
 51
180.0
  0
ARC
  8
0
  5
48D49
 10
65.606302
 20
97.823672
 30
0.0
 40
0.2464
 50
0.0
 51
90.0
  0
ARC
  8
0
  5
48D4A
 10
64.620702
 20
97.823672
 30
0.0
 40
0.4928
 50
270.0
 51
0.0
  0
ARC
  8
0
  5
48D4B
 10
42.838942
 20
118.644472
 30
0.0
 40
0.44352
 50
180.0
 51
270.0
  0
ARC
  8
0
  5
48D4C
 10
42.888222
 20
120.369272
 30
0.0
 40
0.4928
 50
180.0
 51
270.0
  0
ARC
  8
0
  5
48D4D
 10
42.888222
 20
116.919672
 30
0.0
 40
0.4928
 50
90.0
 51
180.0
  0
ARC
  8
0
  5
48D4E
 10
42.838942
 20
118.644472
 30
0.0
 40
0.44352
 50
90.0
 51
180.0
  0
ARC
  8
0
  5
48D4F
 10
44.716535
 20
119.822239
 30
0.0
 40
0.734247
 50
270.0
 51
0.0
  0
ARC
  8
0
  5
48D50
 10
44.716535
 20
117.466704
 30
0.0
 40
0.734247
 50
315.0
 51
90.0
  0
ARC
  8
0
  5
48D51
 10
44.716535
 20
119.822239
 30
0.0
 40
0.734247
 50
0.0
 51
45.0
  0
ARC
  8
0
  5
48D52
 10
42.838942
 20
159.054072
 30
0.0
 40
0.44352
 50
180.0
 51
270.0
  0
ARC
  8
0
  5
48D53
 10
42.888222
 20
160.778872
 30
0.0
 40
0.4928
 50
180.0
 51
270.0
  0
ARC
  8
0
  5
48D54
 10
42.888222
 20
157.329272
 30
0.0
 40
0.4928
 50
90.0
 51
180.0
  0
ARC
  8
0
  5
48D55
 10
42.838942
 20
159.054072
 30
0.0
 40
0.44352
 50
90.0
 51
180.0
  0
ARC
  8
0
  5
48D56
 10
44.716535
 20
160.231839
 30
0.0
 40
0.734247
 50
270.0
 51
0.0
  0
ARC
  8
0
  5
48D57
 10
44.716535
 20
157.876304
 30
0.0
 40
0.734247
 50
315.0
 51
90.0
  0
ARC
  8
0
  5
48D58
 10
44.716535
 20
160.231839
 30
0.0
 40
0.734247
 50
0.0
 51
45.0
  0
ARC
  8
0
  5
48D59
 10
44.021609
 20
178.593592
 30
0.0
 40
0.09856
 50
90.0
 51
238.091249
  0
ARC
  8
0
  5
48D5A
 10
43.214126
 20
177.296758
 30
0.0
 40
1.42912
 50
315.0
 51
58.091249
  0
ARC
  8
0
  5
48D5B
 10
42.691102
 20
174.334498
 30
0.0
 40
0.29568
 50
135.0
 51
180.0
  0
ARC
  8
0
  5
48D5C
 10
44.072838
 20
178.396472
 30
0.0
 40
1.4784
 50
90.0
 51
120.0
  0
ARC
  8
0
  5
48D5D
 10
42.691102
 20
174.334498
 30
0.0
 40
1.4784
 50
135.0
 51
180.0
  0
ARC
  8
0
  5
48D5E
 10
43.214126
 20
177.296758
 30
0.0
 40
0.2464
 50
315.0
 51
60.0
  0
ARC
  8
0
  5
48D5F
 10
42.937502
 20
178.59454
 30
0.0
 40
0.7392
 50
180.0
 51
240.0
  0
ARC
  8
0
  5
48D60
 10
42.937502
 20
178.59454
 30
0.0
 40
0.7392
 50
120.0
 51
180.0
  0
ARC
  8
0
  5
48D61
 10
64.275742
 20
138.381112
 30
0.0
 40
0.14784
 50
180.0
 51
270.0
  0
ARC
  8
0
  5
48D62
 10
63.980062
 20
138.824632
 30
0.0
 40
0.14784
 50
0.0
 51
90.0
  0
ARC
  8
0
  5
48D63
 10
61.121822
 20
136.262072
 30
0.0
 40
0.2464
 50
270.0
 51
0.0
  0
ARC
  8
0
  5
48D64
 10
61.861022
 20
136.262072
 30
0.0
 40
0.4928
 50
90.0
 51
180.0
  0
ARC
  8
0
  5
48D65
 10
66.345502
 20
138.726072
 30
0.0
 40
0.4928
 50
270.0
 51
0.0
  0
ARC
  8
0
  5
48D66
 10
59.791262
 20
136.508472
 30
0.0
 40
0.4928
 50
180.0
 51
270.0
  0
ARC
  8
0
  5
48D67
 10
59.298462
 20
136.262072
 30
0.0
 40
0.9856
 50
180.0
 51
270.0
  0
ARC
  8
0
  5
48D68
 10
59.791262
 20
138.479672
 30
0.0
 40
0.4928
 50
90.0
 51
180.0
  0
ARC
  8
0
  5
48D69
 10
57.820062
 20
138.479672
 30
0.0
 40
0.4928
 50
0.0
 51
90.0
  0
ARC
  8
0
  5
48D6A
 10
65.359902
 20
134.783672
 30
0.0
 40
0.4928
 50
270.0
 51
0.0
  0
ARC
  8
0
  5
48D6B
 10
61.516062
 20
134.438712
 30
0.0
 40
0.14784
 50
180.0
 51
270.0
  0
ARC
  8
0
  5
48D6C
 10
61.121822
 20
135.030072
 30
0.0
 40
0.2464
 50
0.0
 51
90.0
  0
ARC
  8
0
  5
48D6D
 10
64.374302
 20
135.276472
 30
0.0
 40
1.4784
 50
0.0
 51
90.0
  0
ARC
  8
0
  5
48D6E
 10
64.374302
 20
135.276472
 30
0.0
 40
0.7392
 50
0.0
 51
90.0
  0
ARC
  8
0
  5
48D6F
 10
62.353822
 20
135.769272
 30
0.0
 40
0.2464
 50
90.0
 51
180.0
  0
ARC
  8
0
  5
48D70
 10
62.353822
 20
135.276472
 30
0.0
 40
0.2464
 50
180.0
 51
270.0
  0
ARC
  8
0
  5
48D71
 10
64.867102
 20
135.276472
 30
0.0
 40
0.2464
 50
270.0
 51
0.0
  0
ARC
  8
0
  5
48D72
 10
42.888222
 20
138.479672
 30
0.0
 40
0.4928
 50
90.0
 51
180.0
  0
ARC
  8
0
  5
48D73
 10
65.852702
 20
139.218872
 30
0.0
 40
0.2464
 50
270.0
 51
0.0
  0
ARC
  8
0
  5
48D74
 10
42.888222
 20
140.204472
 30
0.0
 40
0.4928
 50
180.0
 51
270.0
  0
ARC
  8
0
  5
48D75
 10
59.791262
 20
140.204472
 30
0.0
 40
0.4928
 50
180.0
 51
270.0
  0
ARC
  8
0
  5
48D76
 10
58.066462
 20
140.204472
 30
0.0
 40
0.4928
 50
270.0
 51
0.0
  0
ARC
  8
0
  5
48D77
 10
65.113502
 20
139.218872
 30
0.0
 40
0.2464
 50
180.0
 51
270.0
  0
ARC
  8
0
  5
48D78
 10
64.374302
 20
139.218872
 30
0.0
 40
0.4928
 50
0.0
 51
90.0
  0
POLYLINE
  8
0
  5
48D79
 66
     1
 10
0.0
 20
0.0
 30
0.0
  0
VERTEX
  8
0
  5
48D7A
 10
61.305044
 20
103.065584
 30
0.0
  0
VERTEX
  8
0
  5
48D7B
 10
64.125507
 20
103.065584
 30
0.0
  0
VERTEX
  8
0
  5
48D7C
 10
64.125507
 20
103.063946
 30
0.0
  0
SEQEND
  8
0
  5
48D7D
  0
POLYLINE
  8
0
  5
48D7E
 66
     1
 10
0.0
 20
0.0
 30
0.0
  0
VERTEX
  8
0
  5
48D7F
 10
65.861681
 20
111.623609
 30
0.0
  0
VERTEX
  8
0
  5
48D80
 10
65.861681
 20
118.121156
 30
0.0
  0
VERTEX
  8
0
  5
48D81
 10
65.861681
 20
118.119518
 30
0.0
  0
SEQEND
  8
0
  5
48D82
  0
POLYLINE
  8
0
  5
48D83
 66
     1
 10
0.0
 20
0.0
 30
0.0
  0
VERTEX
  8
0
  5
48D84
 10
64.885493
 20
111.623609
 30
0.0
  0
VERTEX
  8
0
  5
48D85
 10
65.861681
 20
111.623609
 30
0.0
  0
VERTEX
  8
0
  5
48D86
 10
65.861681
 20
111.621971
 30
0.0
  0
SEQEND
  8
0
  5
48D87
  0
POLYLINE
  8
0
  5
48D88
 66
     1
 10
0.0
 20
0.0
 30
0.0
  0
VERTEX
  8
0
  5
48D89
 10
66.839507
 20
119.097344
 30
0.0
  0
VERTEX
  8
0
  5
48D8A
 10
65.861681
 20
119.097344
 30
0.0
  0
VERTEX
  8
0
  5
48D8B
 10
65.861681
 20
119.095706
 30
0.0
  0
SEQEND
  8
0
  5
48D8C
  0
POLYLINE
  8
0
  5
48D8D
 66
     1
 10
0.0
 20
0.0
 30
0.0
  0
VERTEX
  8
0
  5
48D8E
 10
66.839507
 20
118.121156
 30
0.0
  0
VERTEX
  8
0
  5
48D8F
 10
66.839507
 20
119.097344
 30
0.0
  0
VERTEX
  8
0
  5
48D90
 10
66.839507
 20
119.095706
 30
0.0
  0
SEQEND
  8
0
  5
48D91
  0
POLYLINE
  8
0
  5
48D92
 66
     1
 10
0.0
 20
0.0
 30
0.0
  0
VERTEX
  8
0
  5
48D93
 10
65.861681
 20
118.121156
 30
0.0
  0
VERTEX
  8
0
  5
48D94
 10
66.839507
 20
118.121156
 30
0.0
  0
VERTEX
  8
0
  5
48D95
 10
66.839507
 20
118.119518
 30
0.0
  0
SEQEND
  8
0
  5
48D96
  0
POLYLINE
  8
0
  5
48D97
 66
     1
 10
0.0
 20
0.0
 30
0.0
  0
VERTEX
  8
0
  5
48D98
 10
64.885493
 20
125.70463
 30
0.0
  0
VERTEX
  8
0
  5
48D99
 10
64.885493
 20
111.623609
 30
0.0
  0
VERTEX
  8
0
  5
48D9A
 10
64.885493
 20
111.621971
 30
0.0
  0
SEQEND
  8
0
  5
48D9B
  0
POLYLINE
  8
0
  5
48D9C
 66
     1
 10
0.0
 20
0.0
 30
0.0
  0
VERTEX
  8
0
  5
48D9D
 10
65.861681
 20
119.097344
 30
0.0
  0
VERTEX
  8
0
  5
48D9E
 10
65.861681
 20
125.70463
 30
0.0
  0
VERTEX
  8
0
  5
48D9F
 10
65.861681
 20
125.702992
 30
0.0
  0
SEQEND
  8
0
  5
48DA0
  0
POLYLINE
  8
0
  5
48DA1
 66
     1
 10
0.0
 20
0.0
 30
0.0
  0
VERTEX
  8
0
  5
48DA2
 10
48.499947
 20
109.348566
 30
0.0
  0
VERTEX
  8
0
  5
48DA3
 10
58.808886
 20
109.456668
 30
0.0
  0
VERTEX
  8
0
  5
48DA4
 10
58.808886
 20
109.45503
 30
0.0
  0
SEQEND
  8
0
  5
48DA5
  0
POLYLINE
  8
0
  5
48DA6
 66
     1
 10
0.0
 20
0.0
 30
0.0
  0
VERTEX
  8
0
  5
48DA7
 10
48.499947
 20
108.806422
 30
0.0
  0
VERTEX
  8
0
  5
48DA8
 10
48.499947
 20
109.348566
 30
0.0
  0
VERTEX
  8
0
  5
48DA9
 10
48.499947
 20
109.346928
 30
0.0
  0
SEQEND
  8
0
  5
48DAA
  0
POLYLINE
  8
0
  5
48DAB
 66
     1
 10
0.0
 20
0.0
 30
0.0
  0
VERTEX
  8
0
  5
48DAC
 10
48.499947
 20
109.348566
 30
0.0
  0
VERTEX
  8
0
  5
48DAD
 10
58.808886
 20
109.456668
 30
0.0
  0
VERTEX
  8
0
  5
48DAE
 10
58.808886
 20
109.45503
 30
0.0
  0
SEQEND
  8
0
  5
48DAF
  0
POLYLINE
  8
0
  5
48DB0
 66
     1
 10
0.0
 20
0.0
 30
0.0
  0
VERTEX
  8
0
  5
48DB1
 10
58.808886
 20
114.65536
 30
0.0
  0
VERTEX
  8
0
  5
48DB2
 10
48.499947
 20
114.871563
 30
0.0
  0
VERTEX
  8
0
  5
48DB3
 10
48.499947
 20
114.869925
 30
0.0
  0
SEQEND
  8
0
  5
48DB4
  0
POLYLINE
  8
0
  5
48DB5
 66
     1
 10
0.0
 20
0.0
 30
0.0
  0
VERTEX
  8
0
  5
48DB6
 10
58.808886
 20
109.456668
 30
0.0
  0
VERTEX
  8
0
  5
48DB7
 10
58.808886
 20
114.65536
 30
0.0
  0
VERTEX
  8
0
  5
48DB8
 10
58.808886
 20
114.653722
 30
0.0
  0
SEQEND
  8
0
  5
48DB9
  0
POLYLINE
  8
0
  5
48DBA
 66
     1
 10
0.0
 20
0.0
 30
0.0
  0
VERTEX
  8
0
  5
48DBB
 10
45.787585
 20
115.413708
 30
0.0
  0
VERTEX
  8
0
  5
48DBC
 10
45.787585
 20
108.806422
 30
0.0
  0
VERTEX
  8
0
  5
48DBD
 10
45.787585
 20
108.804784
 30
0.0
  0
SEQEND
  8
0
  5
48DBE
  0
POLYLINE
  8
0
  5
48DBF
 66
     1
 10
0.0
 20
0.0
 30
0.0
  0
VERTEX
  8
0
  5
48DC0
 10
48.499947
 20
115.305606
 30
0.0
  0
VERTEX
  8
0
  5
48DC1
 10
45.787585
 20
115.413708
 30
0.0
  0
VERTEX
  8
0
  5
48DC2
 10
45.787585
 20
115.41207
 30
0.0
  0
SEQEND
  8
0
  5
48DC3
  0
POLYLINE
  8
0
  5
48DC4
 66
     1
 10
0.0
 20
0.0
 30
0.0
  0
VERTEX
  8
0
  5
48DC5
 10
48.499947
 20
114.871563
 30
0.0
  0
VERTEX
  8
0
  5
48DC6
 10
48.499947
 20
115.305606
 30
0.0
  0
VERTEX
  8
0
  5
48DC7
 10
48.499947
 20
115.303969
 30
0.0
  0
SEQEND
  8
0
  5
48DC8
  0
POLYLINE
  8
0
  5
48DC9
 66
     1
 10
0.0
 20
0.0
 30
0.0
  0
VERTEX
  8
0
  5
48DCA
 10
66.839507
 20
138.160855
 30
0.0
  0
VERTEX
  8
0
  5
48DCB
 10
66.405463
 20
138.160855
 30
0.0
  0
VERTEX
  8
0
  5
48DCC
 10
66.405463
 20
138.159217
 30
0.0
  0
SEQEND
  8
0
  5
48DCD
  0
POLYLINE
  8
0
  5
48DCE
 66
     1
 10
0.0
 20
0.0
 30
0.0
  0
VERTEX
  8
0
  5
48DCF
 10
64.885493
 20
138.160855
 30
0.0
  0
VERTEX
  8
0
  5
48DD0
 10
66.839507
 20
138.160855
 30
0.0
  0
VERTEX
  8
0
  5
48DD1
 10
66.839507
 20
138.159217
 30
0.0
  0
SEQEND
  8
0
  5
48DD2
  0
POLYLINE
  8
0
  5
48DD3
 66
     1
 10
0.0
 20
0.0
 30
0.0
  0
VERTEX
  8
0
  5
48DD4
 10
66.405463
 20
138.160855
 30
0.0
  0
VERTEX
  8
0
  5
48DD5
 10
63.475261
 20
138.160855
 30
0.0
  0
VERTEX
  8
0
  5
48DD6
 10
63.475261
 20
138.159217
 30
0.0
  0
SEQEND
  8
0
  5
48DD7
  0
POLYLINE
  8
0
  5
48DD8
 66
     1
 10
0.0
 20
0.0
 30
0.0
  0
VERTEX
  8
0
  5
48DD9
 10
66.839507
 20
134.261016
 30
0.0
  0
VERTEX
  8
0
  5
48DDA
 10
66.839507
 20
138.160855
 30
0.0
  0
VERTEX
  8
0
  5
48DDB
 10
66.839507
 20
138.159217
 30
0.0
  0
SEQEND
  8
0
  5
48DDC
  0
POLYLINE
  8
0
  5
48DDD
 66
     1
 10
0.0
 20
0.0
 30
0.0
  0
VERTEX
  8
0
  5
48DDE
 10
66.839507
 20
138.160855
 30
0.0
  0
VERTEX
  8
0
  5
48DDF
 10
66.405463
 20
138.160855
 30
0.0
  0
VERTEX
  8
0
  5
48DE0
 10
66.405463
 20
138.159217
 30
0.0
  0
SEQEND
  8
0
  5
48DE1
  0
POLYLINE
  8
0
  5
48DE2
 66
     1
 10
0.0
 20
0.0
 30
0.0
  0
VERTEX
  8
0
  5
48DE3
 10
65.861681
 20
137.186305
 30
0.0
  0
VERTEX
  8
0
  5
48DE4
 10
65.861681
 20
134.261016
 30
0.0
  0
VERTEX
  8
0
  5
48DE5
 10
65.861681
 20
134.259379
 30
0.0
  0
SEQEND
  8
0
  5
48DE6
  0
POLYLINE
  8
0
  5
48DE7
 66
     1
 10
0.0
 20
0.0
 30
0.0
  0
VERTEX
  8
0
  5
48DE8
 10
63.475261
 20
138.160855
 30
0.0
  0
VERTEX
  8
0
  5
48DE9
 10
63.475261
 20
137.186305
 30
0.0
  0
VERTEX
  8
0
  5
48DEA
 10
63.475261
 20
137.184667
 30
0.0
  0
SEQEND
  8
0
  5
48DEB
  0
POLYLINE
  8
0
  5
48DEC
 66
     1
 10
0.0
 20
0.0
 30
0.0
  0
VERTEX
  8
0
  5
48DED
 10
65.861681
 20
134.261016
 30
0.0
  0
VERTEX
  8
0
  5
48DEE
 10
66.295724
 20
134.261016
 30
0.0
  0
VERTEX
  8
0
  5
48DEF
 10
66.295724
 20
134.259379
 30
0.0
  0
SEQEND
  8
0
  5
48DF0
  0
POLYLINE
  8
0
  5
48DF1
 66
     1
 10
0.0
 20
0.0
 30
0.0
  0
VERTEX
  8
0
  5
48DF2
 10
65.861681
 20
137.186305
 30
0.0
  0
VERTEX
  8
0
  5
48DF3
 10
65.861681
 20
134.261016
 30
0.0
  0
VERTEX
  8
0
  5
48DF4
 10
65.861681
 20
134.259379
 30
0.0
  0
SEQEND
  8
0
  5
48DF5
  0
POLYLINE
  8
0
  5
48DF6
 66
     1
 10
0.0
 20
0.0
 30
0.0
  0
VERTEX
  8
0
  5
48DF7
 10
66.405463
 20
134.261016
 30
0.0
  0
VERTEX
  8
0
  5
48DF8
 10
66.405463
 20
138.160855
 30
0.0
  0
VERTEX
  8
0
  5
48DF9
 10
66.405463
 20
138.159217
 30
0.0
  0
SEQEND
  8
0
  5
48DFA
  0
POLYLINE
  8
0
  5
48DFB
 66
     1
 10
0.0
 20
0.0
 30
0.0
  0
VERTEX
  8
0
  5
48DFC
 10
66.405463
 20
138.160855
 30
0.0
  0
VERTEX
  8
0
  5
48DFD
 10
63.475261
 20
138.160855
 30
0.0
  0
VERTEX
  8
0
  5
48DFE
 10
63.475261
 20
138.159217
 30
0.0
  0
SEQEND
  8
0
  5
48DFF
  0
POLYLINE
  8
0
  5
48E00
 66
     1
 10
0.0
 20
0.0
 30
0.0
  0
VERTEX
  8
0
  5
48E01
 10
63.475261
 20
137.186305
 30
0.0
  0
VERTEX
  8
0
  5
48E02
 10
65.861681
 20
137.186305
 30
0.0
  0
VERTEX
  8
0
  5
48E03
 10
65.861681
 20
137.184667
 30
0.0
  0
SEQEND
  8
0
  5
48E04
  0
POLYLINE
  8
0
  5
48E05
 66
     1
 10
0.0
 20
0.0
 30
0.0
  0
VERTEX
  8
0
  5
48E06
 10
63.475261
 20
138.160855
 30
0.0
  0
VERTEX
  8
0
  5
48E07
 10
63.475261
 20
137.186305
 30
0.0
  0
VERTEX
  8
0
  5
48E08
 10
63.475261
 20
137.184667
 30
0.0
  0
SEQEND
  8
0
  5
48E09
  0
POLYLINE
  8
0
  5
48E0A
 66
     1
 10
0.0
 20
0.0
 30
0.0
  0
VERTEX
  8
0
  5
48E0B
 10
63.475261
 20
137.186305
 30
0.0
  0
VERTEX
  8
0
  5
48E0C
 10
65.861681
 20
137.186305
 30
0.0
  0
VERTEX
  8
0
  5
48E0D
 10
65.861681
 20
137.184667
 30
0.0
  0
SEQEND
  8
0
  5
48E0E
  0
POLYLINE
  8
0
  5
48E0F
 66
     1
 10
0.0
 20
0.0
 30
0.0
  0
VERTEX
  8
0
  5
48E10
 10
65.861681
 20
134.261016
 30
0.0
  0
VERTEX
  8
0
  5
48E11
 10
55.44464
 20
134.044814
 30
0.0
  0
VERTEX
  8
0
  5
48E12
 10
55.44464
 20
134.043176
 30
0.0
  0
SEQEND
  8
0
  5
48E13
  0
POLYLINE
  8
0
  5
48E14
 66
     1
 10
0.0
 20
0.0
 30
0.0
  0
VERTEX
  8
0
  5
48E15
 10
45.787585
 20
133.936712
 30
0.0
  0
VERTEX
  8
0
  5
48E16
 10
58.592683
 20
134.152915
 30
0.0
  0
VERTEX
  8
0
  5
48E17
 10
58.592683
 20
134.151277
 30
0.0
  0
SEQEND
  8
0
  5
48E18
  0
POLYLINE
  8
0
  5
48E19
 66
     1
 10
0.0
 20
0.0
 30
0.0
  0
VERTEX
  8
0
  5
48E1A
 10
64.885493
 20
134.261016
 30
0.0
  0
VERTEX
  8
0
  5
48E1B
 10
45.787585
 20
133.936712
 30
0.0
  0
VERTEX
  8
0
  5
48E1C
 10
45.787585
 20
133.935074
 30
0.0
  0
SEQEND
  8
0
  5
48E1D
  0
POLYLINE
  8
0
  5
48E23
 66
     1
 10
0.0
 20
0.0
 30
0.0
  0
VERTEX
  8
0
  5
48E24
 10
65.861681
 20
134.261016
 30
0.0
  0
VERTEX
  8
0
  5
48E25
 10
66.295724
 20
134.261016
 30
0.0
  0
VERTEX
  8
0
  5
48E26
 10
66.295724
 20
134.259379
 30
0.0
  0
SEQEND
  8
0
  5
48E27
  0
POLYLINE
  8
0
  5
48E28
 66
     1
 10
0.0
 20
0.0
 30
0.0
  0
VERTEX
  8
0
  5
48E29
 10
66.839507
 20
134.261016
 30
0.0
  0
VERTEX
  8
0
  5
48E2A
 10
64.885493
 20
134.261016
 30
0.0
  0
VERTEX
  8
0
  5
48E2B
 10
64.885493
 20
134.259379
 30
0.0
  0
SEQEND
  8
0
  5
48E2C
  0
POLYLINE
  8
0
  5
48E2D
 66
     1
 10
0.0
 20
0.0
 30
0.0
  0
VERTEX
  8
0
  5
48E2E
 10
64.885493
 20
103.065584
 30
0.0
  0
VERTEX
  8
0
  5
48E2F
 10
66.839507
 20
103.065584
 30
0.0
  0
VERTEX
  8
0
  5
48E30
 10
66.839507
 20
103.063946
 30
0.0
  0
SEQEND
  8
0
  5
48E31
  0
POLYLINE
  8
0
  5
48E32
 66
     1
 10
0.0
 20
0.0
 30
0.0
  0
VERTEX
  8
0
  5
48E33
 10
61.521247
 20
103.173685
 30
0.0
  0
VERTEX
  8
0
  5
48E34
 10
55.44464
 20
103.281787
 30
0.0
  0
VERTEX
  8
0
  5
48E35
 10
55.44464
 20
103.280149
 30
0.0
  0
SEQEND
  8
0
  5
48E36
  0
POLYLINE
  8
0
  5
48E37
 66
     1
 10
0.0
 20
0.0
 30
0.0
  0
VERTEX
  8
0
  5
48E38
 10
65.861681
 20
103.065584
 30
0.0
  0
VERTEX
  8
0
  5
48E39
 10
65.861681
 20
103.063946
 30
0.0
  0
SEQEND
  8
0
  5
48E3A
  0
POLYLINE
  8
0
  5
48E3B
 66
     1
 10
0.0
 20
0.0
 30
0.0
  0
VERTEX
  8
0
  5
48E3C
 10
45.787585
 20
103.391526
 30
0.0
  0
VERTEX
  8
0
  5
48E3D
 10
64.885493
 20
103.065584
 30
0.0
  0
VERTEX
  8
0
  5
48E3E
 10
64.885493
 20
103.063946
 30
0.0
  0
SEQEND
  8
0
  5
48E3F
  0
POLYLINE
  8
0
  5
48E40
 66
     1
 10
0.0
 20
0.0
 30
0.0
  0
VERTEX
  8
0
  5
48E41
 10
48.499947
 20
122.020994
 30
0.0
  0
VERTEX
  8
0
  5
48E42
 10
48.499947
 20
122.455037
 30
0.0
  0
VERTEX
  8
0
  5
48E43
 10
48.499947
 20
122.453399
 30
0.0
  0
SEQEND
  8
0
  5
48E44
  0
POLYLINE
  8
0
  5
48E45
 66
     1
 10
0.0
 20
0.0
 30
0.0
  0
VERTEX
  8
0
  5
48E46
 10
58.808886
 20
122.67124
 30
0.0
  0
VERTEX
  8
0
  5
48E47
 10
58.808886
 20
127.869933
 30
0.0
  0
VERTEX
  8
0
  5
48E48
 10
58.808886
 20
127.868295
 30
0.0
  0
SEQEND
  8
0
  5
48E49
  0
POLYLINE
  8
0
  5
48E4A
 66
     1
 10
0.0
 20
0.0
 30
0.0
  0
VERTEX
  8
0
  5
48E4B
 10
48.499947
 20
122.455037
 30
0.0
  0
VERTEX
  8
0
  5
48E4C
 10
58.808886
 20
122.67124
 30
0.0
  0
VERTEX
  8
0
  5
48E4D
 10
58.808886
 20
122.669602
 30
0.0
  0
SEQEND
  8
0
  5
48E4E
  0
POLYLINE
  8
0
  5
48E4F
 66
     1
 10
0.0
 20
0.0
 30
0.0
  0
VERTEX
  8
0
  5
48E50
 10
58.808886
 20
127.869933
 30
0.0
  0
VERTEX
  8
0
  5
48E51
 10
48.499947
 20
127.978034
 30
0.0
  0
VERTEX
  8
0
  5
48E52
 10
48.499947
 20
127.976396
 30
0.0
  0
SEQEND
  8
0
  5
48E53
  0
POLYLINE
  8
0
  5
48E54
 66
     1
 10
0.0
 20
0.0
 30
0.0
  0
VERTEX
  8
0
  5
48E55
 10
45.787585
 20
128.520179
 30
0.0
  0
VERTEX
  8
0
  5
48E56
 10
45.787585
 20
121.912893
 30
0.0
  0
VERTEX
  8
0
  5
48E57
 10
45.787585
 20
121.911255
 30
0.0
  0
SEQEND
  8
0
  5
48E58
  0
POLYLINE
  8
0
  5
48E59
 66
     1
 10
0.0
 20
0.0
 30
0.0
  0
VERTEX
  8
0
  5
48E5A
 10
48.499947
 20
127.978034
 30
0.0
  0
VERTEX
  8
0
  5
48E5B
 10
48.499947
 20
128.520179
 30
0.0
  0
VERTEX
  8
0
  5
48E5C
 10
48.499947
 20
128.518541
 30
0.0
  0
SEQEND
  8
0
  5
48E5D
  0
POLYLINE
  8
0
  5
48E5E
 66
     1
 10
0.0
 20
0.0
 30
0.0
  0
VERTEX
  8
0
  5
48E5F
 10
48.499947
 20
122.455037
 30
0.0
  0
VERTEX
  8
0
  5
48E60
 10
58.808886
 20
122.67124
 30
0.0
  0
VERTEX
  8
0
  5
48E61
 10
58.808886
 20
122.669602
 30
0.0
  0
SEQEND
  8
0
  5
48E62
  0
POLYLINE
  8
0
  5
48E63
 66
     1
 10
0.0
 20
0.0
 30
0.0
  0
VERTEX
  8
0
  5
48E64
 10
59.242929
 20
122.237197
 30
0.0
  0
VERTEX
  8
0
  5
48E65
 10
45.787585
 20
121.912893
 30
0.0
  0
VERTEX
  8
0
  5
48E66
 10
45.787585
 20
121.911255
 30
0.0
  0
SEQEND
  8
0
  5
48E67
  0
POLYLINE
  8
0
  5
48E68
 66
     1
 10
0.0
 20
0.0
 30
0.0
  0
VERTEX
  8
0
  5
48E69
 10
59.242929
 20
128.303976
 30
0.0
  0
VERTEX
  8
0
  5
48E6A
 10
59.242929
 20
127.003484
 30
0.0
  0
VERTEX
  8
0
  5
48E6B
 10
59.242929
 20
127.001846
 30
0.0
  0
SEQEND
  8
0
  5
48E6C
  0
POLYLINE
  8
0
  5
48E6D
 66
     1
 10
0.0
 20
0.0
 30
0.0
  0
VERTEX
  8
0
  5
48E6E
 10
45.787585
 20
128.520179
 30
0.0
  0
VERTEX
  8
0
  5
48E6F
 10
59.242929
 20
128.303976
 30
0.0
  0
VERTEX
  8
0
  5
48E70
 10
59.242929
 20
128.302338
 30
0.0
  0
SEQEND
  8
0
  5
48E71
  0
POLYLINE
  8
0
  5
48E72
 66
     1
 10
0.0
 20
0.0
 30
0.0
  0
VERTEX
  8
0
  5
48E73
 10
45.787585
 20
133.936712
 30
0.0
  0
VERTEX
  8
0
  5
48E74
 10
45.787585
 20
128.520179
 30
0.0
  0
VERTEX
  8
0
  5
48E75
 10
45.787585
 20
128.518541
 30
0.0
  0
SEQEND
  8
0
  5
48E76
  0
POLYLINE
  8
0
  5
48E77
 66
     1
 10
0.0
 20
0.0
 30
0.0
  0
VERTEX
  8
0
  5
48E78
 10
64.885493
 20
134.261016
 30
0.0
  0
VERTEX
  8
0
  5
48E79
 10
45.787585
 20
133.936712
 30
0.0
  0
VERTEX
  8
0
  5
48E7A
 10
45.787585
 20
133.935074
 30
0.0
  0
SEQEND
  8
0
  5
48E7B
  0
POLYLINE
  8
0
  5
48E7C
 66
     1
 10
0.0
 20
0.0
 30
0.0
  0
VERTEX
  8
0
  5
48E7D
 10
65.861681
 20
127.111585
 30
0.0
  0
VERTEX
  8
0
  5
48E7E
 10
59.242929
 20
127.003484
 30
0.0
  0
VERTEX
  8
0
  5
48E7F
 10
59.242929
 20
127.001846
 30
0.0
  0
SEQEND
  8
0
  5
48E80
  0
POLYLINE
  8
0
  5
48E81
 66
     1
 10
0.0
 20
0.0
 30
0.0
  0
VERTEX
  8
0
  5
48E82
 10
65.861681
 20
127.111585
 30
0.0
  0
VERTEX
  8
0
  5
48E83
 10
65.861681
 20
128.954222
 30
0.0
  0
VERTEX
  8
0
  5
48E84
 10
65.861681
 20
128.952584
 30
0.0
  0
SEQEND
  8
0
  5
48E85
  0
POLYLINE
  8
0
  5
48E86
 66
     1
 10
0.0
 20
0.0
 30
0.0
  0
VERTEX
  8
0
  5
48E87
 10
64.885493
 20
128.954222
 30
0.0
  0
VERTEX
  8
0
  5
48E88
 10
64.885493
 20
127.111585
 30
0.0
  0
VERTEX
  8
0
  5
48E89
 10
64.885493
 20
127.109948
 30
0.0
  0
SEQEND
  8
0
  5
48E8A
  0
POLYLINE
  8
0
  5
48E8B
 66
     1
 10
0.0
 20
0.0
 30
0.0
  0
VERTEX
  8
0
  5
48E8C
 10
59.242929
 20
125.920833
 30
0.0
  0
VERTEX
  8
0
  5
48E8D
 10
65.861681
 20
126.028934
 30
0.0
  0
VERTEX
  8
0
  5
48E8E
 10
65.861681
 20
126.027296
 30
0.0
  0
SEQEND
  8
0
  5
48E8F
  0
POLYLINE
  8
0
  5
48E90
 66
     1
 10
0.0
 20
0.0
 30
0.0
  0
VERTEX
  8
0
  5
48E91
 10
59.242929
 20
127.003484
 30
0.0
  0
VERTEX
  8
0
  5
48E92
 10
59.242929
 20
125.920833
 30
0.0
  0
VERTEX
  8
0
  5
48E93
 10
59.242929
 20
125.919195
 30
0.0
  0
SEQEND
  8
0
  5
48E94
  0
POLYLINE
  8
0
  5
48E95
 66
     1
 10
0.0
 20
0.0
 30
0.0
  0
VERTEX
  8
0
  5
48E96
 10
65.861681
 20
126.028934
 30
0.0
  0
VERTEX
  8
0
  5
48E97
 10
65.861681
 20
127.111585
 30
0.0
  0
VERTEX
  8
0
  5
48E98
 10
65.861681
 20
127.109948
 30
0.0
  0
SEQEND
  8
0
  5
48E99
  0
POLYLINE
  8
0
  5
48E9A
 66
     1
 10
0.0
 20
0.0
 30
0.0
  0
VERTEX
  8
0
  5
48E9B
 10
59.242929
 20
124.946282
 30
0.0
  0
VERTEX
  8
0
  5
48E9C
 10
59.242929
 20
122.237197
 30
0.0
  0
VERTEX
  8
0
  5
48E9D
 10
59.242929
 20
122.235559
 30
0.0
  0
SEQEND
  8
0
  5
48E9E
  0
POLYLINE
  8
0
  5
48E9F
 66
     1
 10
0.0
 20
0.0
 30
0.0
  0
VERTEX
  8
0
  5
48EA0
 10
59.242929
 20
125.920833
 30
0.0
  0
VERTEX
  8
0
  5
48EA1
 10
59.242929
 20
124.946282
 30
0.0
  0
VERTEX
  8
0
  5
48EA2
 10
59.242929
 20
124.944645
 30
0.0
  0
SEQEND
  8
0
  5
48EA3
  0
POLYLINE
  8
0
  5
48EA4
 66
     1
 10
0.0
 20
0.0
 30
0.0
  0
VERTEX
  8
0
  5
48EA5
 10
59.242929
 20
127.003484
 30
0.0
  0
VERTEX
  8
0
  5
48EA6
 10
59.242929
 20
125.920833
 30
0.0
  0
VERTEX
  8
0
  5
48EA7
 10
59.242929
 20
125.919195
 30
0.0
  0
SEQEND
  8
0
  5
48EA8
  0
POLYLINE
  8
0
  5
48EA9
 66
     1
 10
0.0
 20
0.0
 30
0.0
  0
VERTEX
  8
0
  5
48EAA
 10
59.242929
 20
128.303976
 30
0.0
  0
VERTEX
  8
0
  5
48EAB
 10
59.242929
 20
127.003484
 30
0.0
  0
VERTEX
  8
0
  5
48EAC
 10
59.242929
 20
127.001846
 30
0.0
  0
SEQEND
  8
0
  5
48EAD
  0
POLYLINE
  8
0
  5
48EAE
 66
     1
 10
0.0
 20
0.0
 30
0.0
  0
VERTEX
  8
0
  5
48EAF
 10
66.839507
 20
104.040134
 30
0.0
  0
VERTEX
  8
0
  5
48EB0
 10
65.861681
 20
104.040134
 30
0.0
  0
VERTEX
  8
0
  5
48EB1
 10
65.861681
 20
104.038496
 30
0.0
  0
SEQEND
  8
0
  5
48EB2
  0
POLYLINE
  8
0
  5
48EB3
 66
     1
 10
0.0
 20
0.0
 30
0.0
  0
VERTEX
  8
0
  5
48EB4
 10
64.885493
 20
125.70463
 30
0.0
  0
VERTEX
  8
0
  5
48EB5
 10
64.885493
 20
111.623609
 30
0.0
  0
VERTEX
  8
0
  5
48EB6
 10
64.885493
 20
111.621971
 30
0.0
  0
SEQEND
  8
0
  5
48EB7
  0
POLYLINE
  8
0
  5
48EB8
 66
     1
 10
0.0
 20
0.0
 30
0.0
  0
VERTEX
  8
0
  5
48EB9
 10
48.499947
 20
108.806422
 30
0.0
  0
VERTEX
  8
0
  5
48EBA
 10
48.499947
 20
109.348566
 30
0.0
  0
VERTEX
  8
0
  5
48EBB
 10
48.499947
 20
109.346928
 30
0.0
  0
SEQEND
  8
0
  5
48EBC
  0
POLYLINE
  8
0
  5
48EBD
 66
     1
 10
0.0
 20
0.0
 30
0.0
  0
VERTEX
  8
0
  5
48EBE
 10
48.499947
 20
114.871563
 30
0.0
  0
VERTEX
  8
0
  5
48EBF
 10
48.499947
 20
115.305606
 30
0.0
  0
VERTEX
  8
0
  5
48EC0
 10
48.499947
 20
115.303969
 30
0.0
  0
SEQEND
  8
0
  5
48EC1
  0
POLYLINE
  8
0
  5
48EC2
 66
     1
 10
0.0
 20
0.0
 30
0.0
  0
VERTEX
  8
0
  5
48EC3
 10
45.787585
 20
103.391526
 30
0.0
  0
VERTEX
  8
0
  5
48EC4
 10
64.885493
 20
103.065584
 30
0.0
  0
VERTEX
  8
0
  5
48EC5
 10
64.885493
 20
103.063946
 30
0.0
  0
SEQEND
  8
0
  5
48EC6
  0
POLYLINE
  8
0
  5
48EC7
 66
     1
 10
0.0
 20
0.0
 30
0.0
  0
VERTEX
  8
0
  5
48EC8
 10
45.787585
 20
108.806422
 30
0.0
  0
VERTEX
  8
0
  5
48EC9
 10
45.787585
 20
103.391526
 30
0.0
  0
VERTEX
  8
0
  5
48ECA
 10
45.787585
 20
103.389888
 30
0.0
  0
SEQEND
  8
0
  5
48ECB
  0
POLYLINE
  8
0
  5
48ECC
 66
     1
 10
0.0
 20
0.0
 30
0.0
  0
VERTEX
  8
0
  5
48ECD
 10
59.242929
 20
109.022624
 30
0.0
  0
VERTEX
  8
0
  5
48ECE
 10
45.787585
 20
108.806422
 30
0.0
  0
VERTEX
  8
0
  5
48ECF
 10
45.787585
 20
108.804784
 30
0.0
  0
SEQEND
  8
0
  5
48ED0
  0
POLYLINE
  8
0
  5
48ED1
 66
     1
 10
0.0
 20
0.0
 30
0.0
  0
VERTEX
  8
0
  5
48ED2
 10
59.242929
 20
110.323116
 30
0.0
  0
VERTEX
  8
0
  5
48ED3
 10
59.242929
 20
109.022624
 30
0.0
  0
VERTEX
  8
0
  5
48ED4
 10
59.242929
 20
109.020986
 30
0.0
  0
SEQEND
  8
0
  5
48ED5
  0
POLYLINE
  8
0
  5
48ED6
 66
     1
 10
0.0
 20
0.0
 30
0.0
  0
VERTEX
  8
0
  5
48ED7
 10
65.861681
 20
110.215015
 30
0.0
  0
VERTEX
  8
0
  5
48ED8
 10
65.861681
 20
111.297667
 30
0.0
  0
VERTEX
  8
0
  5
48ED9
 10
65.861681
 20
111.296029
 30
0.0
  0
SEQEND
  8
0
  5
48EDA
  0
POLYLINE
  8
0
  5
48EDB
 66
     1
 10
0.0
 20
0.0
 30
0.0
  0
VERTEX
  8
0
  5
48EDC
 10
59.242929
 20
110.323116
 30
0.0
  0
VERTEX
  8
0
  5
48EDD
 10
65.861681
 20
110.215015
 30
0.0
  0
VERTEX
  8
0
  5
48EDE
 10
65.861681
 20
110.213377
 30
0.0
  0
SEQEND
  8
0
  5
48EDF
  0
POLYLINE
  8
0
  5
48EE0
 66
     1
 10
0.0
 20
0.0
 30
0.0
  0
VERTEX
  8
0
  5
48EE1
 10
59.242929
 20
111.405768
 30
0.0
  0
VERTEX
  8
0
  5
48EE2
 10
59.242929
 20
110.323116
 30
0.0
  0
VERTEX
  8
0
  5
48EE3
 10
59.242929
 20
110.321478
 30
0.0
  0
SEQEND
  8
0
  5
48EE4
  0
POLYLINE
  8
0
  5
48EE5
 66
     1
 10
0.0
 20
0.0
 30
0.0
  0
VERTEX
  8
0
  5
48EE6
 10
59.242929
 20
110.323116
 30
0.0
  0
VERTEX
  8
0
  5
48EE7
 10
59.242929
 20
109.022624
 30
0.0
  0
VERTEX
  8
0
  5
48EE8
 10
59.242929
 20
109.020986
 30
0.0
  0
SEQEND
  8
0
  5
48EE9
  0
POLYLINE
  8
0
  5
48EEA
 66
     1
 10
0.0
 20
0.0
 30
0.0
  0
VERTEX
  8
0
  5
48EEB
 10
59.242929
 20
111.405768
 30
0.0
  0
VERTEX
  8
0
  5
48EEC
 10
59.242929
 20
110.323116
 30
0.0
  0
VERTEX
  8
0
  5
48EED
 10
59.242929
 20
110.321478
 30
0.0
  0
SEQEND
  8
0
  5
48EEE
  0
POLYLINE
  8
0
  5
48EEF
 66
     1
 10
0.0
 20
0.0
 30
0.0
  0
VERTEX
  8
0
  5
48EF0
 10
59.242929
 20
112.380318
 30
0.0
  0
VERTEX
  8
0
  5
48EF1
 10
59.242929
 20
111.405768
 30
0.0
  0
VERTEX
  8
0
  5
48EF2
 10
59.242929
 20
111.40413
 30
0.0
  0
SEQEND
  8
0
  5
48EF3
  0
POLYLINE
  8
0
  5
48EF4
 66
     1
 10
0.0
 20
0.0
 30
0.0
  0
VERTEX
  8
0
  5
48EF5
 10
59.242929
 20
115.089404
 30
0.0
  0
VERTEX
  8
0
  5
48EF6
 10
59.242929
 20
112.380318
 30
0.0
  0
VERTEX
  8
0
  5
48EF7
 10
59.242929
 20
112.37868
 30
0.0
  0
SEQEND
  8
0
  5
48EF8
  0
POLYLINE
  8
0
  5
48EF9
 66
     1
 10
0.0
 20
0.0
 30
0.0
  0
VERTEX
  8
0
  5
48EFA
 10
59.242929
 20
109.022624
 30
0.0
  0
VERTEX
  8
0
  5
48EFB
 10
45.787585
 20
108.806422
 30
0.0
  0
VERTEX
  8
0
  5
48EFC
 10
45.787585
 20
108.804784
 30
0.0
  0
SEQEND
  8
0
  5
48EFD
  0
POLYLINE
  8
0
  5
48EFE
 66
     1
 10
0.0
 20
0.0
 30
0.0
  0
VERTEX
  8
0
  5
48EFF
 10
48.499947
 20
115.305606
 30
0.0
  0
VERTEX
  8
0
  5
48F00
 10
59.242929
 20
115.089404
 30
0.0
  0
VERTEX
  8
0
  5
48F01
 10
59.242929
 20
115.087766
 30
0.0
  0
SEQEND
  8
0
  5
48F02
  0
POLYLINE
  8
0
  5
48F03
 66
     1
 10
0.0
 20
0.0
 30
0.0
  0
VERTEX
  8
0
  5
48F04
 10
55.44464
 20
103.281787
 30
0.0
  0
VERTEX
  8
0
  5
48F05
 10
61.521247
 20
103.173685
 30
0.0
  0
VERTEX
  8
0
  5
48F06
 10
61.521247
 20
103.172048
 30
0.0
  0
SEQEND
  8
0
  5
48F07
  0
POLYLINE
  8
0
  5
48F08
 66
     1
 10
0.0
 20
0.0
 30
0.0
  0
VERTEX
  8
0
  5
48F09
 10
66.839507
 20
99.165746
 30
0.0
  0
VERTEX
  8
0
  5
48F0A
 10
66.839507
 20
103.065584
 30
0.0
  0
VERTEX
  8
0
  5
48F0B
 10
66.839507
 20
103.063946
 30
0.0
  0
SEQEND
  8
0
  5
48F0C
  0
POLYLINE
  8
0
  5
48F0D
 66
     1
 10
0.0
 20
0.0
 30
0.0
  0
VERTEX
  8
0
  5
48F0E
 10
66.839507
 20
103.065584
 30
0.0
  0
VERTEX
  8
0
  5
48F0F
 10
66.839507
 20
104.040134
 30
0.0
  0
VERTEX
  8
0
  5
48F10
 10
66.839507
 20
104.038496
 30
0.0
  0
SEQEND
  8
0
  5
48F11
  0
POLYLINE
  8
0
  5
48F12
 66
     1
 10
0.0
 20
0.0
 30
0.0
  0
VERTEX
  8
0
  5
48F13
 10
66.839507
 20
104.040134
 30
0.0
  0
VERTEX
  8
0
  5
48F14
 10
66.839507
 20
118.121156
 30
0.0
  0
VERTEX
  8
0
  5
48F15
 10
66.839507
 20
118.119518
 30
0.0
  0
SEQEND
  8
0
  5
48F16
  0
POLYLINE
  8
0
  5
48F17
 66
     1
 10
0.0
 20
0.0
 30
0.0
  0
VERTEX
  8
0
  5
48F18
 10
66.839507
 20
118.121156
 30
0.0
  0
VERTEX
  8
0
  5
48F19
 10
66.839507
 20
119.097344
 30
0.0
  0
VERTEX
  8
0
  5
48F1A
 10
66.839507
 20
119.095706
 30
0.0
  0
SEQEND
  8
0
  5
48F1B
  0
POLYLINE
  8
0
  5
48F1C
 66
     1
 10
0.0
 20
0.0
 30
0.0
  0
VERTEX
  8
0
  5
48F1D
 10
66.839507
 20
119.097344
 30
0.0
  0
VERTEX
  8
0
  5
48F1E
 10
66.839507
 20
133.286466
 30
0.0
  0
VERTEX
  8
0
  5
48F1F
 10
66.839507
 20
133.284828
 30
0.0
  0
SEQEND
  8
0
  5
48F20
  0
POLYLINE
  8
0
  5
48F21
 66
     1
 10
0.0
 20
0.0
 30
0.0
  0
VERTEX
  8
0
  5
48F22
 10
66.839507
 20
133.286466
 30
0.0
  0
VERTEX
  8
0
  5
48F23
 10
66.839507
 20
134.261016
 30
0.0
  0
VERTEX
  8
0
  5
48F24
 10
66.839507
 20
134.259379
 30
0.0
  0
SEQEND
  8
0
  5
48F25
  0
POLYLINE
  8
0
  5
48F2B
 66
     1
 10
0.0
 20
0.0
 30
0.0
  0
VERTEX
  8
0
  5
48F2C
 10
65.861681
 20
103.065584
 30
0.0
  0
VERTEX
  8
0
  5
48F2D
 10
65.861681
 20
100.141934
 30
0.0
  0
VERTEX
  8
0
  5
48F2E
 10
65.861681
 20
100.140296
 30
0.0
  0
SEQEND
  8
0
  5
48F2F
  0
POLYLINE
  8
0
  5
48F30
 66
     1
 10
0.0
 20
0.0
 30
0.0
  0
VERTEX
  8
0
  5
48F31
 10
59.242929
 20
115.089404
 30
0.0
  0
VERTEX
  8
0
  5
48F32
 10
48.499947
 20
115.305606
 30
0.0
  0
VERTEX
  8
0
  5
48F33
 10
48.499947
 20
115.303969
 30
0.0
  0
SEQEND
  8
0
  5
48F34
  0
POLYLINE
  8
0
  5
48F35
 66
     1
 10
0.0
 20
0.0
 30
0.0
  0
VERTEX
  8
0
  5
48F36
 10
45.787585
 20
115.413708
 30
0.0
  0
VERTEX
  8
0
  5
48F37
 10
59.242929
 20
115.089404
 30
0.0
  0
VERTEX
  8
0
  5
48F38
 10
59.242929
 20
115.087766
 30
0.0
  0
SEQEND
  8
0
  5
48F39
  0
POLYLINE
  8
0
  5
48F3A
 66
     1
 10
0.0
 20
0.0
 30
0.0
  0
VERTEX
  8
0
  5
48F3B
 10
48.499947
 20
115.305606
 30
0.0
  0
VERTEX
  8
0
  5
48F3C
 10
45.787585
 20
115.413708
 30
0.0
  0
VERTEX
  8
0
  5
48F3D
 10
45.787585
 20
115.41207
 30
0.0
  0
SEQEND
  8
0
  5
48F3E
  0
POLYLINE
  8
0
  5
48F3F
 66
     1
 10
0.0
 20
0.0
 30
0.0
  0
VERTEX
  8
0
  5
48F40
 10
59.242929
 20
112.380318
 30
0.0
  0
VERTEX
  8
0
  5
48F41
 10
64.885493
 20
112.380318
 30
0.0
  0
VERTEX
  8
0
  5
48F42
 10
64.885493
 20
112.37868
 30
0.0
  0
SEQEND
  8
0
  5
48F43
  0
POLYLINE
  8
0
  5
48F44
 66
     1
 10
0.0
 20
0.0
 30
0.0
  0
VERTEX
  8
0
  5
48F45
 10
59.242929
 20
115.089404
 30
0.0
  0
VERTEX
  8
0
  5
48F46
 10
59.242929
 20
112.380318
 30
0.0
  0
VERTEX
  8
0
  5
48F47
 10
59.242929
 20
112.37868
 30
0.0
  0
SEQEND
  8
0
  5
48F48
  0
POLYLINE
  8
0
  5
48F4E
 66
     1
 10
0.0
 20
0.0
 30
0.0
  0
VERTEX
  8
0
  5
48F4F
 10
45.787585
 20
117.796851
 30
0.0
  0
VERTEX
  8
0
  5
48F50
 10
45.787585
 20
115.413708
 30
0.0
  0
VERTEX
  8
0
  5
48F51
 10
45.787585
 20
115.41207
 30
0.0
  0
SEQEND
  8
0
  5
48F52
  0
POLYLINE
  8
0
  5
48F53
 66
     1
 10
0.0
 20
0.0
 30
0.0
  0
VERTEX
  8
0
  5
48F54
 10
58.592683
 20
118.013054
 30
0.0
  0
VERTEX
  8
0
  5
48F55
 10
45.787585
 20
117.796851
 30
0.0
  0
VERTEX
  8
0
  5
48F56
 10
45.787585
 20
117.795214
 30
0.0
  0
SEQEND
  8
0
  5
48F57
  0
POLYLINE
  8
0
  5
48F58
 66
     1
 10
0.0
 20
0.0
 30
0.0
  0
VERTEX
  8
0
  5
48F59
 10
45.787585
 20
119.529749
 30
0.0
  0
VERTEX
  8
0
  5
48F5A
 10
58.592683
 20
119.313546
 30
0.0
  0
VERTEX
  8
0
  5
48F5B
 10
58.592683
 20
119.311908
 30
0.0
  0
SEQEND
  8
0
  5
48F5C
  0
POLYLINE
  8
0
  5
48F5D
 66
     1
 10
0.0
 20
0.0
 30
0.0
  0
VERTEX
  8
0
  5
48F5E
 10
45.787585
 20
121.912893
 30
0.0
  0
VERTEX
  8
0
  5
48F5F
 10
45.787585
 20
119.529749
 30
0.0
  0
VERTEX
  8
0
  5
48F60
 10
45.787585
 20
119.528111
 30
0.0
  0
SEQEND
  8
0
  5
48F61
  0
POLYLINE
  8
0
  5
48F62
 66
     1
 10
0.0
 20
0.0
 30
0.0
  0
VERTEX
  8
0
  5
48F63
 10
59.242929
 20
122.237197
 30
0.0
  0
VERTEX
  8
0
  5
48F64
 10
45.787585
 20
121.912893
 30
0.0
  0
VERTEX
  8
0
  5
48F65
 10
45.787585
 20
121.911255
 30
0.0
  0
SEQEND
  8
0
  5
48F66
  0
POLYLINE
  8
0
  5
48F67
 66
     1
 10
0.0
 20
0.0
 30
0.0
  0
VERTEX
  8
0
  5
48F68
 10
58.592683
 20
119.313546
 30
0.0
  0
VERTEX
  8
0
  5
48F69
 10
58.592683
 20
118.013054
 30
0.0
  0
VERTEX
  8
0
  5
48F6A
 10
58.592683
 20
118.011416
 30
0.0
  0
SEQEND
  8
0
  5
48F6B
  0
POLYLINE
  8
0
  5
48F6C
 66
     1
 10
0.0
 20
0.0
 30
0.0
  0
VERTEX
  8
0
  5
48F6D
 10
59.242929
 20
124.946282
 30
0.0
  0
VERTEX
  8
0
  5
48F6E
 10
59.242929
 20
122.237197
 30
0.0
  0
VERTEX
  8
0
  5
48F6F
 10
59.242929
 20
122.235559
 30
0.0
  0
SEQEND
  8
0
  5
48F70
  0
POLYLINE
  8
0
  5
48F71
 66
     1
 10
0.0
 20
0.0
 30
0.0
  0
VERTEX
  8
0
  5
48F72
 10
65.861681
 20
104.040134
 30
0.0
  0
VERTEX
  8
0
  5
48F73
 10
65.861681
 20
108.048074
 30
0.0
  0
VERTEX
  8
0
  5
48F74
 10
65.861681
 20
108.046436
 30
0.0
  0
SEQEND
  8
0
  5
48F75
  0
POLYLINE
  8
0
  5
48F76
 66
     1
 10
0.0
 20
0.0
 30
0.0
  0
VERTEX
  8
0
  5
48F77
 10
65.861681
 20
108.048074
 30
0.0
  0
VERTEX
  8
0
  5
48F78
 10
65.861681
 20
108.374016
 30
0.0
  0
VERTEX
  8
0
  5
48F79
 10
65.861681
 20
110.215015
 30
0.0
  0
VERTEX
  8
0
  5
48F7A
 10
65.861681
 20
110.213377
 30
0.0
  0
SEQEND
  8
0
  5
48F7B
  0
POLYLINE
  8
0
  5
48F7C
 66
     1
 10
0.0
 20
0.0
 30
0.0
  0
VERTEX
  8
0
  5
48F7D
 10
65.861681
 20
110.215015
 30
0.0
  0
VERTEX
  8
0
  5
48F7E
 10
65.861681
 20
111.297667
 30
0.0
  0
VERTEX
  8
0
  5
48F7F
 10
65.861681
 20
111.296029
 30
0.0
  0
SEQEND
  8
0
  5
48F80
  0
POLYLINE
  8
0
  5
48F81
 66
     1
 10
0.0
 20
0.0
 30
0.0
  0
VERTEX
  8
0
  5
48F82
 10
65.861681
 20
111.297667
 30
0.0
  0
VERTEX
  8
0
  5
48F83
 10
65.861681
 20
111.623609
 30
0.0
  0
VERTEX
  8
0
  5
48F84
 10
65.861681
 20
111.621971
 30
0.0
  0
SEQEND
  8
0
  5
48F85
  0
POLYLINE
  8
0
  5
48F86
 66
     1
 10
0.0
 20
0.0
 30
0.0
  0
VERTEX
  8
0
  5
48F87
 10
65.861681
 20
111.623609
 30
0.0
  0
VERTEX
  8
0
  5
48F88
 10
65.861681
 20
118.121156
 30
0.0
  0
VERTEX
  8
0
  5
48F89
 10
65.861681
 20
118.119518
 30
0.0
  0
SEQEND
  8
0
  5
48F8A
  0
POLYLINE
  8
0
  5
48F8B
 66
     1
 10
0.0
 20
0.0
 30
0.0
  0
VERTEX
  8
0
  5
48F8C
 10
58.592683
 20
134.152915
 30
0.0
  0
VERTEX
  8
0
  5
48F8D
 10
45.787585
 20
133.936712
 30
0.0
  0
VERTEX
  8
0
  5
48F8E
 10
45.787585
 20
133.935074
 30
0.0
  0
SEQEND
  8
0
  5
48F8F
  0
POLYLINE
  8
0
  5
48F90
 66
     1
 10
0.0
 20
0.0
 30
0.0
  0
VERTEX
  8
0
  5
48F91
 10
45.787585
 20
119.529749
 30
0.0
  0
VERTEX
  8
0
  5
48F92
 10
58.592683
 20
119.313546
 30
0.0
  0
VERTEX
  8
0
  5
48F93
 10
58.592683
 20
119.311908
 30
0.0
  0
SEQEND
  8
0
  5
48F94
  0
POLYLINE
  8
0
  5
48F95
 66
     1
 10
0.0
 20
0.0
 30
0.0
  0
VERTEX
  8
0
  5
48F96
 10
58.808886
 20
109.456668
 30
0.0
  0
VERTEX
  8
0
  5
48F97
 10
58.808886
 20
114.65536
 30
0.0
  0
VERTEX
  8
0
  5
48F98
 10
58.808886
 20
114.653722
 30
0.0
  0
SEQEND
  8
0
  5
48F99
  0
POLYLINE
  8
0
  5
48F9A
 66
     1
 10
0.0
 20
0.0
 30
0.0
  0
VERTEX
  8
0
  5
48F9B
 10
45.787585
 20
118.013054
 30
0.0
  0
VERTEX
  8
0
  5
48F9C
 10
45.787585
 20
117.796851
 30
0.0
  0
VERTEX
  8
0
  5
48F9D
 10
45.787585
 20
117.795214
 30
0.0
  0
SEQEND
  8
0
  5
48F9E
  0
POLYLINE
  8
0
  5
48FA4
 66
     1
 10
0.0
 20
0.0
 30
0.0
  0
VERTEX
  8
0
  5
48FA5
 10
45.787585
 20
118.6633
 30
0.0
  0
VERTEX
  8
0
  5
48FA6
 10
45.787585
 20
118.013054
 30
0.0
  0
VERTEX
  8
0
  5
48FA7
 10
45.787585
 20
118.011416
 30
0.0
  0
SEQEND
  8
0
  5
48FA8
  0
POLYLINE
  8
0
  5
48FB3
 66
     1
 10
0.0
 20
0.0
 30
0.0
  0
VERTEX
  8
0
  5
48FB4
 10
45.787585
 20
118.6633
 30
0.0
  0
VERTEX
  8
0
  5
48FB5
 10
58.592683
 20
118.6633
 30
0.0
  0
VERTEX
  8
0
  5
48FB6
 10
58.592683
 20
118.661662
 30
0.0
  0
SEQEND
  8
0
  5
48FB7
  0
POLYLINE
  8
0
  5
48FB8
 66
     1
 10
0.0
 20
0.0
 30
0.0
  0
VERTEX
  8
0
  5
48FB9
 10
45.787585
 20
119.313546
 30
0.0
  0
VERTEX
  8
0
  5
48FBA
 10
45.787585
 20
118.6633
 30
0.0
  0
VERTEX
  8
0
  5
48FBB
 10
45.787585
 20
118.661662
 30
0.0
  0
SEQEND
  8
0
  5
48FBC
  0
POLYLINE
  8
0
  5
48FC8
 66
     1
 10
0.0
 20
0.0
 30
0.0
  0
VERTEX
  8
0
  5
48FC9
 10
45.787585
 20
119.529749
 30
0.0
  0
VERTEX
  8
0
  5
48FCA
 10
45.787585
 20
119.313546
 30
0.0
  0
VERTEX
  8
0
  5
48FCB
 10
45.787585
 20
119.311908
 30
0.0
  0
SEQEND
  8
0
  5
48FCC
  0
POLYLINE
  8
0
  5
48FCD
 66
     1
 10
0.0
 20
0.0
 30
0.0
  0
VERTEX
  8
0
  5
48FCE
 10
45.787585
 20
108.806422
 30
0.0
  0
VERTEX
  8
0
  5
48FCF
 10
45.787585
 20
103.391526
 30
0.0
  0
VERTEX
  8
0
  5
48FD0
 10
45.787585
 20
103.389888
 30
0.0
  0
SEQEND
  8
0
  5
48FD1
  0
POLYLINE
  8
0
  5
48FD2
 66
     1
 10
0.0
 20
0.0
 30
0.0
  0
VERTEX
  8
0
  5
48FD3
 10
45.787585
 20
115.413708
 30
0.0
  0
VERTEX
  8
0
  5
48FD4
 10
45.787585
 20
108.806422
 30
0.0
  0
VERTEX
  8
0
  5
48FD5
 10
45.787585
 20
108.804784
 30
0.0
  0
SEQEND
  8
0
  5
48FD6
  0
POLYLINE
  8
0
  5
48FD7
 66
     1
 10
0.0
 20
0.0
 30
0.0
  0
VERTEX
  8
0
  5
48FD8
 10
45.787585
 20
117.796851
 30
0.0
  0
VERTEX
  8
0
  5
48FD9
 10
45.787585
 20
115.413708
 30
0.0
  0
VERTEX
  8
0
  5
48FDA
 10
45.787585
 20
115.41207
 30
0.0
  0
SEQEND
  8
0
  5
48FDB
  0
POLYLINE
  8
0
  5
48FDC
 66
     1
 10
0.0
 20
0.0
 30
0.0
  0
VERTEX
  8
0
  5
48FDD
 10
45.787585
 20
118.013054
 30
0.0
  0
VERTEX
  8
0
  5
48FDE
 10
45.787585
 20
117.796851
 30
0.0
  0
VERTEX
  8
0
  5
48FDF
 10
45.787585
 20
117.795214
 30
0.0
  0
SEQEND
  8
0
  5
48FE0
  0
POLYLINE
  8
0
  5
48FE1
 66
     1
 10
0.0
 20
0.0
 30
0.0
  0
VERTEX
  8
0
  5
48FE2
 10
45.787585
 20
118.6633
 30
0.0
  0
VERTEX
  8
0
  5
48FE3
 10
45.787585
 20
118.013054
 30
0.0
  0
VERTEX
  8
0
  5
48FE4
 10
45.787585
 20
118.011416
 30
0.0
  0
SEQEND
  8
0
  5
48FE5
  0
POLYLINE
  8
0
  5
48FE6
 66
     1
 10
0.0
 20
0.0
 30
0.0
  0
VERTEX
  8
0
  5
48FE7
 10
45.787585
 20
119.313546
 30
0.0
  0
VERTEX
  8
0
  5
48FE8
 10
45.787585
 20
118.6633
 30
0.0
  0
VERTEX
  8
0
  5
48FE9
 10
45.787585
 20
118.661662
 30
0.0
  0
SEQEND
  8
0
  5
48FEA
  0
POLYLINE
  8
0
  5
48FEB
 66
     1
 10
0.0
 20
0.0
 30
0.0
  0
VERTEX
  8
0
  5
48FEC
 10
45.787585
 20
119.529749
 30
0.0
  0
VERTEX
  8
0
  5
48FED
 10
45.787585
 20
119.313546
 30
0.0
  0
VERTEX
  8
0
  5
48FEE
 10
45.787585
 20
119.311908
 30
0.0
  0
SEQEND
  8
0
  5
48FEF
  0
POLYLINE
  8
0
  5
48FF0
 66
     1
 10
0.0
 20
0.0
 30
0.0
  0
VERTEX
  8
0
  5
48FF1
 10
45.787585
 20
121.912893
 30
0.0
  0
VERTEX
  8
0
  5
48FF2
 10
45.787585
 20
119.529749
 30
0.0
  0
VERTEX
  8
0
  5
48FF3
 10
45.787585
 20
119.528111
 30
0.0
  0
SEQEND
  8
0
  5
48FF4
  0
POLYLINE
  8
0
  5
48FF5
 66
     1
 10
0.0
 20
0.0
 30
0.0
  0
VERTEX
  8
0
  5
48FF6
 10
45.787585
 20
128.520179
 30
0.0
  0
VERTEX
  8
0
  5
48FF7
 10
45.787585
 20
121.912893
 30
0.0
  0
VERTEX
  8
0
  5
48FF8
 10
45.787585
 20
121.911255
 30
0.0
  0
SEQEND
  8
0
  5
48FF9
  0
POLYLINE
  8
0
  5
48FFA
 66
     1
 10
0.0
 20
0.0
 30
0.0
  0
VERTEX
  8
0
  5
48FFB
 10
45.787585
 20
133.936712
 30
0.0
  0
VERTEX
  8
0
  5
48FFC
 10
45.787585
 20
128.520179
 30
0.0
  0
VERTEX
  8
0
  5
48FFD
 10
45.787585
 20
128.518541
 30
0.0
  0
SEQEND
  8
0
  5
48FFE
  0
POLYLINE
  8
0
  5
48FFF
 66
     1
 10
0.0
 20
0.0
 30
0.0
  0
VERTEX
  8
0
  5
49000
 10
58.592683
 20
118.013054
 30
0.0
  0
VERTEX
  8
0
  5
49001
 10
45.787585
 20
117.796851
 30
0.0
  0
VERTEX
  8
0
  5
49002
 10
45.787585
 20
117.795214
 30
0.0
  0
SEQEND
  8
0
  5
49003
  0
POLYLINE
  8
0
  5
49004
 66
     1
 10
0.0
 20
0.0
 30
0.0
  0
VERTEX
  8
0
  5
49005
 10
58.592683
 20
119.313546
 30
0.0
  0
VERTEX
  8
0
  5
49006
 10
58.592683
 20
118.013054
 30
0.0
  0
VERTEX
  8
0
  5
49007
 10
58.592683
 20
118.011416
 30
0.0
  0
SEQEND
  8
0
  5
49008
  0
POLYLINE
  8
0
  5
49009
 66
     1
 10
0.0
 20
0.0
 30
0.0
  0
VERTEX
  8
0
  5
4900A
 10
66.839507
 20
104.040134
 30
0.0
  0
VERTEX
  8
0
  5
4900B
 10
66.839507
 20
118.121156
 30
0.0
  0
VERTEX
  8
0
  5
4900C
 10
66.839507
 20
118.119518
 30
0.0
  0
SEQEND
  8
0
  5
4900D
  0
POLYLINE
  8
0
  5
4900E
 66
     1
 10
0.0
 20
0.0
 30
0.0
  0
VERTEX
  8
0
  5
4900F
 10
64.885493
 20
108.048074
 30
0.0
  0
VERTEX
  8
0
  5
49010
 10
64.885493
 20
103.065584
 30
0.0
  0
VERTEX
  8
0
  5
49011
 10
64.885493
 20
103.063946
 30
0.0
  0
SEQEND
  8
0
  5
49012
  0
POLYLINE
  8
0
  5
49013
 66
     1
 10
0.0
 20
0.0
 30
0.0
  0
VERTEX
  8
0
  5
49014
 10
64.885493
 20
108.374016
 30
0.0
  0
VERTEX
  8
0
  5
49015
 10
64.885493
 20
108.048074
 30
0.0
  0
VERTEX
  8
0
  5
49016
 10
64.885493
 20
108.046436
 30
0.0
  0
SEQEND
  8
0
  5
49017
  0
POLYLINE
  8
0
  5
49018
 66
     1
 10
0.0
 20
0.0
 30
0.0
  0
VERTEX
  8
0
  5
49019
 10
64.885493
 20
110.215015
 30
0.0
  0
VERTEX
  8
0
  5
4901A
 10
64.885493
 20
108.374016
 30
0.0
  0
VERTEX
  8
0
  5
4901B
 10
64.885493
 20
108.372378
 30
0.0
  0
SEQEND
  8
0
  5
4901C
  0
POLYLINE
  8
0
  5
4901D
 66
     1
 10
0.0
 20
0.0
 30
0.0
  0
VERTEX
  8
0
  5
4901E
 10
65.861681
 20
108.374016
 30
0.0
  0
VERTEX
  8
0
  5
4901F
 10
65.861681
 20
110.215015
 30
0.0
  0
VERTEX
  8
0
  5
49020
 10
65.861681
 20
110.213377
 30
0.0
  0
SEQEND
  8
0
  5
49021
  0
POLYLINE
  8
0
  5
49022
 66
     1
 10
0.0
 20
0.0
 30
0.0
  0
VERTEX
  8
0
  5
49023
 10
64.885493
 20
108.374016
 30
0.0
  0
VERTEX
  8
0
  5
49024
 10
65.861681
 20
108.374016
 30
0.0
  0
VERTEX
  8
0
  5
49025
 10
65.861681
 20
108.372378
 30
0.0
  0
SEQEND
  8
0
  5
49026
  0
POLYLINE
  8
0
  5
49027
 66
     1
 10
0.0
 20
0.0
 30
0.0
  0
VERTEX
  8
0
  5
49028
 10
64.885493
 20
110.215015
 30
0.0
  0
VERTEX
  8
0
  5
49029
 10
64.885493
 20
108.374016
 30
0.0
  0
VERTEX
  8
0
  5
4902A
 10
64.885493
 20
108.372378
 30
0.0
  0
SEQEND
  8
0
  5
4902B
  0
POLYLINE
  8
0
  5
4902C
 66
     1
 10
0.0
 20
0.0
 30
0.0
  0
VERTEX
  8
0
  5
4902D
 10
58.808886
 20
114.65536
 30
0.0
  0
VERTEX
  8
0
  5
4902E
 10
48.499947
 20
114.871563
 30
0.0
  0
VERTEX
  8
0
  5
4902F
 10
48.499947
 20
114.869925
 30
0.0
  0
SEQEND
  8
0
  5
49030
  0
POLYLINE
  8
0
  5
49031
 66
     1
 10
0.0
 20
0.0
 30
0.0
  0
VERTEX
  8
0
  5
49032
 10
63.475261
 20
100.141934
 30
0.0
  0
VERTEX
  8
0
  5
49033
 10
63.475261
 20
99.165746
 30
0.0
  0
VERTEX
  8
0
  5
49034
 10
63.475261
 20
99.164108
 30
0.0
  0
SEQEND
  8
0
  5
49035
  0
POLYLINE
  8
0
  5
49036
 66
     1
 10
0.0
 20
0.0
 30
0.0
  0
VERTEX
  8
0
  5
49037
 10
66.839507
 20
99.165746
 30
0.0
  0
VERTEX
  8
0
  5
49038
 10
66.839507
 20
103.065584
 30
0.0
  0
VERTEX
  8
0
  5
49039
 10
66.839507
 20
103.063946
 30
0.0
  0
SEQEND
  8
0
  5
4903A
  0
POLYLINE
  8
0
  5
4903B
 66
     1
 10
0.0
 20
0.0
 30
0.0
  0
VERTEX
  8
0
  5
4903C
 10
66.405463
 20
99.165746
 30
0.0
  0
VERTEX
  8
0
  5
4903D
 10
66.839507
 20
99.165746
 30
0.0
  0
VERTEX
  8
0
  5
4903E
 10
66.839507
 20
99.164108
 30
0.0
  0
SEQEND
  8
0
  5
4903F
  0
POLYLINE
  8
0
  5
49040
 66
     1
 10
0.0
 20
0.0
 30
0.0
  0
VERTEX
  8
0
  5
49041
 10
63.475261
 20
99.165746
 30
0.0
  0
VERTEX
  8
0
  5
49042
 10
66.405463
 20
99.165746
 30
0.0
  0
VERTEX
  8
0
  5
49043
 10
66.839507
 20
99.165746
 30
0.0
  0
VERTEX
  8
0
  5
49044
 10
66.839507
 20
99.164108
 30
0.0
  0
SEQEND
  8
0
  5
49045
  0
POLYLINE
  8
0
  5
49046
 66
     1
 10
0.0
 20
0.0
 30
0.0
  0
VERTEX
  8
0
  5
49047
 10
64.885493
 20
103.065584
 30
0.0
  0
VERTEX
  8
0
  5
49048
 10
66.839507
 20
103.065584
 30
0.0
  0
VERTEX
  8
0
  5
49049
 10
66.839507
 20
103.063946
 30
0.0
  0
SEQEND
  8
0
  5
4904A
  0
POLYLINE
  8
0
  5
4904B
 66
     1
 10
0.0
 20
0.0
 30
0.0
  0
VERTEX
  8
0
  5
4904C
 10
66.839507
 20
104.040134
 30
0.0
  0
VERTEX
  8
0
  5
4904D
 10
65.861681
 20
104.040134
 30
0.0
  0
VERTEX
  8
0
  5
4904E
 10
65.861681
 20
104.038496
 30
0.0
  0
SEQEND
  8
0
  5
4904F
  0
POLYLINE
  8
0
  5
49050
 66
     1
 10
0.0
 20
0.0
 30
0.0
  0
VERTEX
  8
0
  5
49051
 10
66.839507
 20
103.065584
 30
0.0
  0
VERTEX
  8
0
  5
49052
 10
66.839507
 20
104.040134
 30
0.0
  0
VERTEX
  8
0
  5
49053
 10
66.839507
 20
104.038496
 30
0.0
  0
SEQEND
  8
0
  5
49054
  0
POLYLINE
  8
0
  5
49055
 66
     1
 10
0.0
 20
0.0
 30
0.0
  0
VERTEX
  8
0
  5
49056
 10
64.885493
 20
108.048074
 30
0.0
  0
VERTEX
  8
0
  5
49057
 10
64.885493
 20
103.065584
 30
0.0
  0
VERTEX
  8
0
  5
49058
 10
64.885493
 20
103.063946
 30
0.0
  0
SEQEND
  8
0
  5
49059
  0
POLYLINE
  8
0
  5
4905A
 66
     1
 10
0.0
 20
0.0
 30
0.0
  0
VERTEX
  8
0
  5
4905B
 10
65.861681
 20
104.040134
 30
0.0
  0
VERTEX
  8
0
  5
4905C
 10
65.861681
 20
108.048074
 30
0.0
  0
VERTEX
  8
0
  5
4905D
 10
65.861681
 20
108.046436
 30
0.0
  0
SEQEND
  8
0
  5
4905E
  0
POLYLINE
  8
0
  5
4905F
 66
     1
 10
0.0
 20
0.0
 30
0.0
  0
VERTEX
  8
0
  5
49060
 10
65.861681
 20
108.048074
 30
0.0
  0
VERTEX
  8
0
  5
49061
 10
65.861681
 20
108.374016
 30
0.0
  0
VERTEX
  8
0
  5
49062
 10
65.861681
 20
108.372378
 30
0.0
  0
SEQEND
  8
0
  5
49063
  0
POLYLINE
  8
0
  5
49064
 66
     1
 10
0.0
 20
0.0
 30
0.0
  0
VERTEX
  8
0
  5
49065
 10
64.885493
 20
108.048074
 30
0.0
  0
VERTEX
  8
0
  5
49066
 10
65.861681
 20
108.048074
 30
0.0
  0
VERTEX
  8
0
  5
49067
 10
65.861681
 20
108.046436
 30
0.0
  0
SEQEND
  8
0
  5
49068
  0
POLYLINE
  8
0
  5
49069
 66
     1
 10
0.0
 20
0.0
 30
0.0
  0
VERTEX
  8
0
  5
4906A
 10
64.885493
 20
108.374016
 30
0.0
  0
VERTEX
  8
0
  5
4906B
 10
64.885493
 20
108.048074
 30
0.0
  0
VERTEX
  8
0
  5
4906C
 10
64.885493
 20
108.046436
 30
0.0
  0
SEQEND
  8
0
  5
4906D
  0
POLYLINE
  8
0
  5
4906E
 66
     1
 10
0.0
 20
0.0
 30
0.0
  0
VERTEX
  8
0
  5
4906F
 10
48.499947
 20
122.020994
 30
0.0
  0
VERTEX
  8
0
  5
49070
 10
48.499947
 20
122.455037
 30
0.0
  0
VERTEX
  8
0
  5
49071
 10
48.499947
 20
122.453399
 30
0.0
  0
SEQEND
  8
0
  5
49072
  0
POLYLINE
  8
0
  5
49073
 66
     1
 10
0.0
 20
0.0
 30
0.0
  0
VERTEX
  8
0
  5
49074
 10
48.499947
 20
127.978034
 30
0.0
  0
VERTEX
  8
0
  5
49075
 10
48.499947
 20
128.520179
 30
0.0
  0
VERTEX
  8
0
  5
49076
 10
48.499947
 20
128.518541
 30
0.0
  0
SEQEND
  8
0
  5
49077
  0
POLYLINE
  8
0
  5
49078
 66
     1
 10
0.0
 20
0.0
 30
0.0
  0
VERTEX
  8
0
  5
49079
 10
58.808886
 20
127.869933
 30
0.0
  0
VERTEX
  8
0
  5
4907A
 10
48.499947
 20
127.978034
 30
0.0
  0
VERTEX
  8
0
  5
4907B
 10
48.499947
 20
127.976396
 30
0.0
  0
SEQEND
  8
0
  5
4907C
  0
POLYLINE
  8
0
  5
4907D
 66
     1
 10
0.0
 20
0.0
 30
0.0
  0
VERTEX
  8
0
  5
4907E
 10
45.787585
 20
128.520179
 30
0.0
  0
VERTEX
  8
0
  5
4907F
 10
59.242929
 20
128.303976
 30
0.0
  0
VERTEX
  8
0
  5
49080
 10
59.242929
 20
128.302338
 30
0.0
  0
SEQEND
  8
0
  5
49081
  0
POLYLINE
  8
0
  5
49082
 66
     1
 10
0.0
 20
0.0
 30
0.0
  0
VERTEX
  8
0
  5
49083
 10
58.808886
 20
122.67124
 30
0.0
  0
VERTEX
  8
0
  5
49084
 10
58.808886
 20
127.869933
 30
0.0
  0
VERTEX
  8
0
  5
49085
 10
58.808886
 20
127.868295
 30
0.0
  0
SEQEND
  8
0
  5
49086
  0
POLYLINE
  8
0
  5
49087
 66
     1
 10
0.0
 20
0.0
 30
0.0
  0
VERTEX
  8
0
  5
49088
 10
64.885493
 20
128.954222
 30
0.0
  0
VERTEX
  8
0
  5
49089
 10
64.885493
 20
127.111585
 30
0.0
  0
VERTEX
  8
0
  5
4908A
 10
64.885493
 20
127.109948
 30
0.0
  0
SEQEND
  8
0
  5
4908B
  0
POLYLINE
  8
0
  5
4908C
 66
     1
 10
0.0
 20
0.0
 30
0.0
  0
VERTEX
  8
0
  5
4908D
 10
64.885493
 20
129.278526
 30
0.0
  0
VERTEX
  8
0
  5
4908E
 10
64.885493
 20
128.954222
 30
0.0
  0
VERTEX
  8
0
  5
4908F
 10
64.885493
 20
128.952584
 30
0.0
  0
SEQEND
  8
0
  5
49090
  0
POLYLINE
  8
0
  5
49091
 66
     1
 10
0.0
 20
0.0
 30
0.0
  0
VERTEX
  8
0
  5
49092
 10
64.885493
 20
134.261016
 30
0.0
  0
VERTEX
  8
0
  5
49093
 10
64.885493
 20
129.278526
 30
0.0
  0
VERTEX
  8
0
  5
49094
 10
64.885493
 20
129.276888
 30
0.0
  0
SEQEND
  8
0
  5
49095
  0
POLYLINE
  8
0
  5
49096
 66
     1
 10
0.0
 20
0.0
 30
0.0
  0
VERTEX
  8
0
  5
49097
 10
61.305044
 20
134.261016
 30
0.0
  0
VERTEX
  8
0
  5
49098
 10
61.305044
 20
135.019364
 30
0.0
  0
VERTEX
  8
0
  5
49099
 10
61.305044
 20
135.017726
 30
0.0
  0
SEQEND
  8
0
  5
4909A
  0
POLYLINE
  8
0
  5
4909B
 66
     1
 10
0.0
 20
0.0
 30
0.0
  0
VERTEX
  8
0
  5
4909C
 10
60.545059
 20
135.019364
 30
0.0
  0
VERTEX
  8
0
  5
4909D
 10
59.026726
 20
134.152915
 30
0.0
  0
VERTEX
  8
0
  5
4909E
 10
59.026726
 20
134.151277
 30
0.0
  0
SEQEND
  8
0
  5
4909F
  0
POLYLINE
  8
0
  5
490A0
 66
     1
 10
0.0
 20
0.0
 30
0.0
  0
VERTEX
  8
0
  5
490A1
 10
64.017406
 20
134.261016
 30
0.0
  0
VERTEX
  8
0
  5
490A2
 10
61.305044
 20
134.261016
 30
0.0
  0
VERTEX
  8
0
  5
490A3
 10
61.305044
 20
134.259379
 30
0.0
  0
SEQEND
  8
0
  5
490A4
  0
POLYLINE
  8
0
  5
490A5
 66
     1
 10
0.0
 20
0.0
 30
0.0
  0
VERTEX
  8
0
  5
490A6
 10
60.545059
 20
135.019364
 30
0.0
  0
VERTEX
  8
0
  5
490A7
 10
59.026726
 20
134.152915
 30
0.0
  0
VERTEX
  8
0
  5
490A8
 10
59.026726
 20
134.151277
 30
0.0
  0
SEQEND
  8
0
  5
490A9
  0
POLYLINE
  8
0
  5
490AA
 66
     1
 10
0.0
 20
0.0
 30
0.0
  0
VERTEX
  8
0
  5
490AB
 10
61.305044
 20
135.019364
 30
0.0
  0
VERTEX
  8
0
  5
490AC
 10
60.545059
 20
135.019364
 30
0.0
  0
VERTEX
  8
0
  5
490AD
 10
60.545059
 20
135.017726
 30
0.0
  0
SEQEND
  8
0
  5
490AE
  0
POLYLINE
  8
0
  5
490AF
 66
     1
 10
0.0
 20
0.0
 30
0.0
  0
VERTEX
  8
0
  5
490B0
 10
61.305044
 20
134.261016
 30
0.0
  0
VERTEX
  8
0
  5
490B1
 10
61.305044
 20
135.019364
 30
0.0
  0
VERTEX
  8
0
  5
490B2
 10
61.305044
 20
135.017726
 30
0.0
  0
SEQEND
  8
0
  5
490B3
  0
POLYLINE
  8
0
  5
490B4
 66
     1
 10
0.0
 20
0.0
 30
0.0
  0
VERTEX
  8
0
  5
490B5
 10
64.017406
 20
134.261016
 30
0.0
  0
VERTEX
  8
0
  5
490B6
 10
61.305044
 20
134.261016
 30
0.0
  0
VERTEX
  8
0
  5
490B7
 10
61.305044
 20
134.259379
 30
0.0
  0
SEQEND
  8
0
  5
490B8
  0
POLYLINE
  8
0
  5
490B9
 66
     1
 10
0.0
 20
0.0
 30
0.0
  0
VERTEX
  8
0
  5
490BA
 10
61.305044
 20
135.019364
 30
0.0
  0
VERTEX
  8
0
  5
490BB
 10
60.545059
 20
135.019364
 30
0.0
  0
VERTEX
  8
0
  5
490BC
 10
60.545059
 20
135.017726
 30
0.0
  0
SEQEND
  8
0
  5
490BD
  0
POLYLINE
  8
0
  5
490BE
 66
     1
 10
0.0
 20
0.0
 30
0.0
  0
VERTEX
  8
0
  5
490BF
 10
63.475261
 20
137.186305
 30
0.0
  0
VERTEX
  8
0
  5
490C0
 10
64.343348
 20
136.64416
 30
0.0
  0
VERTEX
  8
0
  5
490C1
 10
64.343348
 20
136.642522
 30
0.0
  0
SEQEND
  8
0
  5
490C2
  0
POLYLINE
  8
0
  5
490C3
 66
     1
 10
0.0
 20
0.0
 30
0.0
  0
VERTEX
  8
0
  5
490C4
 10
64.343348
 20
136.64416
 30
0.0
  0
VERTEX
  8
0
  5
490C5
 10
65.861681
 20
136.64416
 30
0.0
  0
VERTEX
  8
0
  5
490C6
 10
65.861681
 20
136.642522
 30
0.0
  0
SEQEND
  8
0
  5
490C7
  0
POLYLINE
  8
0
  5
490C8
 66
     1
 10
0.0
 20
0.0
 30
0.0
  0
VERTEX
  8
0
  5
490C9
 10
64.343348
 20
136.64416
 30
0.0
  0
VERTEX
  8
0
  5
490CA
 10
65.861681
 20
136.64416
 30
0.0
  0
VERTEX
  8
0
  5
490CB
 10
65.861681
 20
136.642522
 30
0.0
  0
SEQEND
  8
0
  5
490CC
  0
POLYLINE
  8
0
  5
490CD
 66
     1
 10
0.0
 20
0.0
 30
0.0
  0
VERTEX
  8
0
  5
490CE
 10
63.475261
 20
137.186305
 30
0.0
  0
VERTEX
  8
0
  5
490CF
 10
64.343348
 20
136.64416
 30
0.0
  0
VERTEX
  8
0
  5
490D0
 10
64.343348
 20
136.642522
 30
0.0
  0
SEQEND
  8
0
  5
490D1
  0
POLYLINE
  8
0
  5
490D2
 66
     1
 10
0.0
 20
0.0
 30
0.0
  0
VERTEX
  8
0
  5
490D3
 10
66.839507
 20
138.160855
 30
0.0
  0
VERTEX
  8
0
  5
490D4
 10
64.885493
 20
138.160855
 30
0.0
  0
VERTEX
  8
0
  5
490D5
 10
64.885493
 20
138.159217
 30
0.0
  0
SEQEND
  8
0
  5
490D6
  0
POLYLINE
  8
0
  5
490D7
 66
     1
 10
0.0
 20
0.0
 30
0.0
  0
VERTEX
  8
0
  5
490D8
 10
65.861681
 20
111.297667
 30
0.0
  0
VERTEX
  8
0
  5
490D9
 10
65.861681
 20
111.623609
 30
0.0
  0
VERTEX
  8
0
  5
490DA
 10
65.861681
 20
111.621971
 30
0.0
  0
SEQEND
  8
0
  5
490DB
  0
POLYLINE
  8
0
  5
490DC
 66
     1
 10
0.0
 20
0.0
 30
0.0
  0
VERTEX
  8
0
  5
490DD
 10
59.242929
 20
111.405768
 30
0.0
  0
VERTEX
  8
0
  5
490DE
 10
65.861681
 20
111.297667
 30
0.0
  0
VERTEX
  8
0
  5
490DF
 10
65.861681
 20
111.296029
 30
0.0
  0
SEQEND
  8
0
  5
490E0
  0
POLYLINE
  8
0
  5
490E1
 66
     1
 10
0.0
 20
0.0
 30
0.0
  0
VERTEX
  8
0
  5
490E2
 10
59.242929
 20
112.380318
 30
0.0
  0
VERTEX
  8
0
  5
490E3
 10
59.242929
 20
111.405768
 30
0.0
  0
VERTEX
  8
0
  5
490E4
 10
59.242929
 20
111.40413
 30
0.0
  0
SEQEND
  8
0
  5
490E5
  0
POLYLINE
  8
0
  5
490E6
 66
     1
 10
0.0
 20
0.0
 30
0.0
  0
VERTEX
  8
0
  5
490E7
 10
65.861681
 20
118.121156
 30
0.0
  0
VERTEX
  8
0
  5
490E8
 10
66.839507
 20
118.121156
 30
0.0
  0
VERTEX
  8
0
  5
490E9
 10
66.839507
 20
118.119518
 30
0.0
  0
SEQEND
  8
0
  5
490EA
  0
POLYLINE
  8
0
  5
490EB
 66
     1
 10
0.0
 20
0.0
 30
0.0
  0
VERTEX
  8
0
  5
490EC
 10
66.839507
 20
119.097344
 30
0.0
  0
VERTEX
  8
0
  5
490ED
 10
65.861681
 20
119.097344
 30
0.0
  0
VERTEX
  8
0
  5
490EE
 10
65.861681
 20
125.70463
 30
0.0
  0
VERTEX
  8
0
  5
490EF
 10
65.861681
 20
125.702992
 30
0.0
  0
SEQEND
  8
0
  5
490F0
  0
POLYLINE
  8
0
  5
490F1
 66
     1
 10
0.0
 20
0.0
 30
0.0
  0
VERTEX
  8
0
  5
490F2
 10
65.861681
 20
125.70463
 30
0.0
  0
VERTEX
  8
0
  5
490F3
 10
65.861681
 20
126.028934
 30
0.0
  0
VERTEX
  8
0
  5
490F4
 10
65.861681
 20
126.027296
 30
0.0
  0
SEQEND
  8
0
  5
490F5
  0
POLYLINE
  8
0
  5
490F6
 66
     1
 10
0.0
 20
0.0
 30
0.0
  0
VERTEX
  8
0
  5
490F7
 10
65.861681
 20
126.028934
 30
0.0
  0
VERTEX
  8
0
  5
490F8
 10
65.861681
 20
127.111585
 30
0.0
  0
VERTEX
  8
0
  5
490F9
 10
65.861681
 20
127.109948
 30
0.0
  0
SEQEND
  8
0
  5
490FA
  0
POLYLINE
  8
0
  5
490FB
 66
     1
 10
0.0
 20
0.0
 30
0.0
  0
VERTEX
  8
0
  5
490FC
 10
65.861681
 20
127.111585
 30
0.0
  0
VERTEX
  8
0
  5
490FD
 10
65.861681
 20
128.954222
 30
0.0
  0
VERTEX
  8
0
  5
490FE
 10
65.861681
 20
128.952584
 30
0.0
  0
SEQEND
  8
0
  5
490FF
  0
POLYLINE
  8
0
  5
49100
 66
     1
 10
0.0
 20
0.0
 30
0.0
  0
VERTEX
  8
0
  5
49101
 10
65.861681
 20
128.954222
 30
0.0
  0
VERTEX
  8
0
  5
49102
 10
65.861681
 20
129.278526
 30
0.0
  0
VERTEX
  8
0
  5
49103
 10
65.861681
 20
129.276888
 30
0.0
  0
SEQEND
  8
0
  5
49104
  0
POLYLINE
  8
0
  5
49105
 66
     1
 10
0.0
 20
0.0
 30
0.0
  0
VERTEX
  8
0
  5
49106
 10
65.861681
 20
129.278526
 30
0.0
  0
VERTEX
  8
0
  5
49107
 10
65.861681
 20
133.286466
 30
0.0
  0
VERTEX
  8
0
  5
49108
 10
65.861681
 20
133.284828
 30
0.0
  0
SEQEND
  8
0
  5
49109
  0
POLYLINE
  8
0
  5
4910A
 66
     1
 10
0.0
 20
0.0
 30
0.0
  0
VERTEX
  8
0
  5
4910B
 10
66.839507
 20
119.097344
 30
0.0
  0
VERTEX
  8
0
  5
4910C
 10
66.839507
 20
133.286466
 30
0.0
  0
VERTEX
  8
0
  5
4910D
 10
66.839507
 20
133.284828
 30
0.0
  0
SEQEND
  8
0
  5
4910E
  0
POLYLINE
  8
0
  5
4910F
 66
     1
 10
0.0
 20
0.0
 30
0.0
  0
VERTEX
  8
0
  5
49110
 10
65.861681
 20
133.286466
 30
0.0
  0
VERTEX
  8
0
  5
49111
 10
66.839507
 20
133.286466
 30
0.0
  0
VERTEX
  8
0
  5
49112
 10
66.839507
 20
133.284828
 30
0.0
  0
SEQEND
  8
0
  5
49113
  0
POLYLINE
  8
0
  5
49114
 66
     1
 10
0.0
 20
0.0
 30
0.0
  0
VERTEX
  8
0
  5
49115
 10
64.885493
 20
128.954222
 30
0.0
  0
VERTEX
  8
0
  5
49116
 10
65.861681
 20
128.954222
 30
0.0
  0
VERTEX
  8
0
  5
49117
 10
65.861681
 20
128.952584
 30
0.0
  0
SEQEND
  8
0
  5
49118
  0
POLYLINE
  8
0
  5
49119
 66
     1
 10
0.0
 20
0.0
 30
0.0
  0
VERTEX
  8
0
  5
4911A
 10
65.861681
 20
128.954222
 30
0.0
  0
VERTEX
  8
0
  5
4911B
 10
65.861681
 20
129.278526
 30
0.0
  0
VERTEX
  8
0
  5
4911C
 10
65.861681
 20
129.276888
 30
0.0
  0
SEQEND
  8
0
  5
4911D
  0
POLYLINE
  8
0
  5
4911E
 66
     1
 10
0.0
 20
0.0
 30
0.0
  0
VERTEX
  8
0
  5
4911F
 10
64.885493
 20
129.278526
 30
0.0
  0
VERTEX
  8
0
  5
49120
 10
64.885493
 20
128.954222
 30
0.0
  0
VERTEX
  8
0
  5
49121
 10
64.885493
 20
128.952584
 30
0.0
  0
SEQEND
  8
0
  5
49122
  0
POLYLINE
  8
0
  5
49123
 66
     1
 10
0.0
 20
0.0
 30
0.0
  0
VERTEX
  8
0
  5
49124
 10
65.861681
 20
129.278526
 30
0.0
  0
VERTEX
  8
0
  5
49125
 10
65.861681
 20
133.286466
 30
0.0
  0
VERTEX
  8
0
  5
49126
 10
65.861681
 20
133.284828
 30
0.0
  0
SEQEND
  8
0
  5
49127
  0
POLYLINE
  8
0
  5
49128
 66
     1
 10
0.0
 20
0.0
 30
0.0
  0
VERTEX
  8
0
  5
49129
 10
64.885493
 20
129.278526
 30
0.0
  0
VERTEX
  8
0
  5
4912A
 10
65.861681
 20
129.278526
 30
0.0
  0
VERTEX
  8
0
  5
4912B
 10
65.861681
 20
129.276888
 30
0.0
  0
SEQEND
  8
0
  5
4912C
  0
POLYLINE
  8
0
  5
4912D
 66
     1
 10
0.0
 20
0.0
 30
0.0
  0
VERTEX
  8
0
  5
4912E
 10
64.885493
 20
134.261016
 30
0.0
  0
VERTEX
  8
0
  5
4912F
 10
64.885493
 20
129.278526
 30
0.0
  0
VERTEX
  8
0
  5
49130
 10
64.885493
 20
129.276888
 30
0.0
  0
SEQEND
  8
0
  5
49131
  0
POLYLINE
  8
0
  5
49132
 66
     1
 10
0.0
 20
0.0
 30
0.0
  0
VERTEX
  8
0
  5
49133
 10
66.839507
 20
134.261016
 30
0.0
  0
VERTEX
  8
0
  5
49134
 10
64.885493
 20
134.261016
 30
0.0
  0
VERTEX
  8
0
  5
49135
 10
64.885493
 20
134.259379
 30
0.0
  0
SEQEND
  8
0
  5
49136
  0
POLYLINE
  8
0
  5
4913C
 66
     1
 10
0.0
 20
0.0
 30
0.0
  0
VERTEX
  8
0
  5
4913D
 10
65.861681
 20
133.286466
 30
0.0
  0
VERTEX
  8
0
  5
4913E
 10
66.839507
 20
133.286466
 30
0.0
  0
VERTEX
  8
0
  5
4913F
 10
66.839507
 20
133.284828
 30
0.0
  0
SEQEND
  8
0
  5
49140
  0
POLYLINE
  8
0
  5
49141
 66
     1
 10
0.0
 20
0.0
 30
0.0
  0
VERTEX
  8
0
  5
49142
 10
59.242929
 20
124.946282
 30
0.0
  0
VERTEX
  8
0
  5
49143
 10
64.885493
 20
124.946282
 30
0.0
  0
VERTEX
  8
0
  5
49144
 10
64.885493
 20
124.944645
 30
0.0
  0
SEQEND
  8
0
  5
49145
  0
POLYLINE
  8
0
  5
49146
 66
     1
 10
0.0
 20
0.0
 30
0.0
  0
VERTEX
  8
0
  5
49147
 10
59.242929
 20
125.920833
 30
0.0
  0
VERTEX
  8
0
  5
49148
 10
59.242929
 20
124.946282
 30
0.0
  0
VERTEX
  8
0
  5
49149
 10
59.242929
 20
124.944645
 30
0.0
  0
SEQEND
  8
0
  5
4914A
  0
POLYLINE
  8
0
  5
4914B
 66
     1
 10
0.0
 20
0.0
 30
0.0
  0
VERTEX
  8
0
  5
4914C
 10
65.861681
 20
125.70463
 30
0.0
  0
VERTEX
  8
0
  5
4914D
 10
65.861681
 20
126.028934
 30
0.0
  0
VERTEX
  8
0
  5
4914E
 10
65.861681
 20
126.027296
 30
0.0
  0
SEQEND
  8
0
  5
4914F
  0
POLYLINE
  8
0
  5
49150
 66
     1
 10
0.0
 20
0.0
 30
0.0
  0
VERTEX
  8
0
  5
49151
 10
64.885493
 20
125.70463
 30
0.0
  0
VERTEX
  8
0
  5
49152
 10
65.861681
 20
125.70463
 30
0.0
  0
VERTEX
  8
0
  5
49153
 10
65.861681
 20
125.702992
 30
0.0
  0
SEQEND
  8
0
  5
49154
  0
POLYLINE
  8
0
  5
49155
 66
     1
 10
0.0
 20
0.0
 30
0.0
  0
VERTEX
  8
0
  5
49156
 10
60.545059
 20
102.307237
 30
0.0
  0
VERTEX
  8
0
  5
49157
 10
61.305044
 20
102.307237
 30
0.0
  0
VERTEX
  8
0
  5
49158
 10
61.305044
 20
102.305599
 30
0.0
  0
SEQEND
  8
0
  5
49159
  0
POLYLINE
  8
0
  5
4915A
 66
     1
 10
0.0
 20
0.0
 30
0.0
  0
VERTEX
  8
0
  5
4915B
 10
61.305044
 20
102.307237
 30
0.0
  0
VERTEX
  8
0
  5
4915C
 10
61.305044
 20
103.065584
 30
0.0
  0
VERTEX
  8
0
  5
4915D
 10
61.305044
 20
103.063946
 30
0.0
  0
SEQEND
  8
0
  5
4915E
  0
POLYLINE
  8
0
  5
4915F
 66
     1
 10
0.0
 20
0.0
 30
0.0
  0
VERTEX
  8
0
  5
49160
 10
60.545059
 20
102.307237
 30
0.0
  0
VERTEX
  8
0
  5
49161
 10
61.305044
 20
102.307237
 30
0.0
  0
VERTEX
  8
0
  5
49162
 10
61.305044
 20
102.305599
 30
0.0
  0
SEQEND
  8
0
  5
49163
  0
POLYLINE
  8
0
  5
49164
 66
     1
 10
0.0
 20
0.0
 30
0.0
  0
VERTEX
  8
0
  5
49165
 10
59.026726
 20
103.173685
 30
0.0
  0
VERTEX
  8
0
  5
49166
 10
60.545059
 20
102.307237
 30
0.0
  0
VERTEX
  8
0
  5
49167
 10
60.545059
 20
102.305599
 30
0.0
  0
SEQEND
  8
0
  5
49168
  0
POLYLINE
  8
0
  5
49169
 66
     1
 10
0.0
 20
0.0
 30
0.0
  0
VERTEX
  8
0
  5
4916A
 10
61.305044
 20
103.065584
 30
0.0
  0
VERTEX
  8
0
  5
4916B
 10
64.125507
 20
103.065584
 30
0.0
  0
VERTEX
  8
0
  5
4916C
 10
64.125507
 20
103.063946
 30
0.0
  0
SEQEND
  8
0
  5
4916D
  0
POLYLINE
  8
0
  5
4916E
 66
     1
 10
0.0
 20
0.0
 30
0.0
  0
VERTEX
  8
0
  5
4916F
 10
59.026726
 20
103.173685
 30
0.0
  0
VERTEX
  8
0
  5
49170
 10
60.545059
 20
102.307237
 30
0.0
  0
VERTEX
  8
0
  5
49171
 10
60.545059
 20
102.305599
 30
0.0
  0
SEQEND
  8
0
  5
49172
  0
POLYLINE
  8
0
  5
49173
 66
     1
 10
0.0
 20
0.0
 30
0.0
  0
VERTEX
  8
0
  5
49174
 10
61.305044
 20
102.307237
 30
0.0
  0
VERTEX
  8
0
  5
49175
 10
61.305044
 20
103.065584
 30
0.0
  0
VERTEX
  8
0
  5
49176
 10
61.305044
 20
103.063946
 30
0.0
  0
SEQEND
  8
0
  5
49177
  0
POLYLINE
  8
0
  5
49178
 66
     1
 10
0.0
 20
0.0
 30
0.0
  0
VERTEX
  8
0
  5
49179
 10
63.475261
 20
99.165746
 30
0.0
  0
VERTEX
  8
0
  5
4917A
 10
66.405463
 20
99.165746
 30
0.0
  0
VERTEX
  8
0
  5
4917B
 10
66.405463
 20
99.164108
 30
0.0
  0
SEQEND
  8
0
  5
4917C
  0
POLYLINE
  8
0
  5
4917D
 66
     1
 10
0.0
 20
0.0
 30
0.0
  0
VERTEX
  8
0
  5
4917E
 10
63.475261
 20
100.141934
 30
0.0
  0
VERTEX
  8
0
  5
4917F
 10
63.475261
 20
99.165746
 30
0.0
  0
VERTEX
  8
0
  5
49180
 10
63.475261
 20
99.164108
 30
0.0
  0
SEQEND
  8
0
  5
49181
  0
POLYLINE
  8
0
  5
49182
 66
     1
 10
0.0
 20
0.0
 30
0.0
  0
VERTEX
  8
0
  5
49183
 10
65.861681
 20
100.141934
 30
0.0
  0
VERTEX
  8
0
  5
49184
 10
63.475261
 20
100.141934
 30
0.0
  0
VERTEX
  8
0
  5
49185
 10
63.475261
 20
100.140296
 30
0.0
  0
SEQEND
  8
0
  5
49186
  0
POLYLINE
  8
0
  5
49187
 66
     1
 10
0.0
 20
0.0
 30
0.0
  0
VERTEX
  8
0
  5
49188
 10
66.405463
 20
99.165746
 30
0.0
  0
VERTEX
  8
0
  5
49189
 10
66.405463
 20
103.065584
 30
0.0
  0
VERTEX
  8
0
  5
4918A
 10
66.405463
 20
103.063946
 30
0.0
  0
SEQEND
  8
0
  5
4918B
  0
POLYLINE
  8
0
  5
4918C
 66
     1
 10
0.0
 20
0.0
 30
0.0
  0
VERTEX
  8
0
  5
4918D
 10
65.861681
 20
103.065584
 30
0.0
  0
VERTEX
  8
0
  5
4918E
 10
65.861681
 20
100.141934
 30
0.0
  0
VERTEX
  8
0
  5
4918F
 10
65.861681
 20
100.140296
 30
0.0
  0
SEQEND
  8
0
  5
49190
  0
POLYLINE
  8
0
  5
49191
 66
     1
 10
0.0
 20
0.0
 30
0.0
  0
VERTEX
  8
0
  5
49192
 10
65.861681
 20
100.141934
 30
0.0
  0
VERTEX
  8
0
  5
49193
 10
63.475261
 20
100.141934
 30
0.0
  0
VERTEX
  8
0
  5
49194
 10
63.475261
 20
100.140296
 30
0.0
  0
SEQEND
  8
0
  5
49195
  0
POLYLINE
  8
0
  5
49196
 66
     1
 10
0.0
 20
0.0
 30
0.0
  0
VERTEX
  8
0
  5
49197
 10
65.861681
 20
100.68244
 30
0.0
  0
VERTEX
  8
0
  5
49198
 10
64.343348
 20
100.574339
 30
0.0
  0
VERTEX
  8
0
  5
49199
 10
64.343348
 20
100.572701
 30
0.0
  0
SEQEND
  8
0
  5
4919A
  0
POLYLINE
  8
0
  5
4919B
 66
     1
 10
0.0
 20
0.0
 30
0.0
  0
VERTEX
  8
0
  5
4919C
 10
64.343348
 20
100.574339
 30
0.0
  0
VERTEX
  8
0
  5
4919D
 10
63.475261
 20
100.141934
 30
0.0
  0
VERTEX
  8
0
  5
4919E
 10
63.475261
 20
100.140296
 30
0.0
  0
SEQEND
  8
0
  5
4919F
  0
POLYLINE
  8
0
  5
491A0
 66
     1
 10
0.0
 20
0.0
 30
0.0
  0
VERTEX
  8
0
  5
491A1
 10
64.343348
 20
100.574339
 30
0.0
  0
VERTEX
  8
0
  5
491A2
 10
63.475261
 20
100.141934
 30
0.0
  0
VERTEX
  8
0
  5
491A3
 10
63.475261
 20
100.140296
 30
0.0
  0
SEQEND
  8
0
  5
491A4
  0
POLYLINE
  8
0
  5
491A5
 66
     1
 10
0.0
 20
0.0
 30
0.0
  0
VERTEX
  8
0
  5
491A6
 10
65.861681
 20
100.68244
 30
0.0
  0
VERTEX
  8
0
  5
491A7
 10
64.343348
 20
100.574339
 30
0.0
  0
VERTEX
  8
0
  5
491A8
 10
64.343348
 20
100.572701
 30
0.0
  0
SEQEND
  8
0
  5
491A9
  0
POLYLINE
  8
0
  5
491AA
 66
     1
 10
0.0
 20
0.0
 30
0.0
  0
VERTEX
  8
0
  5
491AB
 10
61.250438
 20
147.272536
 30
0.0
  0
VERTEX
  8
0
  5
491AC
 10
65.920974
 20
147.369472
 30
0.0
  0
VERTEX
  8
0
  5
491AD
 10
65.920974
 20
147.368003
 30
0.0
  0
SEQEND
  8
0
  5
491AE
  0
POLYLINE
  8
0
  5
491AF
 66
     1
 10
0.0
 20
0.0
 30
0.0
  0
VERTEX
  8
0
  5
491B0
 10
64.364129
 20
170.00101
 30
0.0
  0
VERTEX
  8
0
  5
491B1
 10
65.920974
 20
170.097946
 30
0.0
  0
VERTEX
  8
0
  5
491B2
 10
65.920974
 20
170.096477
 30
0.0
  0
SEQEND
  8
0
  5
491B3
  0
POLYLINE
  8
0
  5
491B4
 66
     1
 10
0.0
 20
0.0
 30
0.0
  0
VERTEX
  8
0
  5
491B5
 10
66.893268
 20
170.097946
 30
0.0
  0
VERTEX
  8
0
  5
491B6
 10
64.75334
 20
170.00101
 30
0.0
  0
VERTEX
  8
0
  5
491B7
 10
64.75334
 20
169.999541
 30
0.0
  0
SEQEND
  8
0
  5
491B8
  0
POLYLINE
  8
0
  5
491B9
 66
     1
 10
0.0
 20
0.0
 30
0.0
  0
VERTEX
  8
0
  5
491BA
 10
65.920974
 20
170.097946
 30
0.0
  0
VERTEX
  8
0
  5
491BB
 10
66.893268
 20
170.097946
 30
0.0
  0
VERTEX
  8
0
  5
491BC
 10
66.893268
 20
170.096477
 30
0.0
  0
SEQEND
  8
0
  5
491BD
  0
POLYLINE
  8
0
  5
491BE
 66
     1
 10
0.0
 20
0.0
 30
0.0
  0
VERTEX
  8
0
  5
491BF
 10
48.503399
 20
168.544038
 30
0.0
  0
VERTEX
  8
0
  5
491C0
 10
59.304381
 20
168.348698
 30
0.0
  0
VERTEX
  8
0
  5
491C1
 10
59.304381
 20
168.347229
 30
0.0
  0
SEQEND
  8
0
  5
491C2
  0
POLYLINE
  8
0
  5
491C3
 66
     1
 10
0.0
 20
0.0
 30
0.0
  0
VERTEX
  8
0
  5
491C4
 10
59.304381
 20
168.348698
 30
0.0
  0
VERTEX
  8
0
  5
491C5
 10
48.503399
 20
168.544038
 30
0.0
  0
VERTEX
  8
0
  5
491C6
 10
48.503399
 20
168.542569
 30
0.0
  0
SEQEND
  8
0
  5
491C7
  0
POLYLINE
  8
0
  5
491C8
 66
     1
 10
0.0
 20
0.0
 30
0.0
  0
VERTEX
  8
0
  5
491C9
 10
45.875856
 20
168.544038
 30
0.0
  0
VERTEX
  8
0
  5
491CA
 10
59.304381
 20
168.348698
 30
0.0
  0
VERTEX
  8
0
  5
491CB
 10
59.304381
 20
168.347229
 30
0.0
  0
SEQEND
  8
0
  5
491CC
  0
POLYLINE
  8
0
  5
491CD
 66
     1
 10
0.0
 20
0.0
 30
0.0
  0
VERTEX
  8
0
  5
491CE
 10
48.503399
 20
168.544038
 30
0.0
  0
VERTEX
  8
0
  5
491CF
 10
45.875856
 20
168.544038
 30
0.0
  0
VERTEX
  8
0
  5
491D0
 10
45.875856
 20
168.542569
 30
0.0
  0
SEQEND
  8
0
  5
491D1
  0
POLYLINE
  8
0
  5
491D2
 66
     1
 10
0.0
 20
0.0
 30
0.0
  0
VERTEX
  8
0
  5
491D3
 10
45.875856
 20
162.03613
 30
0.0
  0
VERTEX
  8
0
  5
491D4
 10
48.503399
 20
162.133066
 30
0.0
  0
VERTEX
  8
0
  5
491D5
 10
48.503399
 20
162.131597
 30
0.0
  0
SEQEND
  8
0
  5
491D6
  0
POLYLINE
  8
0
  5
491D7
 66
     1
 10
0.0
 20
0.0
 30
0.0
  0
VERTEX
  8
0
  5
491D8
 10
48.503399
 20
162.133066
 30
0.0
  0
VERTEX
  8
0
  5
491D9
 10
48.503399
 20
162.619213
 30
0.0
  0
VERTEX
  8
0
  5
491DA
 10
48.503399
 20
162.617744
 30
0.0
  0
SEQEND
  8
0
  5
491DB
  0
POLYLINE
  8
0
  5
491DC
 66
     1
 10
0.0
 20
0.0
 30
0.0
  0
VERTEX
  8
0
  5
491DD
 10
48.503399
 20
162.619213
 30
0.0
  0
VERTEX
  8
0
  5
491DE
 10
58.818234
 20
162.813084
 30
0.0
  0
VERTEX
  8
0
  5
491DF
 10
58.818234
 20
162.811616
 30
0.0
  0
SEQEND
  8
0
  5
491E0
  0
POLYLINE
  8
0
  5
491E1
 66
     1
 10
0.0
 20
0.0
 30
0.0
  0
VERTEX
  8
0
  5
491E2
 10
58.818234
 20
167.864019
 30
0.0
  0
VERTEX
  8
0
  5
491E3
 10
48.503399
 20
168.057891
 30
0.0
  0
VERTEX
  8
0
  5
491E4
 10
48.503399
 20
168.056422
 30
0.0
  0
SEQEND
  8
0
  5
491E5
  0
POLYLINE
  8
0
  5
491E6
 66
     1
 10
0.0
 20
0.0
 30
0.0
  0
VERTEX
  8
0
  5
491E7
 10
58.818234
 20
162.813084
 30
0.0
  0
VERTEX
  8
0
  5
491E8
 10
58.818234
 20
167.864019
 30
0.0
  0
VERTEX
  8
0
  5
491E9
 10
58.818234
 20
167.862551
 30
0.0
  0
SEQEND
  8
0
  5
491EA
  0
POLYLINE
  8
0
  5
491EB
 66
     1
 10
0.0
 20
0.0
 30
0.0
  0
VERTEX
  8
0
  5
491EC
 10
45.875856
 20
168.544038
 30
0.0
  0
VERTEX
  8
0
  5
491ED
 10
45.875856
 20
162.03613
 30
0.0
  0
VERTEX
  8
0
  5
491EE
 10
45.875856
 20
162.034662
 30
0.0
  0
SEQEND
  8
0
  5
491EF
  0
POLYLINE
  8
0
  5
491F0
 66
     1
 10
0.0
 20
0.0
 30
0.0
  0
VERTEX
  8
0
  5
491F1
 10
48.503399
 20
168.544038
 30
0.0
  0
VERTEX
  8
0
  5
491F2
 10
45.875856
 20
168.544038
 30
0.0
  0
VERTEX
  8
0
  5
491F3
 10
45.875856
 20
168.542569
 30
0.0
  0
SEQEND
  8
0
  5
491F4
  0
POLYLINE
  8
0
  5
491F5
 66
     1
 10
0.0
 20
0.0
 30
0.0
  0
VERTEX
  8
0
  5
491F6
 10
48.503399
 20
168.057891
 30
0.0
  0
VERTEX
  8
0
  5
491F7
 10
48.503399
 20
168.544038
 30
0.0
  0
VERTEX
  8
0
  5
491F8
 10
48.503399
 20
168.542569
 30
0.0
  0
SEQEND
  8
0
  5
491F9
  0
POLYLINE
  8
0
  5
491FA
 66
     1
 10
0.0
 20
0.0
 30
0.0
  0
VERTEX
  8
0
  5
491FB
 10
58.818234
 20
167.864019
 30
0.0
  0
VERTEX
  8
0
  5
491FC
 10
48.503399
 20
168.057891
 30
0.0
  0
VERTEX
  8
0
  5
491FD
 10
48.503399
 20
168.056422
 30
0.0
  0
SEQEND
  8
0
  5
491FE
  0
POLYLINE
  8
0
  5
491FF
 66
     1
 10
0.0
 20
0.0
 30
0.0
  0
VERTEX
  8
0
  5
49200
 10
48.503399
 20
162.619213
 30
0.0
  0
VERTEX
  8
0
  5
49201
 10
58.818234
 20
162.813084
 30
0.0
  0
VERTEX
  8
0
  5
49202
 10
58.818234
 20
162.811616
 30
0.0
  0
SEQEND
  8
0
  5
49203
  0
POLYLINE
  8
0
  5
49204
 66
     1
 10
0.0
 20
0.0
 30
0.0
  0
VERTEX
  8
0
  5
49205
 10
48.503399
 20
156.111306
 30
0.0
  0
VERTEX
  8
0
  5
49206
 10
59.304381
 20
155.917434
 30
0.0
  0
VERTEX
  8
0
  5
49207
 10
59.304381
 20
155.915966
 30
0.0
  0
SEQEND
  8
0
  5
49208
  0
POLYLINE
  8
0
  5
49209
 66
     1
 10
0.0
 20
0.0
 30
0.0
  0
VERTEX
  8
0
  5
4920A
 10
59.304381
 20
162.326937
 30
0.0
  0
VERTEX
  8
0
  5
4920B
 10
48.503399
 20
162.133066
 30
0.0
  0
VERTEX
  8
0
  5
4920C
 10
48.503399
 20
162.131597
 30
0.0
  0
SEQEND
  8
0
  5
4920D
  0
POLYLINE
  8
0
  5
4920E
 66
     1
 10
0.0
 20
0.0
 30
0.0
  0
VERTEX
  8
0
  5
4920F
 10
58.818234
 20
150.380352
 30
0.0
  0
VERTEX
  8
0
  5
49210
 10
58.818234
 20
155.431287
 30
0.0
  0
VERTEX
  8
0
  5
49211
 10
58.818234
 20
155.429819
 30
0.0
  0
SEQEND
  8
0
  5
49212
  0
POLYLINE
  8
0
  5
49213
 66
     1
 10
0.0
 20
0.0
 30
0.0
  0
VERTEX
  8
0
  5
49214
 10
48.503399
 20
149.700334
 30
0.0
  0
VERTEX
  8
0
  5
49215
 10
48.503399
 20
150.186481
 30
0.0
  0
VERTEX
  8
0
  5
49216
 10
48.503399
 20
150.185012
 30
0.0
  0
SEQEND
  8
0
  5
49217
  0
POLYLINE
  8
0
  5
49218
 66
     1
 10
0.0
 20
0.0
 30
0.0
  0
VERTEX
  8
0
  5
49219
 10
45.875856
 20
149.603398
 30
0.0
  0
VERTEX
  8
0
  5
4921A
 10
48.503399
 20
149.700334
 30
0.0
  0
VERTEX
  8
0
  5
4921B
 10
48.503399
 20
149.698865
 30
0.0
  0
SEQEND
  8
0
  5
4921C
  0
POLYLINE
  8
0
  5
4921D
 66
     1
 10
0.0
 20
0.0
 30
0.0
  0
VERTEX
  8
0
  5
4921E
 10
58.818234
 20
150.380352
 30
0.0
  0
VERTEX
  8
0
  5
4921F
 10
58.818234
 20
155.431287
 30
0.0
  0
VERTEX
  8
0
  5
49220
 10
58.818234
 20
155.429819
 30
0.0
  0
SEQEND
  8
0
  5
49221
  0
POLYLINE
  8
0
  5
49222
 66
     1
 10
0.0
 20
0.0
 30
0.0
  0
VERTEX
  8
0
  5
49223
 10
48.503399
 20
150.186481
 30
0.0
  0
VERTEX
  8
0
  5
49224
 10
58.818234
 20
150.380352
 30
0.0
  0
VERTEX
  8
0
  5
49225
 10
58.818234
 20
150.378883
 30
0.0
  0
SEQEND
  8
0
  5
49226
  0
POLYLINE
  8
0
  5
49227
 66
     1
 10
0.0
 20
0.0
 30
0.0
  0
VERTEX
  8
0
  5
49228
 10
58.818234
 20
155.431287
 30
0.0
  0
VERTEX
  8
0
  5
49229
 10
48.503399
 20
155.625159
 30
0.0
  0
VERTEX
  8
0
  5
4922A
 10
48.503399
 20
155.62369
 30
0.0
  0
SEQEND
  8
0
  5
4922B
  0
POLYLINE
  8
0
  5
4922C
 66
     1
 10
0.0
 20
0.0
 30
0.0
  0
VERTEX
  8
0
  5
4922D
 10
45.875856
 20
156.208241
 30
0.0
  0
VERTEX
  8
0
  5
4922E
 10
45.875856
 20
149.603398
 30
0.0
  0
VERTEX
  8
0
  5
4922F
 10
45.875856
 20
149.601929
 30
0.0
  0
SEQEND
  8
0
  5
49230
  0
POLYLINE
  8
0
  5
49231
 66
     1
 10
0.0
 20
0.0
 30
0.0
  0
VERTEX
  8
0
  5
49232
 10
48.503399
 20
156.111306
 30
0.0
  0
VERTEX
  8
0
  5
49233
 10
45.875856
 20
156.208241
 30
0.0
  0
VERTEX
  8
0
  5
49234
 10
45.875856
 20
156.206773
 30
0.0
  0
SEQEND
  8
0
  5
49235
  0
POLYLINE
  8
0
  5
49236
 66
     1
 10
0.0
 20
0.0
 30
0.0
  0
VERTEX
  8
0
  5
49237
 10
48.503399
 20
155.625159
 30
0.0
  0
VERTEX
  8
0
  5
49238
 10
48.503399
 20
156.111306
 30
0.0
  0
VERTEX
  8
0
  5
49239
 10
48.503399
 20
156.109837
 30
0.0
  0
SEQEND
  8
0
  5
4923A
  0
POLYLINE
  8
0
  5
4923B
 66
     1
 10
0.0
 20
0.0
 30
0.0
  0
VERTEX
  8
0
  5
4923C
 10
58.818234
 20
155.431287
 30
0.0
  0
VERTEX
  8
0
  5
4923D
 10
48.503399
 20
155.625159
 30
0.0
  0
VERTEX
  8
0
  5
4923E
 10
48.503399
 20
155.62369
 30
0.0
  0
SEQEND
  8
0
  5
4923F
  0
POLYLINE
  8
0
  5
49240
 66
     1
 10
0.0
 20
0.0
 30
0.0
  0
VERTEX
  8
0
  5
49241
 10
48.503399
 20
149.700334
 30
0.0
  0
VERTEX
  8
0
  5
49242
 10
48.503399
 20
150.186481
 30
0.0
  0
VERTEX
  8
0
  5
49243
 10
48.503399
 20
150.185012
 30
0.0
  0
SEQEND
  8
0
  5
49244
  0
POLYLINE
  8
0
  5
49245
 66
     1
 10
0.0
 20
0.0
 30
0.0
  0
VERTEX
  8
0
  5
49246
 10
48.503399
 20
155.625159
 30
0.0
  0
VERTEX
  8
0
  5
49247
 10
48.503399
 20
156.111306
 30
0.0
  0
VERTEX
  8
0
  5
49248
 10
48.503399
 20
156.109837
 30
0.0
  0
SEQEND
  8
0
  5
49249
  0
POLYLINE
  8
0
  5
4924A
 66
     1
 10
0.0
 20
0.0
 30
0.0
  0
VERTEX
  8
0
  5
4924B
 10
48.503399
 20
150.186481
 30
0.0
  0
VERTEX
  8
0
  5
4924C
 10
58.818234
 20
150.380352
 30
0.0
  0
VERTEX
  8
0
  5
4924D
 10
58.818234
 20
150.378883
 30
0.0
  0
SEQEND
  8
0
  5
4924E
  0
POLYLINE
  8
0
  5
4924F
 66
     1
 10
0.0
 20
0.0
 30
0.0
  0
VERTEX
  8
0
  5
49250
 10
59.304381
 20
155.917434
 30
0.0
  0
VERTEX
  8
0
  5
49251
 10
59.304381
 20
150.574223
 30
0.0
  0
VERTEX
  8
0
  5
49252
 10
59.304381
 20
150.572755
 30
0.0
  0
SEQEND
  8
0
  5
49253
  0
POLYLINE
  8
0
  5
49254
 66
     1
 10
0.0
 20
0.0
 30
0.0
  0
VERTEX
  8
0
  5
49255
 10
62.222732
 20
150.671159
 30
0.0
  0
VERTEX
  8
0
  5
49256
 10
64.364129
 20
151.254242
 30
0.0
  0
VERTEX
  8
0
  5
49257
 10
64.364129
 20
151.252773
 30
0.0
  0
SEQEND
  8
0
  5
49258
  0
POLYLINE
  8
0
  5
49259
 66
     1
 10
0.0
 20
0.0
 30
0.0
  0
VERTEX
  8
0
  5
4925A
 10
62.222732
 20
150.671159
 30
0.0
  0
VERTEX
  8
0
  5
4925B
 10
64.364129
 20
151.254242
 30
0.0
  0
VERTEX
  8
0
  5
4925C
 10
64.364129
 20
151.252773
 30
0.0
  0
SEQEND
  8
0
  5
4925D
  0
POLYLINE
  8
0
  5
4925E
 66
     1
 10
0.0
 20
0.0
 30
0.0
  0
VERTEX
  8
0
  5
4925F
 10
59.304381
 20
150.574223
 30
0.0
  0
VERTEX
  8
0
  5
49260
 10
62.222732
 20
150.671159
 30
0.0
  0
VERTEX
  8
0
  5
49261
 10
62.222732
 20
150.66969
 30
0.0
  0
SEQEND
  8
0
  5
49262
  0
POLYLINE
  8
0
  5
49263
 66
     1
 10
0.0
 20
0.0
 30
0.0
  0
VERTEX
  8
0
  5
49264
 10
59.304381
 20
155.917434
 30
0.0
  0
VERTEX
  8
0
  5
49265
 10
59.304381
 20
150.574223
 30
0.0
  0
VERTEX
  8
0
  5
49266
 10
59.304381
 20
150.572755
 30
0.0
  0
SEQEND
  8
0
  5
49267
  0
POLYLINE
  8
0
  5
49268
 66
     1
 10
0.0
 20
0.0
 30
0.0
  0
VERTEX
  8
0
  5
49269
 10
45.875856
 20
156.208241
 30
0.0
  0
VERTEX
  8
0
  5
4926A
 10
59.304381
 20
155.917434
 30
0.0
  0
VERTEX
  8
0
  5
4926B
 10
59.304381
 20
155.915966
 30
0.0
  0
SEQEND
  8
0
  5
4926C
  0
POLYLINE
  8
0
  5
4926D
 66
     1
 10
0.0
 20
0.0
 30
0.0
  0
VERTEX
  8
0
  5
4926E
 10
45.875856
 20
162.03613
 30
0.0
  0
VERTEX
  8
0
  5
4926F
 10
45.875856
 20
156.208241
 30
0.0
  0
VERTEX
  8
0
  5
49270
 10
45.875856
 20
156.206773
 30
0.0
  0
SEQEND
  8
0
  5
49271
  0
POLYLINE
  8
0
  5
49272
 66
     1
 10
0.0
 20
0.0
 30
0.0
  0
VERTEX
  8
0
  5
49273
 10
59.304381
 20
162.326937
 30
0.0
  0
VERTEX
  8
0
  5
49274
 10
45.875856
 20
162.03613
 30
0.0
  0
VERTEX
  8
0
  5
49275
 10
45.875856
 20
162.034662
 30
0.0
  0
SEQEND
  8
0
  5
49276
  0
POLYLINE
  8
0
  5
49277
 66
     1
 10
0.0
 20
0.0
 30
0.0
  0
VERTEX
  8
0
  5
49278
 10
64.364129
 20
151.254242
 30
0.0
  0
VERTEX
  8
0
  5
49279
 10
64.364129
 20
166.99013
 30
0.0
  0
VERTEX
  8
0
  5
4927A
 10
64.364129
 20
166.988661
 30
0.0
  0
SEQEND
  8
0
  5
4927B
  0
POLYLINE
  8
0
  5
4927C
 66
     1
 10
0.0
 20
0.0
 30
0.0
  0
VERTEX
  8
0
  5
4927D
 10
64.364129
 20
166.99013
 30
0.0
  0
VERTEX
  8
0
  5
4927E
 10
62.222732
 20
167.571744
 30
0.0
  0
VERTEX
  8
0
  5
4927F
 10
62.222732
 20
167.570275
 30
0.0
  0
SEQEND
  8
0
  5
49280
  0
POLYLINE
  8
0
  5
49281
 66
     1
 10
0.0
 20
0.0
 30
0.0
  0
VERTEX
  8
0
  5
49282
 10
59.304381
 20
167.668679
 30
0.0
  0
VERTEX
  8
0
  5
49283
 10
59.304381
 20
162.326937
 30
0.0
  0
VERTEX
  8
0
  5
49284
 10
59.304381
 20
162.325469
 30
0.0
  0
SEQEND
  8
0
  5
49285
  0
POLYLINE
  8
0
  5
49286
 66
     1
 10
0.0
 20
0.0
 30
0.0
  0
VERTEX
  8
0
  5
49287
 10
62.222732
 20
167.571744
 30
0.0
  0
VERTEX
  8
0
  5
49288
 10
59.304381
 20
167.668679
 30
0.0
  0
VERTEX
  8
0
  5
49289
 10
59.304381
 20
167.667211
 30
0.0
  0
SEQEND
  8
0
  5
4928A
  0
POLYLINE
  8
0
  5
4928B
 66
     1
 10
0.0
 20
0.0
 30
0.0
  0
VERTEX
  8
0
  5
4928C
 10
62.222732
 20
167.571744
 30
0.0
  0
VERTEX
  8
0
  5
4928D
 10
59.304381
 20
167.668679
 30
0.0
  0
VERTEX
  8
0
  5
4928E
 10
59.304381
 20
167.667211
 30
0.0
  0
SEQEND
  8
0
  5
4928F
  0
POLYLINE
  8
0
  5
49290
 66
     1
 10
0.0
 20
0.0
 30
0.0
  0
VERTEX
  8
0
  5
49291
 10
64.364129
 20
166.99013
 30
0.0
  0
VERTEX
  8
0
  5
49292
 10
62.222732
 20
167.571744
 30
0.0
  0
VERTEX
  8
0
  5
49293
 10
62.222732
 20
167.570275
 30
0.0
  0
SEQEND
  8
0
  5
49294
  0
POLYLINE
  8
0
  5
49295
 66
     1
 10
0.0
 20
0.0
 30
0.0
  0
VERTEX
  8
0
  5
49296
 10
64.364129
 20
151.254242
 30
0.0
  0
VERTEX
  8
0
  5
49297
 10
64.364129
 20
166.99013
 30
0.0
  0
VERTEX
  8
0
  5
49298
 10
64.364129
 20
166.988661
 30
0.0
  0
SEQEND
  8
0
  5
49299
  0
POLYLINE
  8
0
  5
4929A
 66
     1
 10
0.0
 20
0.0
 30
0.0
  0
VERTEX
  8
0
  5
4929B
 10
59.304381
 20
150.574223
 30
0.0
  0
VERTEX
  8
0
  5
4929C
 10
62.222732
 20
150.671159
 30
0.0
  0
VERTEX
  8
0
  5
4929D
 10
62.222732
 20
150.66969
 30
0.0
  0
SEQEND
  8
0
  5
4929E
  0
POLYLINE
  8
0
  5
4929F
 66
     1
 10
0.0
 20
0.0
 30
0.0
  0
VERTEX
  8
0
  5
492A0
 10
59.304381
 20
155.917434
 30
0.0
  0
VERTEX
  8
0
  5
492A1
 10
48.503399
 20
156.111306
 30
0.0
  0
VERTEX
  8
0
  5
492A2
 10
48.503399
 20
156.109837
 30
0.0
  0
SEQEND
  8
0
  5
492A3
  0
POLYLINE
  8
0
  5
492A4
 66
     1
 10
0.0
 20
0.0
 30
0.0
  0
VERTEX
  8
0
  5
492A5
 10
45.875856
 20
156.208241
 30
0.0
  0
VERTEX
  8
0
  5
492A6
 10
59.304381
 20
155.917434
 30
0.0
  0
VERTEX
  8
0
  5
492A7
 10
59.304381
 20
155.915966
 30
0.0
  0
SEQEND
  8
0
  5
492A8
  0
POLYLINE
  8
0
  5
492A9
 66
     1
 10
0.0
 20
0.0
 30
0.0
  0
VERTEX
  8
0
  5
492AA
 10
48.503399
 20
156.111306
 30
0.0
  0
VERTEX
  8
0
  5
492AB
 10
45.875856
 20
156.208241
 30
0.0
  0
VERTEX
  8
0
  5
492AC
 10
45.875856
 20
156.206773
 30
0.0
  0
SEQEND
  8
0
  5
492AD
  0
POLYLINE
  8
0
  5
492AE
 66
     1
 10
0.0
 20
0.0
 30
0.0
  0
VERTEX
  8
0
  5
492AF
 10
59.304381
 20
149.894205
 30
0.0
  0
VERTEX
  8
0
  5
492B0
 10
48.503399
 20
149.700334
 30
0.0
  0
VERTEX
  8
0
  5
492B1
 10
48.503399
 20
149.698865
 30
0.0
  0
SEQEND
  8
0
  5
492B2
  0
POLYLINE
  8
0
  5
492B3
 66
     1
 10
0.0
 20
0.0
 30
0.0
  0
VERTEX
  8
0
  5
492B4
 10
66.893268
 20
173.593504
 30
0.0
  0
VERTEX
  8
0
  5
492B5
 10
65.920974
 20
173.593504
 30
0.0
  0
VERTEX
  8
0
  5
492B6
 10
65.920974
 20
173.592036
 30
0.0
  0
SEQEND
  8
0
  5
492B7
  0
POLYLINE
  8
0
  5
492B8
 66
     1
 10
0.0
 20
0.0
 30
0.0
  0
VERTEX
  8
0
  5
492B9
 10
61.250438
 20
171.748789
 30
0.0
  0
VERTEX
  8
0
  5
492BA
 10
60.568951
 20
171.748789
 30
0.0
  0
VERTEX
  8
0
  5
492BB
 10
60.568951
 20
171.747321
 30
0.0
  0
SEQEND
  8
0
  5
492BC
  0
POLYLINE
  8
0
  5
492BD
 66
     1
 10
0.0
 20
0.0
 30
0.0
  0
VERTEX
  8
0
  5
492BE
 10
45.875856
 20
149.603398
 30
0.0
  0
VERTEX
  8
0
  5
492BF
 10
45.875856
 20
147.563343
 30
0.0
  0
VERTEX
  8
0
  5
492C0
 10
45.875856
 20
147.561875
 30
0.0
  0
SEQEND
  8
0
  5
492C1
  0
POLYLINE
  8
0
  5
492C2
 66
     1
 10
0.0
 20
0.0
 30
0.0
  0
VERTEX
  8
0
  5
492C3
 10
45.875856
 20
156.208241
 30
0.0
  0
VERTEX
  8
0
  5
492C4
 10
45.875856
 20
149.603398
 30
0.0
  0
VERTEX
  8
0
  5
492C5
 10
45.875856
 20
149.601929
 30
0.0
  0
SEQEND
  8
0
  5
492C6
  0
POLYLINE
  8
0
  5
492C7
 66
     1
 10
0.0
 20
0.0
 30
0.0
  0
VERTEX
  8
0
  5
492C8
 10
45.875856
 20
162.03613
 30
0.0
  0
VERTEX
  8
0
  5
492C9
 10
45.875856
 20
156.208241
 30
0.0
  0
VERTEX
  8
0
  5
492CA
 10
45.875856
 20
156.206773
 30
0.0
  0
SEQEND
  8
0
  5
492CB
  0
POLYLINE
  8
0
  5
492CC
 66
     1
 10
0.0
 20
0.0
 30
0.0
  0
VERTEX
  8
0
  5
492CD
 10
45.875856
 20
168.544038
 30
0.0
  0
VERTEX
  8
0
  5
492CE
 10
45.875856
 20
162.03613
 30
0.0
  0
VERTEX
  8
0
  5
492CF
 10
45.875856
 20
162.034662
 30
0.0
  0
SEQEND
  8
0
  5
492D0
  0
POLYLINE
  8
0
  5
492D1
 66
     1
 10
0.0
 20
0.0
 30
0.0
  0
VERTEX
  8
0
  5
492D2
 10
45.875856
 20
170.681028
 30
0.0
  0
VERTEX
  8
0
  5
492D3
 10
45.875856
 20
168.544038
 30
0.0
  0
VERTEX
  8
0
  5
492D4
 10
45.875856
 20
168.542569
 30
0.0
  0
SEQEND
  8
0
  5
492D5
  0
POLYLINE
  8
0
  5
492D6
 66
     1
 10
0.0
 20
0.0
 30
0.0
  0
VERTEX
  8
0
  5
492D7
 10
65.920974
 20
170.097946
 30
0.0
  0
VERTEX
  8
0
  5
492D8
 10
66.893268
 20
170.097946
 30
0.0
  0
VERTEX
  8
0
  5
492D9
 10
66.893268
 20
170.096477
 30
0.0
  0
SEQEND
  8
0
  5
492DA
  0
POLYLINE
  8
0
  5
492DB
 66
     1
 10
0.0
 20
0.0
 30
0.0
  0
VERTEX
  8
0
  5
492DC
 10
65.920974
 20
171.068771
 30
0.0
  0
VERTEX
  8
0
  5
492DD
 10
61.250438
 20
170.971835
 30
0.0
  0
VERTEX
  8
0
  5
492DE
 10
61.250438
 20
170.970367
 30
0.0
  0
SEQEND
  8
0
  5
492DF
  0
POLYLINE
  8
0
  5
492E0
 66
     1
 10
0.0
 20
0.0
 30
0.0
  0
VERTEX
  8
0
  5
492E1
 10
66.893268
 20
170.097946
 30
0.0
  0
VERTEX
  8
0
  5
492E2
 10
66.893268
 20
173.593504
 30
0.0
  0
VERTEX
  8
0
  5
492E3
 10
66.893268
 20
173.592036
 30
0.0
  0
SEQEND
  8
0
  5
492E4
  0
POLYLINE
  8
0
  5
492E5
 66
     1
 10
0.0
 20
0.0
 30
0.0
  0
VERTEX
  8
0
  5
492E6
 10
65.920974
 20
173.593504
 30
0.0
  0
VERTEX
  8
0
  5
492E7
 10
65.920974
 20
171.068771
 30
0.0
  0
VERTEX
  8
0
  5
492E8
 10
65.920974
 20
171.067302
 30
0.0
  0
SEQEND
  8
0
  5
492E9
  0
POLYLINE
  8
0
  5
492EA
 66
     1
 10
0.0
 20
0.0
 30
0.0
  0
VERTEX
  8
0
  5
492EB
 10
66.893268
 20
173.593504
 30
0.0
  0
VERTEX
  8
0
  5
492EC
 10
65.920974
 20
173.593504
 30
0.0
  0
VERTEX
  8
0
  5
492ED
 10
65.920974
 20
173.592036
 30
0.0
  0
SEQEND
  8
0
  5
492EE
  0
POLYLINE
  8
0
  5
492EF
 66
     1
 10
0.0
 20
0.0
 30
0.0
  0
VERTEX
  8
0
  5
492F0
 10
59.304381
 20
168.348698
 30
0.0
  0
VERTEX
  8
0
  5
492F1
 10
62.222732
 20
168.445633
 30
0.0
  0
VERTEX
  8
0
  5
492F2
 10
62.222732
 20
168.444165
 30
0.0
  0
SEQEND
  8
0
  5
492F3
  0
POLYLINE
  8
0
  5
492F4
 66
     1
 10
0.0
 20
0.0
 30
0.0
  0
VERTEX
  8
0
  5
492F5
 10
64.850276
 20
148.243362
 30
0.0
  0
VERTEX
  8
0
  5
492F6
 10
64.364129
 20
148.243362
 30
0.0
  0
VERTEX
  8
0
  5
492F7
 10
64.364129
 20
148.241893
 30
0.0
  0
SEQEND
  8
0
  5
492F8
  0
POLYLINE
  8
0
  5
492F9
 66
     1
 10
0.0
 20
0.0
 30
0.0
  0
VERTEX
  8
0
  5
492FA
 10
61.250438
 20
147.272536
 30
0.0
  0
VERTEX
  8
0
  5
492FB
 10
65.920974
 20
147.175601
 30
0.0
  0
VERTEX
  8
0
  5
492FC
 10
65.920974
 20
147.174132
 30
0.0
  0
SEQEND
  8
0
  5
492FD
  0
POLYLINE
  8
0
  5
492FE
 66
     1
 10
0.0
 20
0.0
 30
0.0
  0
VERTEX
  8
0
  5
492FF
 10
58.91517
 20
147.369472
 30
0.0
  0
VERTEX
  8
0
  5
49300
 10
59.109041
 20
147.369472
 30
0.0
  0
VERTEX
  8
0
  5
49301
 10
59.109041
 20
147.368003
 30
0.0
  0
SEQEND
  8
0
  5
49302
  0
POLYLINE
  8
0
  5
49303
 66
     1
 10
0.0
 20
0.0
 30
0.0
  0
VERTEX
  8
0
  5
49304
 10
61.250438
 20
147.272536
 30
0.0
  0
VERTEX
  8
0
  5
49305
 10
65.920974
 20
147.175601
 30
0.0
  0
VERTEX
  8
0
  5
49306
 10
65.920974
 20
147.174132
 30
0.0
  0
SEQEND
  8
0
  5
49307
  0
POLYLINE
  8
0
  5
49308
 66
     1
 10
0.0
 20
0.0
 30
0.0
  0
VERTEX
  8
0
  5
49309
 10
59.109041
 20
147.369472
 30
0.0
  0
VERTEX
  8
0
  5
4930A
 10
58.91517
 20
147.369472
 30
0.0
  0
VERTEX
  8
0
  5
4930B
 10
58.91517
 20
147.368003
 30
0.0
  0
SEQEND
  8
0
  5
4930C
  0
POLYLINE
  8
0
  5
4930D
 66
     1
 10
0.0
 20
0.0
 30
0.0
  0
VERTEX
  8
0
  5
4930E
 10
65.920974
 20
147.175601
 30
0.0
  0
VERTEX
  8
0
  5
4930F
 10
61.250438
 20
147.272536
 30
0.0
  0
VERTEX
  8
0
  5
49310
 10
61.250438
 20
147.271068
 30
0.0
  0
SEQEND
  8
0
  5
49311
  0
POLYLINE
  8
0
  5
49312
 66
     1
 10
0.0
 20
0.0
 30
0.0
  0
VERTEX
  8
0
  5
49313
 10
45.875856
 20
147.563343
 30
0.0
  0
VERTEX
  8
0
  5
49314
 10
59.012106
 20
147.369472
 30
0.0
  0
VERTEX
  8
0
  5
49315
 10
59.012106
 20
147.368003
 30
0.0
  0
SEQEND
  8
0
  5
49316
  0
POLYLINE
  8
0
  5
49317
 66
     1
 10
0.0
 20
0.0
 30
0.0
  0
VERTEX
  8
0
  5
49318
 10
61.250438
 20
170.971835
 30
0.0
  0
VERTEX
  8
0
  5
49319
 10
61.250438
 20
171.748789
 30
0.0
  0
VERTEX
  8
0
  5
4931A
 10
61.250438
 20
171.747321
 30
0.0
  0
SEQEND
  8
0
  5
4931B
  0
POLYLINE
  8
0
  5
4931C
 66
     1
 10
0.0
 20
0.0
 30
0.0
  0
VERTEX
  8
0
  5
4931D
 10
65.920974
 20
170.8749
 30
0.0
  0
VERTEX
  8
0
  5
4931E
 10
61.250438
 20
170.971835
 30
0.0
  0
VERTEX
  8
0
  5
4931F
 10
61.250438
 20
170.970367
 30
0.0
  0
SEQEND
  8
0
  5
49320
  0
POLYLINE
  8
0
  5
49321
 66
     1
 10
0.0
 20
0.0
 30
0.0
  0
VERTEX
  8
0
  5
49322
 10
65.920974
 20
144.649399
 30
0.0
  0
VERTEX
  8
0
  5
49323
 10
66.893268
 20
144.649399
 30
0.0
  0
VERTEX
  8
0
  5
49324
 10
66.893268
 20
144.64793
 30
0.0
  0
SEQEND
  8
0
  5
49325
  0
POLYLINE
  8
0
  5
49326
 66
     1
 10
0.0
 20
0.0
 30
0.0
  0
VERTEX
  8
0
  5
49327
 10
65.920974
 20
170.097946
 30
0.0
  0
VERTEX
  8
0
  5
49328
 10
65.920974
 20
170.8749
 30
0.0
  0
VERTEX
  8
0
  5
49329
 10
65.920974
 20
170.873431
 30
0.0
  0
SEQEND
  8
0
  5
4932A
  0
POLYLINE
  8
0
  5
4932B
 66
     1
 10
0.0
 20
0.0
 30
0.0
  0
VERTEX
  8
0
  5
4932C
 10
45.875856
 20
149.603398
 30
0.0
  0
VERTEX
  8
0
  5
4932D
 10
48.503399
 20
149.700334
 30
0.0
  0
VERTEX
  8
0
  5
4932E
 10
48.503399
 20
149.698865
 30
0.0
  0
SEQEND
  8
0
  5
4932F
  0
POLYLINE
  8
0
  5
49330
 66
     1
 10
0.0
 20
0.0
 30
0.0
  0
VERTEX
  8
0
  5
49331
 10
59.304381
 20
149.894205
 30
0.0
  0
VERTEX
  8
0
  5
49332
 10
45.875856
 20
149.603398
 30
0.0
  0
VERTEX
  8
0
  5
49333
 10
45.875856
 20
149.601929
 30
0.0
  0
SEQEND
  8
0
  5
49334
  0
POLYLINE
  8
0
  5
49335
 66
     1
 10
0.0
 20
0.0
 30
0.0
  0
VERTEX
  8
0
  5
49336
 10
48.503399
 20
149.700334
 30
0.0
  0
VERTEX
  8
0
  5
49337
 10
59.304381
 20
149.894205
 30
0.0
  0
VERTEX
  8
0
  5
49338
 10
59.304381
 20
149.892736
 30
0.0
  0
SEQEND
  8
0
  5
49339
  0
POLYLINE
  8
0
  5
4933A
 66
     1
 10
0.0
 20
0.0
 30
0.0
  0
VERTEX
  8
0
  5
4933B
 10
66.893268
 20
144.649399
 30
0.0
  0
VERTEX
  8
0
  5
4933C
 10
66.893268
 20
148.146426
 30
0.0
  0
VERTEX
  8
0
  5
4933D
 10
66.893268
 20
148.144957
 30
0.0
  0
SEQEND
  8
0
  5
4933E
  0
POLYLINE
  8
0
  5
4933F
 66
     1
 10
0.0
 20
0.0
 30
0.0
  0
VERTEX
  8
0
  5
49340
 10
65.920974
 20
144.649399
 30
0.0
  0
VERTEX
  8
0
  5
49341
 10
66.893268
 20
144.649399
 30
0.0
  0
VERTEX
  8
0
  5
49342
 10
66.893268
 20
144.64793
 30
0.0
  0
SEQEND
  8
0
  5
49343
  0
POLYLINE
  8
0
  5
49344
 66
     1
 10
0.0
 20
0.0
 30
0.0
  0
VERTEX
  8
0
  5
49345
 10
65.920974
 20
147.175601
 30
0.0
  0
VERTEX
  8
0
  5
49346
 10
65.920974
 20
144.649399
 30
0.0
  0
VERTEX
  8
0
  5
49347
 10
65.920974
 20
144.64793
 30
0.0
  0
SEQEND
  8
0
  5
49348
  0
POLYLINE
  8
0
  5
49349
 66
     1
 10
0.0
 20
0.0
 30
0.0
  0
VERTEX
  8
0
  5
4934A
 10
61.250438
 20
147.272536
 30
0.0
  0
VERTEX
  8
0
  5
4934B
 10
65.920974
 20
147.175601
 30
0.0
  0
VERTEX
  8
0
  5
4934C
 10
65.920974
 20
147.174132
 30
0.0
  0
SEQEND
  8
0
  5
4934D
  0
POLYLINE
  8
0
  5
4934E
 66
     1
 10
0.0
 20
0.0
 30
0.0
  0
VERTEX
  8
0
  5
4934F
 10
66.893268
 20
144.649399
 30
0.0
  0
VERTEX
  8
0
  5
49350
 10
66.893268
 20
148.146426
 30
0.0
  0
VERTEX
  8
0
  5
49351
 10
66.893268
 20
148.144957
 30
0.0
  0
SEQEND
  8
0
  5
49352
  0
POLYLINE
  8
0
  5
49353
 66
     1
 10
0.0
 20
0.0
 30
0.0
  0
VERTEX
  8
0
  5
49354
 10
66.893268
 20
148.146426
 30
0.0
  0
VERTEX
  8
0
  5
49355
 10
65.920974
 20
148.146426
 30
0.0
  0
VERTEX
  8
0
  5
49356
 10
65.920974
 20
148.144957
 30
0.0
  0
SEQEND
  8
0
  5
49357
  0
POLYLINE
  8
0
  5
49358
 66
     1
 10
0.0
 20
0.0
 30
0.0
  0
VERTEX
  8
0
  5
49359
 10
65.920974
 20
147.369472
 30
0.0
  0
VERTEX
  8
0
  5
4935A
 10
65.920974
 20
148.146426
 30
0.0
  0
VERTEX
  8
0
  5
4935B
 10
65.920974
 20
148.144957
 30
0.0
  0
SEQEND
  8
0
  5
4935C
  0
POLYLINE
  8
0
  5
4935D
 66
     1
 10
0.0
 20
0.0
 30
0.0
  0
VERTEX
  8
0
  5
4935E
 10
61.250438
 20
146.495582
 30
0.0
  0
VERTEX
  8
0
  5
4935F
 10
61.250438
 20
147.272536
 30
0.0
  0
VERTEX
  8
0
  5
49360
 10
61.250438
 20
147.271068
 30
0.0
  0
SEQEND
  8
0
  5
49361
  0
POLYLINE
  8
0
  5
49362
 66
     1
 10
0.0
 20
0.0
 30
0.0
  0
VERTEX
  8
0
  5
49363
 10
60.568951
 20
146.495582
 30
0.0
  0
VERTEX
  8
0
  5
49364
 10
61.250438
 20
146.495582
 30
0.0
  0
VERTEX
  8
0
  5
49365
 10
61.250438
 20
146.494114
 30
0.0
  0
SEQEND
  8
0
  5
49366
  0
POLYLINE
  8
0
  5
49367
 66
     1
 10
0.0
 20
0.0
 30
0.0
  0
VERTEX
  8
0
  5
49368
 10
59.012106
 20
147.369472
 30
0.0
  0
VERTEX
  8
0
  5
49369
 10
60.568951
 20
146.495582
 30
0.0
  0
VERTEX
  8
0
  5
4936A
 10
60.568951
 20
146.494114
 30
0.0
  0
SEQEND
  8
0
  5
4936B
  0
POLYLINE
  8
0
  5
4936C
 66
     1
 10
0.0
 20
0.0
 30
0.0
  0
VERTEX
  8
0
  5
4936D
 10
65.920974
 20
148.146426
 30
0.0
  0
VERTEX
  8
0
  5
4936E
 10
64.364129
 20
148.243362
 30
0.0
  0
VERTEX
  8
0
  5
4936F
 10
64.364129
 20
148.241893
 30
0.0
  0
SEQEND
  8
0
  5
49370
  0
POLYLINE
  8
0
  5
49371
 66
     1
 10
0.0
 20
0.0
 30
0.0
  0
VERTEX
  8
0
  5
49372
 10
65.920974
 20
147.369472
 30
0.0
  0
VERTEX
  8
0
  5
49373
 10
65.920974
 20
148.146426
 30
0.0
  0
VERTEX
  8
0
  5
49374
 10
65.920974
 20
148.144957
 30
0.0
  0
SEQEND
  8
0
  5
49375
  0
POLYLINE
  8
0
  5
49376
 66
     1
 10
0.0
 20
0.0
 30
0.0
  0
VERTEX
  8
0
  5
49377
 10
61.250438
 20
147.272536
 30
0.0
  0
VERTEX
  8
0
  5
49378
 10
65.920974
 20
147.369472
 30
0.0
  0
VERTEX
  8
0
  5
49379
 10
65.920974
 20
147.368003
 30
0.0
  0
SEQEND
  8
0
  5
4937A
  0
POLYLINE
  8
0
  5
4937B
 66
     1
 10
0.0
 20
0.0
 30
0.0
  0
VERTEX
  8
0
  5
4937C
 10
45.875856
 20
147.563343
 30
0.0
  0
VERTEX
  8
0
  5
4937D
 10
59.012106
 20
147.369472
 30
0.0
  0
VERTEX
  8
0
  5
4937E
 10
59.012106
 20
147.368003
 30
0.0
  0
SEQEND
  8
0
  5
4937F
  0
POLYLINE
  8
0
  5
49380
 66
     1
 10
0.0
 20
0.0
 30
0.0
  0
VERTEX
  8
0
  5
49381
 10
45.875856
 20
149.603398
 30
0.0
  0
VERTEX
  8
0
  5
49382
 10
45.875856
 20
147.563343
 30
0.0
  0
VERTEX
  8
0
  5
49383
 10
45.875856
 20
147.561875
 30
0.0
  0
SEQEND
  8
0
  5
49384
  0
POLYLINE
  8
0
  5
49385
 66
     1
 10
0.0
 20
0.0
 30
0.0
  0
VERTEX
  8
0
  5
49386
 10
64.364129
 20
149.312591
 30
0.0
  0
VERTEX
  8
0
  5
49387
 10
62.222732
 20
149.79727
 30
0.0
  0
VERTEX
  8
0
  5
49388
 10
62.222732
 20
149.795801
 30
0.0
  0
SEQEND
  8
0
  5
49389
  0
POLYLINE
  8
0
  5
4938A
 66
     1
 10
0.0
 20
0.0
 30
0.0
  0
VERTEX
  8
0
  5
4938B
 10
64.364129
 20
148.243362
 30
0.0
  0
VERTEX
  8
0
  5
4938C
 10
64.364129
 20
149.312591
 30
0.0
  0
VERTEX
  8
0
  5
4938D
 10
64.364129
 20
149.311123
 30
0.0
  0
SEQEND
  8
0
  5
4938E
  0
POLYLINE
  8
0
  5
4938F
 66
     1
 10
0.0
 20
0.0
 30
0.0
  0
VERTEX
  8
0
  5
49390
 10
62.222732
 20
149.79727
 30
0.0
  0
VERTEX
  8
0
  5
49391
 10
59.304381
 20
149.894205
 30
0.0
  0
VERTEX
  8
0
  5
49392
 10
59.304381
 20
149.892736
 30
0.0
  0
SEQEND
  8
0
  5
49393
  0
POLYLINE
  8
0
  5
49394
 66
     1
 10
0.0
 20
0.0
 30
0.0
  0
VERTEX
  8
0
  5
49395
 10
59.304381
 20
149.894205
 30
0.0
  0
VERTEX
  8
0
  5
49396
 10
45.875856
 20
149.603398
 30
0.0
  0
VERTEX
  8
0
  5
49397
 10
45.875856
 20
149.601929
 30
0.0
  0
SEQEND
  8
0
  5
49398
  0
POLYLINE
  8
0
  5
49399
 66
     1
 10
0.0
 20
0.0
 30
0.0
  0
VERTEX
  8
0
  5
4939A
 10
64.364129
 20
149.312591
 30
0.0
  0
VERTEX
  8
0
  5
4939B
 10
62.222732
 20
149.79727
 30
0.0
  0
VERTEX
  8
0
  5
4939C
 10
62.222732
 20
149.795801
 30
0.0
  0
SEQEND
  8
0
  5
4939D
  0
POLYLINE
  8
0
  5
4939E
 66
     1
 10
0.0
 20
0.0
 30
0.0
  0
VERTEX
  8
0
  5
4939F
 10
64.364129
 20
148.243362
 30
0.0
  0
VERTEX
  8
0
  5
493A0
 10
64.364129
 20
149.312591
 30
0.0
  0
VERTEX
  8
0
  5
493A1
 10
64.364129
 20
149.311123
 30
0.0
  0
SEQEND
  8
0
  5
493A2
  0
POLYLINE
  8
0
  5
493A3
 66
     1
 10
0.0
 20
0.0
 30
0.0
  0
VERTEX
  8
0
  5
493A4
 10
60.568951
 20
146.495582
 30
0.0
  0
VERTEX
  8
0
  5
493A5
 10
61.250438
 20
146.495582
 30
0.0
  0
VERTEX
  8
0
  5
493A6
 10
61.250438
 20
146.494114
 30
0.0
  0
SEQEND
  8
0
  5
493A7
  0
POLYLINE
  8
0
  5
493A8
 66
     1
 10
0.0
 20
0.0
 30
0.0
  0
VERTEX
  8
0
  5
493A9
 10
59.012106
 20
147.369472
 30
0.0
  0
VERTEX
  8
0
  5
493AA
 10
60.568951
 20
146.495582
 30
0.0
  0
VERTEX
  8
0
  5
493AB
 10
60.568951
 20
146.494114
 30
0.0
  0
SEQEND
  8
0
  5
493AC
  0
POLYLINE
  8
0
  5
493AD
 66
     1
 10
0.0
 20
0.0
 30
0.0
  0
VERTEX
  8
0
  5
493AE
 10
61.250438
 20
146.495582
 30
0.0
  0
VERTEX
  8
0
  5
493AF
 10
61.250438
 20
147.272536
 30
0.0
  0
VERTEX
  8
0
  5
493B0
 10
61.250438
 20
147.271068
 30
0.0
  0
SEQEND
  8
0
  5
493B1
  0
POLYLINE
  8
0
  5
493B2
 66
     1
 10
0.0
 20
0.0
 30
0.0
  0
VERTEX
  8
0
  5
493B3
 10
64.364129
 20
168.93178
 30
0.0
  0
VERTEX
  8
0
  5
493B4
 10
64.364129
 20
170.00101
 30
0.0
  0
VERTEX
  8
0
  5
493B5
 10
64.364129
 20
169.999541
 30
0.0
  0
SEQEND
  8
0
  5
493B6
  0
POLYLINE
  8
0
  5
493B7
 66
     1
 10
0.0
 20
0.0
 30
0.0
  0
VERTEX
  8
0
  5
493B8
 10
62.222732
 20
168.445633
 30
0.0
  0
VERTEX
  8
0
  5
493B9
 10
64.364129
 20
168.93178
 30
0.0
  0
VERTEX
  8
0
  5
493BA
 10
64.364129
 20
168.930312
 30
0.0
  0
SEQEND
  8
0
  5
493BB
  0
POLYLINE
  8
0
  5
493BC
 66
     1
 10
0.0
 20
0.0
 30
0.0
  0
VERTEX
  8
0
  5
493BD
 10
65.920974
 20
170.097946
 30
0.0
  0
VERTEX
  8
0
  5
493BE
 10
65.920974
 20
170.8749
 30
0.0
  0
VERTEX
  8
0
  5
493BF
 10
65.920974
 20
170.873431
 30
0.0
  0
SEQEND
  8
0
  5
493C0
  0
POLYLINE
  8
0
  5
493C1
 66
     1
 10
0.0
 20
0.0
 30
0.0
  0
VERTEX
  8
0
  5
493C2
 10
64.364129
 20
170.00101
 30
0.0
  0
VERTEX
  8
0
  5
493C3
 10
65.920974
 20
170.097946
 30
0.0
  0
VERTEX
  8
0
  5
493C4
 10
65.920974
 20
170.096477
 30
0.0
  0
SEQEND
  8
0
  5
493C5
  0
POLYLINE
  8
0
  5
493C6
 66
     1
 10
0.0
 20
0.0
 30
0.0
  0
VERTEX
  8
0
  5
493C7
 10
45.875856
 20
168.544038
 30
0.0
  0
VERTEX
  8
0
  5
493C8
 10
59.304381
 20
168.348698
 30
0.0
  0
VERTEX
  8
0
  5
493C9
 10
59.304381
 20
168.347229
 30
0.0
  0
SEQEND
  8
0
  5
493CA
  0
POLYLINE
  8
0
  5
493CB
 66
     1
 10
0.0
 20
0.0
 30
0.0
  0
VERTEX
  8
0
  5
493CC
 10
45.875856
 20
170.681028
 30
0.0
  0
VERTEX
  8
0
  5
493CD
 10
45.875856
 20
168.544038
 30
0.0
  0
VERTEX
  8
0
  5
493CE
 10
45.875856
 20
168.542569
 30
0.0
  0
SEQEND
  8
0
  5
493CF
  0
POLYLINE
  8
0
  5
493D0
 66
     1
 10
0.0
 20
0.0
 30
0.0
  0
VERTEX
  8
0
  5
493D1
 10
59.012106
 20
170.8749
 30
0.0
  0
VERTEX
  8
0
  5
493D2
 10
45.875856
 20
170.681028
 30
0.0
  0
VERTEX
  8
0
  5
493D3
 10
45.875856
 20
170.67956
 30
0.0
  0
SEQEND
  8
0
  5
493D4
  0
POLYLINE
  8
0
  5
493D5
 66
     1
 10
0.0
 20
0.0
 30
0.0
  0
VERTEX
  8
0
  5
493D6
 10
65.920974
 20
170.8749
 30
0.0
  0
VERTEX
  8
0
  5
493D7
 10
61.250438
 20
170.971835
 30
0.0
  0
VERTEX
  8
0
  5
493D8
 10
61.250438
 20
170.970367
 30
0.0
  0
SEQEND
  8
0
  5
493D9
  0
POLYLINE
  8
0
  5
493DA
 66
     1
 10
0.0
 20
0.0
 30
0.0
  0
VERTEX
  8
0
  5
493DB
 10
59.304381
 20
168.348698
 30
0.0
  0
VERTEX
  8
0
  5
493DC
 10
62.222732
 20
168.445633
 30
0.0
  0
VERTEX
  8
0
  5
493DD
 10
62.222732
 20
168.444165
 30
0.0
  0
SEQEND
  8
0
  5
493DE
  0
POLYLINE
  8
0
  5
493DF
 66
     1
 10
0.0
 20
0.0
 30
0.0
  0
VERTEX
  8
0
  5
493E0
 10
60.568951
 20
171.748789
 30
0.0
  0
VERTEX
  8
0
  5
493E1
 10
59.012106
 20
170.8749
 30
0.0
  0
VERTEX
  8
0
  5
493E2
 10
59.012106
 20
170.873431
 30
0.0
  0
SEQEND
  8
0
  5
493E3
  0
POLYLINE
  8
0
  5
493E4
 66
     1
 10
0.0
 20
0.0
 30
0.0
  0
VERTEX
  8
0
  5
493E5
 10
61.250438
 20
171.748789
 30
0.0
  0
VERTEX
  8
0
  5
493E6
 10
60.568951
 20
171.748789
 30
0.0
  0
VERTEX
  8
0
  5
493E7
 10
60.568951
 20
171.747321
 30
0.0
  0
SEQEND
  8
0
  5
493E8
  0
POLYLINE
  8
0
  5
493E9
 66
     1
 10
0.0
 20
0.0
 30
0.0
  0
VERTEX
  8
0
  5
493EA
 10
61.250438
 20
170.971835
 30
0.0
  0
VERTEX
  8
0
  5
493EB
 10
61.250438
 20
171.748789
 30
0.0
  0
VERTEX
  8
0
  5
493EC
 10
61.250438
 20
171.747321
 30
0.0
  0
SEQEND
  8
0
  5
493ED
  0
POLYLINE
  8
0
  5
493EE
 66
     1
 10
0.0
 20
0.0
 30
0.0
  0
VERTEX
  8
0
  5
493EF
 10
65.920974
 20
147.175601
 30
0.0
  0
VERTEX
  8
0
  5
493F0
 10
65.920974
 20
144.649399
 30
0.0
  0
VERTEX
  8
0
  5
493F1
 10
65.920974
 20
144.64793
 30
0.0
  0
SEQEND
  8
0
  5
493F2
  0
POLYLINE
  8
0
  5
493F3
 66
     1
 10
0.0
 20
0.0
 30
0.0
  0
VERTEX
  8
0
  5
493F4
 10
66.893268
 20
148.146426
 30
0.0
  0
VERTEX
  8
0
  5
493F5
 10
65.920974
 20
148.146426
 30
0.0
  0
VERTEX
  8
0
  5
493F6
 10
65.920974
 20
148.144957
 30
0.0
  0
SEQEND
  8
0
  5
493F7
  0
POLYLINE
  8
0
  5
493F8
 66
     1
 10
0.0
 20
0.0
 30
0.0
  0
VERTEX
  8
0
  5
493F9
 10
65.920974
 20
148.146426
 30
0.0
  0
VERTEX
  8
0
  5
493FA
 10
64.364129
 20
148.243362
 30
0.0
  0
VERTEX
  8
0
  5
493FB
 10
64.364129
 20
148.241893
 30
0.0
  0
SEQEND
  8
0
  5
493FC
  0
POLYLINE
  8
0
  5
493FD
 66
     1
 10
0.0
 20
0.0
 30
0.0
  0
VERTEX
  8
0
  5
493FE
 10
64.364129
 20
148.243362
 30
0.0
  0
VERTEX
  8
0
  5
493FF
 10
64.850276
 20
148.243362
 30
0.0
  0
VERTEX
  8
0
  5
49400
 10
64.850276
 20
148.241893
 30
0.0
  0
SEQEND
  8
0
  5
49401
  0
POLYLINE
  8
0
  5
49402
 66
     1
 10
0.0
 20
0.0
 30
0.0
  0
VERTEX
  8
0
  5
49403
 10
62.222732
 20
149.79727
 30
0.0
  0
VERTEX
  8
0
  5
49404
 10
59.304381
 20
149.894205
 30
0.0
  0
VERTEX
  8
0
  5
49405
 10
59.304381
 20
149.892736
 30
0.0
  0
SEQEND
  8
0
  5
49406
  0
POLYLINE
  8
0
  5
49407
 66
     1
 10
0.0
 20
0.0
 30
0.0
  0
VERTEX
  8
0
  5
49408
 10
59.304381
 20
167.668679
 30
0.0
  0
VERTEX
  8
0
  5
49409
 10
59.304381
 20
162.326937
 30
0.0
  0
VERTEX
  8
0
  5
4940A
 10
59.304381
 20
162.325469
 30
0.0
  0
SEQEND
  8
0
  5
4940B
  0
POLYLINE
  8
0
  5
4940C
 66
     1
 10
0.0
 20
0.0
 30
0.0
  0
VERTEX
  8
0
  5
4940D
 10
45.875856
 20
162.03613
 30
0.0
  0
VERTEX
  8
0
  5
4940E
 10
48.503399
 20
162.133066
 30
0.0
  0
VERTEX
  8
0
  5
4940F
 10
48.503399
 20
162.131597
 30
0.0
  0
SEQEND
  8
0
  5
49410
  0
POLYLINE
  8
0
  5
49411
 66
     1
 10
0.0
 20
0.0
 30
0.0
  0
VERTEX
  8
0
  5
49412
 10
59.304381
 20
162.326937
 30
0.0
  0
VERTEX
  8
0
  5
49413
 10
45.875856
 20
162.03613
 30
0.0
  0
VERTEX
  8
0
  5
49414
 10
45.875856
 20
162.034662
 30
0.0
  0
SEQEND
  8
0
  5
49415
  0
POLYLINE
  8
0
  5
49416
 66
     1
 10
0.0
 20
0.0
 30
0.0
  0
VERTEX
  8
0
  5
49417
 10
48.503399
 20
162.133066
 30
0.0
  0
VERTEX
  8
0
  5
49418
 10
59.304381
 20
162.326937
 30
0.0
  0
VERTEX
  8
0
  5
49419
 10
59.304381
 20
162.325469
 30
0.0
  0
SEQEND
  8
0
  5
4941A
  0
POLYLINE
  8
0
  5
4941B
 66
     1
 10
0.0
 20
0.0
 30
0.0
  0
VERTEX
  8
0
  5
4941C
 10
48.503399
 20
162.133066
 30
0.0
  0
VERTEX
  8
0
  5
4941D
 10
48.503399
 20
162.619213
 30
0.0
  0
VERTEX
  8
0
  5
4941E
 10
48.503399
 20
162.617744
 30
0.0
  0
SEQEND
  8
0
  5
4941F
  0
POLYLINE
  8
0
  5
49420
 66
     1
 10
0.0
 20
0.0
 30
0.0
  0
VERTEX
  8
0
  5
49421
 10
48.503399
 20
168.057891
 30
0.0
  0
VERTEX
  8
0
  5
49422
 10
48.503399
 20
168.544038
 30
0.0
  0
VERTEX
  8
0
  5
49423
 10
48.503399
 20
168.542569
 30
0.0
  0
SEQEND
  8
0
  5
49424
  0
POLYLINE
  8
0
  5
49425
 66
     1
 10
0.0
 20
0.0
 30
0.0
  0
VERTEX
  8
0
  5
49426
 10
58.818234
 20
162.813084
 30
0.0
  0
VERTEX
  8
0
  5
49427
 10
58.818234
 20
167.864019
 30
0.0
  0
VERTEX
  8
0
  5
49428
 10
58.818234
 20
167.862551
 30
0.0
  0
SEQEND
  8
0
  5
49429
  0
POLYLINE
  8
0
  5
4942A
 66
     1
 10
0.0
 20
0.0
 30
0.0
  0
VERTEX
  8
0
  5
4942B
 10
62.222732
 20
168.445633
 30
0.0
  0
VERTEX
  8
0
  5
4942C
 10
64.364129
 20
168.93178
 30
0.0
  0
VERTEX
  8
0
  5
4942D
 10
64.364129
 20
168.930312
 30
0.0
  0
SEQEND
  8
0
  5
4942E
  0
POLYLINE
  8
0
  5
4942F
 66
     1
 10
0.0
 20
0.0
 30
0.0
  0
VERTEX
  8
0
  5
49430
 10
64.364129
 20
168.93178
 30
0.0
  0
VERTEX
  8
0
  5
49431
 10
64.364129
 20
170.00101
 30
0.0
  0
VERTEX
  8
0
  5
49432
 10
64.364129
 20
169.999541
 30
0.0
  0
SEQEND
  8
0
  5
49433
  0
POLYLINE
  8
0
  5
49434
 66
     1
 10
0.0
 20
0.0
 30
0.0
  0
VERTEX
  8
0
  5
49435
 10
60.568951
 20
171.748789
 30
0.0
  0
VERTEX
  8
0
  5
49436
 10
59.012106
 20
170.8749
 30
0.0
  0
VERTEX
  8
0
  5
49437
 10
59.012106
 20
170.873431
 30
0.0
  0
SEQEND
  8
0
  5
49438
  0
POLYLINE
  8
0
  5
49439
 66
     1
 10
0.0
 20
0.0
 30
0.0
  0
VERTEX
  8
0
  5
4943A
 10
59.012106
 20
170.8749
 30
0.0
  0
VERTEX
  8
0
  5
4943B
 10
45.875856
 20
170.681028
 30
0.0
  0
VERTEX
  8
0
  5
4943C
 10
45.875856
 20
170.67956
 30
0.0
  0
SEQEND
  8
0
  5
4943D
  0
POLYLINE
  8
0
  5
4943E
 66
     1
 10
0.0
 20
0.0
 30
0.0
  0
VERTEX
  8
0
  5
4943F
 10
65.920974
 20
171.068771
 30
0.0
  0
VERTEX
  8
0
  5
49440
 10
61.250438
 20
170.971835
 30
0.0
  0
VERTEX
  8
0
  5
49441
 10
61.250438
 20
170.970367
 30
0.0
  0
SEQEND
  8
0
  5
49442
  0
POLYLINE
  8
0
  5
49443
 66
     1
 10
0.0
 20
0.0
 30
0.0
  0
VERTEX
  8
0
  5
49444
 10
65.920974
 20
173.593504
 30
0.0
  0
VERTEX
  8
0
  5
49445
 10
65.920974
 20
171.068771
 30
0.0
  0
VERTEX
  8
0
  5
49446
 10
65.920974
 20
171.067302
 30
0.0
  0
SEQEND
  8
0
  5
49447
  0
POLYLINE
  8
0
  5
49448
 66
     1
 10
0.0
 20
0.0
 30
0.0
  0
VERTEX
  8
0
  5
49449
 10
64.75334
 20
170.00101
 30
0.0
  0
VERTEX
  8
0
  5
4944A
 10
66.893268
 20
170.097946
 30
0.0
  0
VERTEX
  8
0
  5
4944B
 10
66.893268
 20
170.096477
 30
0.0
  0
SEQEND
  8
0
  5
4944C
  0
POLYLINE
  8
0
  5
4944D
 66
     1
 10
0.0
 20
0.0
 30
0.0
  0
VERTEX
  8
0
  5
4944E
 10
66.893268
 20
170.097946
 30
0.0
  0
VERTEX
  8
0
  5
4944F
 10
66.893268
 20
173.593504
 30
0.0
  0
VERTEX
  8
0
  5
49450
 10
66.893268
 20
173.592036
 30
0.0
  0
SEQEND
  8
0
  5
49451
  0
ENDSEC
  0
EOF
