  0
SECTION
  2
HEADER
  9
$ACADVER
  1
AC1009
  9
$INSBASE
 10
0.0
 20
0.0
 30
0.0
  9
$EXTMIN
 10
-423.6774
 20
592.005916
 30
0.0
  9
$EXTMAX
 10
38.3226
 20
699.517767
 30
0.0
  9
$LIMMIN
 10
-423.6774
 20
592.005916
  9
$LIMMAX
 10
38.3226
 20
699.0
  9
$ORTHOMODE
 70
     0
  9
$REGENMODE
 70
     1
  9
$FILLMODE
 70
     1
  9
$QTEXTMODE
 70
     0
  9
$MIRRTEXT
 70
     1
  9
$DRAGMODE
 70
     2
  9
$LTSCALE
 40
1.0
  9
$OSMODE
 70
     0
  9
$ATTMODE
 70
     1
  9
$TEXTSIZE
 40
3.5
  9
$TRACEWID
 40
0.5
  9
$TEXTSTYLE
  7
STANDARD
  9
$CLAYER
  8
0
  9
$CELTYPE
  6
BYLAYER
  9
$CECOLOR
 62
   256
  9
$DIMSCALE
 40
1.0
  9
$DIMASZ
 40
0.18
  9
$DIMEXO
 40
0.0625
  9
$DIMDLI
 40
0.38
  9
$DIMRND
 40
0.0
  9
$DIMDLE
 40
0.0
  9
$DIMEXE
 40
0.18
  9
$DIMTP
 40
0.0
  9
$DIMTM
 40
0.0
  9
$DIMTXT
 40
0.18
  9
$DIMCEN
 40
0.09
  9
$DIMTSZ
 40
0.0
  9
$DIMTOL
 70
     0
  9
$DIMLIM
 70
     0
  9
$DIMTIH
 70
     1
  9
$DIMTOH
 70
     1
  9
$DIMSE1
 70
     0
  9
$DIMSE2
 70
     0
  9
$DIMTAD
 70
     0
  9
$DIMZIN
 70
     0
  9
$DIMBLK
  1

  9
$DIMASO
 70
     1
  9
$DIMSHO
 70
     1
  9
$DIMPOST
  1

  9
$DIMAPOST
  1

  9
$DIMALT
 70
     0
  9
$DIMALTD
 70
     2
  9
$DIMALTF
 40
25.4
  9
$DIMLFAC
 40
1.0
  9
$DIMTOFL
 70
     0
  9
$DIMTVP
 40
0.0
  9
$DIMTIX
 70
     0
  9
$DIMSOXD
 70
     0
  9
$DIMSAH
 70
     0
  9
$DIMBLK1
  1

  9
$DIMBLK2
  1

  9
$DIMSTYLE
  2
*UNNAMED
  9
$DIMCLRD
 70
     0
  9
$DIMCLRE
 70
     0
  9
$DIMCLRT
 70
     0
  9
$DIMTFAC
 40
1.0
  9
$DIMGAP
 40
0.09
  9
$LUNITS
 70
     2
  9
$LUPREC
 70
     4
  9
$SKETCHINC
 40
0.1
  9
$FILLETRAD
 40
2.0
  9
$AUNITS
 70
     0
  9
$AUPREC
 70
     0
  9
$MENU
  1
ACAD
  9
$ELEVATION
 40
0.0
  9
$PELEVATION
 40
0.0
  9
$THICKNESS
 40
0.0
  9
$LIMCHECK
 70
     0
  9
$BLIPMODE
 70
     1
  9
$CHAMFERA
 40
0.0
  9
$CHAMFERB
 40
0.0
  9
$SKPOLY
 70
     0
  9
$TDCREATE
 40
2450948.567405092
  9
$TDUPDATE
 40
2450948.567628241
  9
$TDINDWG
 40
0.0001405093
  9
$TDUSRTIMER
 40
0.0001405093
  9
$USRTIMER
 70
     1
  9
$ANGBASE
 50
0.0
  9
$ANGDIR
 70
     0
  9
$PDMODE
 70
     0
  9
$PDSIZE
 40
0.0
  9
$PLINEWID
 40
0.0
  9
$COORDS
 70
     2
  9
$SPLFRAME
 70
     0
  9
$SPLINETYPE
 70
     6
  9
$SPLINESEGS
 70
     8
  9
$ATTDIA
 70
     0
  9
$ATTREQ
 70
     1
  9
$HANDLING
 70
     0
  9
$HANDSEED
  5
0
  9
$SURFTAB1
 70
     6
  9
$SURFTAB2
 70
     6
  9
$SURFTYPE
 70
     6
  9
$SURFU
 70
     6
  9
$SURFV
 70
     6
  9
$UCSNAME
  2

  9
$UCSORG
 10
0.0
 20
0.0
 30
0.0
  9
$UCSXDIR
 10
1.0
 20
0.0
 30
0.0
  9
$UCSYDIR
 10
0.0
 20
1.0
 30
0.0
  9
$PUCSNAME
  2

  9
$PUCSORG
 10
0.0
 20
0.0
 30
0.0
  9
$PUCSXDIR
 10
1.0
 20
0.0
 30
0.0
  9
$PUCSYDIR
 10
0.0
 20
1.0
 30
0.0
  9
$USERI1
 70
     0
  9
$USERI2
 70
     0
  9
$USERI3
 70
     0
  9
$USERI4
 70
     0
  9
$USERI5
 70
     0
  9
$USERR1
 40
0.0
  9
$USERR2
 40
0.0
  9
$USERR3
 40
0.0
  9
$USERR4
 40
0.0
  9
$USERR5
 40
0.0
  9
$WORLDVIEW
 70
     1
  9
$SHADEDGE
 70
     3
  9
$SHADEDIF
 70
    70
  9
$TILEMODE
 70
     1
  9
$MAXACTVP
 70
    16
  9
$PINSBASE
 10
0.0
 20
0.0
 30
0.0
  9
$PLIMCHECK
 70
     0
  9
$PEXTMIN
 10
1.000000E+20
 20
1.000000E+20
 30
1.000000E+20
  9
$PEXTMAX
 10
-1.000000E+20
 20
-1.000000E+20
 30
-1.000000E+20
  9
$PLIMMIN
 10
0.0
 20
0.0
  9
$PLIMMAX
 10
420.0
 20
297.0
  9
$UNITMODE
 70
     0
  9
$VISRETAIN
 70
     0
  9
$PLINEGEN
 70
     0
  9
$PSLTSCALE
 70
     1
  9
$TREEDEPTH
 70
  3020
  9
$DWGCODEPAGE
  3
iso8859-1
  0
ENDSEC
  0
SECTION
  2
TABLES
  0
TABLE
  2
VPORT
 70
     2
  0
VPORT
  2
*ACTIVE
 70
     0
 10
0.0
 20
0.0
 11
1.0
 21
1.0
 12
-192.677401
 22
681.654242
 13
0.0
 23
0.0
 14
1.0
 24
1.0
 15
0.0
 25
0.0
 16
0.0
 26
0.0
 36
1.0
 17
0.0
 27
0.0
 37
0.0
 40
280.562239
 41
1.748359
 42
50.0
 43
0.0
 44
0.0
 50
0.0
 51
0.0
 71
     0
 72
   100
 73
     1
 74
     0
 75
     0
 76
     0
 77
     0
 78
     0
  0
ENDTAB
  0
TABLE
  2
LTYPE
 70
     1
  0
LTYPE
  2
CONTINUOUS
 70
    64
  3
Solid line
 72
    65
 73
     0
 40
0.0
  0
ENDTAB
  0
TABLE
  2
LAYER
 70
     1
  0
LAYER
  2
0
 70
    64
 62
     7
  6
CONTINUOUS
  0
ENDTAB
  0
TABLE
  2
STYLE
 70
     1
  0
STYLE
  2
STANDARD
 70
     0
 40
0.0
 41
1.0
 50
0.0
 71
     0
 42
3.5
  3
txt
  4

  0
ENDTAB
  0
TABLE
  2
VIEW
 70
     0
  0
ENDTAB
  0
TABLE
  2
UCS
 70
     0
  0
ENDTAB
  0
TABLE
  2
APPID
 70
     1
  0
APPID
  2
ACAD
 70
    64
  0
ENDTAB
  0
TABLE
  2
DIMSTYLE
 70
     0
  0
ENDTAB
  0
ENDSEC
  0
SECTION
  2
BLOCKS
  0
ENDSEC
  0
SECTION
  2
ENTITIES
  0
LINE
  8
0
 10
-44.1764
 20
617.001333
 30
0.0
 11
38.3226
 21
617.005916
 31
0.0
  0
LINE
  8
0
 10
-44.1774
 20
635.0
 30
0.0
 11
-44.1764
 21
617.001333
 31
0.0
  0
LINE
  8
0
 10
-338.1774
 20
635.0
 30
0.0
 11
-338.1774
 21
617.0
 31
0.0
  0
LINE
  8
0
 10
-68.1774
 20
617.0
 30
0.0
 11
-338.1774
 21
617.0
 31
0.0
  0
LINE
  8
0
 10
-68.1774
 20
617.0
 30
0.0
 11
-44.1764
 21
617.001333
 31
0.0
  0
LINE
  8
0
 10
-338.1774
 20
617.0
 30
0.0
 11
-423.6774
 21
617.005916
 31
0.0
  0
LINE
  8
0
 10
-44.6774
 20
640.5
 30
0.0
 11
-44.673837
 21
678.722073
 31
0.0
  0
LINE
  8
0
 10
-41.1774
 20
678.757359
 30
0.0
 11
-41.1774
 21
638.0
 31
0.0
  0
LINE
  8
0
 10
-48.470293
 20
687.292893
 30
0.0
 11
-42.05608
 21
680.87868
 31
0.0
  0
LINE
  8
0
 10
-53.536276
 20
688.414214
 30
0.0
 11
-45.259623
 21
680.136286
 31
0.0
  0
LINE
  8
0
 10
-43.6774
 20
690.0
 30
0.0
 11
-43.6774
 21
692.085786
 31
0.0
  0
LINE
  8
0
 10
-47.763187
 20
689.0
 30
0.0
 11
-44.6774
 21
689.0
 31
0.0
  0
LINE
  8
0
 10
-43.970293
 20
692.792893
 30
0.0
 11
-45.884507
 21
694.707107
 31
0.0
  0
LINE
  8
0
 10
-60.1774
 20
689.0
 30
0.0
 11
-54.95049
 21
689.0
 31
0.0
  0
LINE
  8
0
 10
-98.6774
 20
690.0
 30
0.0
 11
-98.6774
 21
694.0
 31
0.0
  0
LINE
  8
0
 10
-60.6774
 20
686.5
 30
0.0
 11
-60.6774
 21
688.5
 31
0.0
  0
LINE
  8
0
 10
-64.712934
 20
688.12132
 30
0.0
 11
-62.384507
 21
685.792893
 31
0.0
  0
LINE
  8
0
 10
-97.6774
 20
689.0
 30
0.0
 11
-66.834255
 21
689.0
 31
0.0
  0
LINE
  8
0
 10
-46.591614
 20
695.0
 30
0.0
 11
-97.6774
 21
695.0
 31
0.0
  0
LINE
  8
0
 10
-45.6774
 20
691.671573
 30
0.0
 11
-47.005827
 21
693.0
 31
0.0
  0
LINE
  8
0
 10
-45.6774
 20
691.0
 30
0.0
 11
-45.6774
 21
691.671573
 31
0.0
  0
LINE
  8
0
 10
-60.6774
 20
691.0
 30
0.0
 11
-45.6774
 21
691.0
 31
0.0
  0
LINE
  8
0
 10
-96.6774
 20
693.0
 30
0.0
 11
-47.005827
 21
693.0
 31
0.0
  0
LINE
  8
0
 10
-96.6774
 20
693.0
 30
0.0
 11
-96.6774
 21
691.0
 31
0.0
  0
LINE
  8
0
 10
-60.6774
 20
692.0
 30
0.0
 11
-60.6774
 21
691.0
 31
0.0
  0
LINE
  8
0
 10
-96.6774
 20
691.0
 30
0.0
 11
-64.970293
 21
691.0
 31
0.0
  0
LINE
  8
0
 10
-64.61674
 20
690.853553
 30
0.0
 11
-62.6774
 21
688.914214
 31
0.0
  0
LINE
  8
0
 10
-62.6774
 20
692.0
 30
0.0
 11
-62.6774
 21
688.914214
 31
0.0
  0
LINE
  8
0
 10
-341.1774
 20
638.0
 30
0.0
 11
-341.1774
 21
678.757359
 31
0.0
  0
LINE
  8
0
 10
-340.298721
 20
680.87868
 30
0.0
 11
-333.884507
 21
687.292893
 31
0.0
  0
LINE
  8
0
 10
-337.095178
 20
680.136286
 30
0.0
 11
-328.818524
 21
688.414214
 31
0.0
  0
LINE
  8
0
 10
-337.680964
 20
678.722073
 30
0.0
 11
-337.6774
 21
640.5
 31
0.0
  0
LINE
  8
0
 10
-338.6774
 20
692.085786
 30
0.0
 11
-338.6774
 21
690.0
 31
0.0
  0
LINE
  8
0
 10
-337.6774
 20
689.0
 30
0.0
 11
-334.591614
 21
689.0
 31
0.0
  0
LINE
  8
0
 10
-336.470293
 20
694.707107
 30
0.0
 11
-338.384507
 21
692.792893
 31
0.0
  0
LINE
  8
0
 10
-327.404311
 20
689.0
 30
0.0
 11
-322.1774
 21
689.0
 31
0.0
  0
LINE
  8
0
 10
-283.6774
 20
694.0
 30
0.0
 11
-283.6774
 21
690.0
 31
0.0
  0
LINE
  8
0
 10
-321.6774
 20
688.5
 30
0.0
 11
-321.6774
 21
686.5
 31
0.0
  0
LINE
  8
0
 10
-319.970293
 20
685.792893
 30
0.0
 11
-317.641866
 21
688.12132
 31
0.0
  0
LINE
  8
0
 10
-315.520546
 20
689.0
 30
0.0
 11
-284.6774
 21
689.0
 31
0.0
  0
LINE
  8
0
 10
-284.6774
 20
695.0
 30
0.0
 11
-335.763187
 21
695.0
 31
0.0
  0
LINE
  8
0
 10
-335.348973
 20
693.0
 30
0.0
 11
-336.6774
 21
691.671573
 31
0.0
  0
LINE
  8
0
 10
-336.6774
 20
691.671573
 30
0.0
 11
-336.6774
 21
691.0
 31
0.0
  0
LINE
  8
0
 10
-336.6774
 20
691.0
 30
0.0
 11
-321.6774
 21
691.0
 31
0.0
  0
LINE
  8
0
 10
-335.348973
 20
693.0
 30
0.0
 11
-285.6774
 21
693.0
 31
0.0
  0
LINE
  8
0
 10
-285.6774
 20
691.0
 30
0.0
 11
-285.6774
 21
693.0
 31
0.0
  0
LINE
  8
0
 10
-321.6774
 20
691.0
 30
0.0
 11
-321.6774
 21
692.0
 31
0.0
  0
LINE
  8
0
 10
-317.384507
 20
691.0
 30
0.0
 11
-285.6774
 21
691.0
 31
0.0
  0
LINE
  8
0
 10
-319.6774
 20
688.914214
 30
0.0
 11
-317.73806
 21
690.853553
 31
0.0
  0
LINE
  8
0
 10
-319.6774
 20
688.914214
 30
0.0
 11
-319.6774
 21
692.0
 31
0.0
  0
LINE
  8
0
 10
-335.6774
 20
638.5
 30
0.0
 11
-46.6774
 21
638.5
 31
0.0
  0
LINE
  8
0
 10
-338.1774
 20
635.0
 30
0.0
 11
-44.1774
 21
635.0
 31
0.0
  0
ARC
  8
0
 10
-61.6774
 20
692.0
 30
0.0
 40
1.0
 50
0.0
 51
180.0
  0
ARC
  8
0
 10
-61.6774
 20
686.5
 30
0.0
 40
1.0
 50
225.0
 51
0.0
  0
ARC
  8
0
 10
-320.6774
 20
692.0
 30
0.0
 40
1.0
 50
0.0
 51
180.0
  0
ARC
  8
0
 10
-320.6774
 20
686.5
 30
0.0
 40
1.0
 50
180.0
 51
315.0
  0
ARC
  8
0
 10
-44.1774
 20
638.0
 30
0.0
 40
3.0
 50
270.0
 51
0.0
  0
ARC
  8
0
 10
-46.6774
 20
640.5
 30
0.0
 40
2.0
 50
270.0
 51
0.0
  0
ARC
  8
0
 10
-47.763187
 20
688.0
 30
0.0
 40
1.0
 50
90.0
 51
225.0
  0
ARC
  8
0
 10
-44.6774
 20
690.0
 30
0.0
 40
1.0
 50
270.0
 51
0.0
  0
ARC
  8
0
 10
-97.6774
 20
694.0
 30
0.0
 40
1.0
 50
90.0
 51
180.0
  0
ARC
  8
0
 10
-97.6774
 20
690.0
 30
0.0
 40
1.0
 50
180.0
 51
270.0
  0
ARC
  8
0
 10
-64.970293
 20
690.5
 30
0.0
 40
0.5
 50
45.0
 51
90.0
  0
ARC
  8
0
 10
-46.591614
 20
694.0
 30
0.0
 40
1.0
 50
45.0
 51
90.0
  0
ARC
  8
0
 10
-44.6774
 20
692.085786
 30
0.0
 40
1.0
 50
0.0
 51
45.0
  0
ARC
  8
0
 10
-54.95049
 20
687.0
 30
0.0
 40
2.0
 50
45.0
 51
90.0
  0
ARC
  8
0
 10
-60.1774
 20
688.5
 30
0.0
 40
0.5
 50
90.0
 51
180.0
  0
ARC
  8
0
 10
-66.834255
 20
686.0
 30
0.0
 40
3.0
 50
45.0
 51
90.0
  0
ARC
  8
0
 10
-46.673837
 20
678.722073
 30
0.0
 40
2.0
 50
0.0
 51
45.0
  0
ARC
  8
0
 10
-44.1774
 20
678.757359
 30
0.0
 40
3.0
 50
0.0
 51
45.0
  0
ARC
  8
0
 10
-334.591614
 20
688.0
 30
0.0
 40
1.0
 50
315.0
 51
90.0
  0
ARC
  8
0
 10
-337.6774
 20
690.0
 30
0.0
 40
1.0
 50
180.0
 51
270.0
  0
ARC
  8
0
 10
-284.6774
 20
694.0
 30
0.0
 40
1.0
 50
0.0
 51
90.0
  0
ARC
  8
0
 10
-284.6774
 20
690.0
 30
0.0
 40
1.0
 50
270.0
 51
0.0
  0
ARC
  8
0
 10
-317.384507
 20
690.5
 30
0.0
 40
0.5
 50
90.0
 51
135.0
  0
ARC
  8
0
 10
-335.763187
 20
694.0
 30
0.0
 40
1.0
 50
90.0
 51
135.0
  0
ARC
  8
0
 10
-337.6774
 20
692.085786
 30
0.0
 40
1.0
 50
135.0
 51
180.0
  0
ARC
  8
0
 10
-327.404311
 20
687.0
 30
0.0
 40
2.0
 50
90.0
 51
135.0
  0
ARC
  8
0
 10
-322.1774
 20
688.5
 30
0.0
 40
0.5
 50
0.0
 51
90.0
  0
ARC
  8
0
 10
-315.520546
 20
686.0
 30
0.0
 40
3.0
 50
90.0
 51
135.0
  0
ARC
  8
0
 10
-335.680964
 20
678.722073
 30
0.0
 40
2.0
 50
135.0
 51
180.0
  0
ARC
  8
0
 10
-338.1774
 20
638.0
 30
0.0
 40
3.0
 50
180.0
 51
270.0
  0
ARC
  8
0
 10
-335.6774
 20
640.5
 30
0.0
 40
2.0
 50
180.0
 51
270.0
  0
ARC
  8
0
 10
-338.1774
 20
678.757359
 30
0.0
 40
3.0
 50
135.0
 51
180.0
  0
LINE
  8
0
 10
-41.1774
 20
696.5
 30
0.0
 11
-41.1774
 21
685.0
 31
0.0
  0
LINE
  8
0
 10
-338.839161
 20
699.0
 30
0.0
 11
-43.6774
 21
699.0
 31
0.0
  0
LINE
  8
0
 10
-45.1774
 20
696.5
 30
0.0
 11
-337.339161
 21
696.5
 31
0.0
  0
LINE
  8
0
 10
-44.591614
 20
683.585786
 30
0.0
 11
-48.402274
 21
687.396447
 31
0.0
  0
LINE
  8
0
 10
-47.73806
 20
689.0
 30
0.0
 11
-44.2774
 21
689.0
 31
0.0
  0
LINE
  8
0
 10
-43.853136
 20
687.975736
 30
0.0
 11
-45.003136
 21
686.825736
 31
0.0
  0
LINE
  8
0
 10
-45.003136
 20
686.825736
 30
0.0
 11
-43.6774
 21
685.5
 31
0.0
  0
LINE
  8
0
 10
-43.6774
 20
685.5
 30
0.0
 11
-43.6774
 21
695.0
 31
0.0
  0
LINE
  8
0
 10
-334.114287
 20
687.396447
 30
0.0
 11
-337.924947
 21
683.585786
 31
0.0
  0
LINE
  8
0
 10
-338.239161
 20
689.0
 30
0.0
 11
-334.7785
 21
689.0
 31
0.0
  0
LINE
  8
0
 10
-337.513425
 20
686.825736
 30
0.0
 11
-338.663425
 21
687.975736
 31
0.0
  0
LINE
  8
0
 10
-338.839161
 20
685.5
 30
0.0
 11
-337.513425
 21
686.825736
 31
0.0
  0
LINE
  8
0
 10
-338.839161
 20
695.0
 30
0.0
 11
-338.839161
 21
685.5
 31
0.0
  0
LINE
  8
0
 10
-341.339161
 20
685.0
 30
0.0
 11
-341.339161
 21
696.5
 31
0.0
  0
ARC
  8
0
 10
-47.73806
 20
688.06066
 30
0.0
 40
0.93934
 50
180.866301
 51
225.0
  0
ARC
  8
0
 10
-44.2774
 20
688.4
 30
0.0
 40
0.6
 50
315.0
 51
90.0
  0
ARC
  8
0
 10
-43.1774
 20
685.0
 30
0.0
 40
2.0
 50
225.0
 51
0.0
  0
ARC
  8
0
 10
-334.7785
 20
688.06066
 30
0.0
 40
0.93934
 50
359.820102
 51
90.0
  0
ARC
  8
0
 10
-338.239161
 20
688.4
 30
0.0
 40
0.6
 50
90.0
 51
225.0
  0
ARC
  8
0
 10
-339.339161
 20
685.0
 30
0.0
 40
2.0
 50
180.0
 51
315.0
  0
ARC
  8
0
 10
-334.7785
 20
688.06066
 30
0.0
 40
0.93934
 50
315.0
 51
359.820102
  0
ARC
  8
0
 10
-47.73806
 20
688.06066
 30
0.0
 40
0.93934
 50
90.0
 51
180.866301
  0
ARC
  8
0
 10
-43.6774
 20
696.5
 30
0.0
 40
2.5
 50
0.0
 51
90.0
  0
ARC
  8
0
 10
-338.839161
 20
696.5
 30
0.0
 40
2.5
 50
90.0
 51
180.0
  0
ARC
  8
0
 10
-45.1774
 20
695.0
 30
0.0
 40
1.5
 50
0.0
 51
90.0
  0
ARC
  8
0
 10
-337.339161
 20
695.0
 30
0.0
 40
1.5
 50
90.0
 51
180.0
  0
LINE
  8
0
 10
-183.853302
 20
638.5
 30
0.0
 11
-208.853302
 21
638.5
 31
0.0
  0
LINE
  8
0
 10
-175.853302
 20
677.014719
 30
0.0
 11
-175.853302
 21
646.5
 31
0.0
  0
LINE
  8
0
 10
-184.767516
 20
688.414214
 30
0.0
 11
-177.610661
 21
681.257359
 31
0.0
  0
LINE
  8
0
 10
-190.853302
 20
689.0
 30
0.0
 11
-186.181729
 21
689.0
 31
0.0
  0
LINE
  8
0
 10
-191.853302
 20
685.0
 30
0.0
 11
-191.853302
 21
688.0
 31
0.0
  0
LINE
  8
0
 10
-187.010156
 20
685.0
 30
0.0
 11
-187.853302
 21
685.0
 31
0.0
  0
LINE
  8
0
 10
-180.439088
 20
678.428932
 30
0.0
 11
-187.010156
 21
685.0
 31
0.0
  0
LINE
  8
0
 10
-179.853302
 20
646.5
 30
0.0
 11
-179.853302
 21
677.014719
 31
0.0
  0
LINE
  8
0
 10
-208.853302
 20
642.5
 30
0.0
 11
-183.853302
 21
642.5
 31
0.0
  0
ARC
  8
0
 10
-208.853302
 20
640.5
 30
0.0
 40
2.0
 50
180.0
 51
270.0
  0
ARC
  8
0
 10
-208.853302
 20
640.5
 30
0.0
 40
2.0
 50
90.0
 51
180.0
  0
ARC
  8
0
 10
-189.853302
 20
685.0
 30
0.0
 40
2.0
 50
180.0
 51
0.0
  0
ARC
  8
0
 10
-186.181729
 20
687.0
 30
0.0
 40
2.0
 50
45.0
 51
90.0
  0
ARC
  8
0
 10
-190.853302
 20
688.0
 30
0.0
 40
1.0
 50
90.0
 51
180.0
  0
ARC
  8
0
 10
-181.853302
 20
677.014719
 30
0.0
 40
6.0
 50
0.0
 51
45.0
  0
ARC
  8
0
 10
-183.853302
 20
646.5
 30
0.0
 40
8.0
 50
270.0
 51
0.0
  0
ARC
  8
0
 10
-183.853302
 20
646.5
 30
0.0
 40
4.0
 50
270.0
 51
0.0
  0
ARC
  8
0
 10
-181.853302
 20
677.014719
 30
0.0
 40
2.0
 50
0.0
 51
45.0
  0
LINE
  8
0
 10
-423.6774
 20
608.6985
 30
0.0
 11
-415.369984
 21
617.005916
 31
0.0
  0
LINE
  8
0
 10
-423.6774
 20
594.556365
 30
0.0
 11
-401.227849
 21
617.005916
 31
0.0
  0
LINE
  8
0
 10
-412.085713
 20
592.005916
 30
0.0
 11
-387.085713
 21
617.005916
 31
0.0
  0
LINE
  8
0
 10
-397.943577
 20
592.005916
 30
0.0
 11
-372.943577
 21
617.005916
 31
0.0
  0
LINE
  8
0
 10
-383.801442
 20
592.005916
 30
0.0
 11
-358.801442
 21
617.005916
 31
0.0
  0
LINE
  8
0
 10
-369.659306
 20
592.005916
 30
0.0
 11
-344.659306
 21
617.005916
 31
0.0
  0
LINE
  8
0
 10
-355.517171
 20
592.005916
 30
0.0
 11
-330.517171
 21
617.005916
 31
0.0
  0
LINE
  8
0
 10
-341.375035
 20
592.005916
 30
0.0
 11
-316.375035
 21
617.005916
 31
0.0
  0
LINE
  8
0
 10
-327.232899
 20
592.005916
 30
0.0
 11
-302.232899
 21
617.005916
 31
0.0
  0
LINE
  8
0
 10
-313.090764
 20
592.005916
 30
0.0
 11
-288.090764
 21
617.005916
 31
0.0
  0
LINE
  8
0
 10
-298.948628
 20
592.005916
 30
0.0
 11
-273.948628
 21
617.005916
 31
0.0
  0
LINE
  8
0
 10
-284.806492
 20
592.005916
 30
0.0
 11
-259.806492
 21
617.005916
 31
0.0
  0
LINE
  8
0
 10
-270.664357
 20
592.005916
 30
0.0
 11
-245.664357
 21
617.005916
 31
0.0
  0
LINE
  8
0
 10
-256.522221
 20
592.005916
 30
0.0
 11
-231.522221
 21
617.005916
 31
0.0
  0
LINE
  8
0
 10
-242.380086
 20
592.005916
 30
0.0
 11
-217.380086
 21
617.005916
 31
0.0
  0
LINE
  8
0
 10
-228.23795
 20
592.005916
 30
0.0
 11
-203.23795
 21
617.005916
 31
0.0
  0
LINE
  8
0
 10
-214.095814
 20
592.005916
 30
0.0
 11
-189.095814
 21
617.005916
 31
0.0
  0
LINE
  8
0
 10
-199.953679
 20
592.005916
 30
0.0
 11
-174.953679
 21
617.005916
 31
0.0
  0
LINE
  8
0
 10
-185.811543
 20
592.005916
 30
0.0
 11
-160.811543
 21
617.005916
 31
0.0
  0
LINE
  8
0
 10
-171.669407
 20
592.005916
 30
0.0
 11
-146.669407
 21
617.005916
 31
0.0
  0
LINE
  8
0
 10
-157.527272
 20
592.005916
 30
0.0
 11
-132.527272
 21
617.005916
 31
0.0
  0
LINE
  8
0
 10
-143.385136
 20
592.005916
 30
0.0
 11
-118.385136
 21
617.005916
 31
0.0
  0
LINE
  8
0
 10
-129.243001
 20
592.005916
 30
0.0
 11
-104.243001
 21
617.005916
 31
0.0
  0
LINE
  8
0
 10
-115.100865
 20
592.005916
 30
0.0
 11
-90.100865
 21
617.005916
 31
0.0
  0
LINE
  8
0
 10
-100.958729
 20
592.005916
 30
0.0
 11
-75.958729
 21
617.005916
 31
0.0
  0
LINE
  8
0
 10
-86.816594
 20
592.005916
 30
0.0
 11
-61.816594
 21
617.005916
 31
0.0
  0
LINE
  8
0
 10
-72.674458
 20
592.005916
 30
0.0
 11
-47.674458
 21
617.005916
 31
0.0
  0
LINE
  8
0
 10
-58.532322
 20
592.005916
 30
0.0
 11
-33.532322
 21
617.005916
 31
0.0
  0
LINE
  8
0
 10
-44.390187
 20
592.005916
 30
0.0
 11
-19.390187
 21
617.005916
 31
0.0
  0
LINE
  8
0
 10
-30.248051
 20
592.005916
 30
0.0
 11
-5.248051
 21
617.005916
 31
0.0
  0
LINE
  8
0
 10
-16.105916
 20
592.005916
 30
0.0
 11
8.894084
 21
617.005916
 31
0.0
  0
LINE
  8
0
 10
-1.96378
 20
592.005916
 30
0.0
 11
23.03622
 21
617.005916
 31
0.0
  0
LINE
  8
0
 10
12.178356
 20
592.005916
 30
0.0
 11
37.178356
 21
617.005916
 31
0.0
  0
LINE
  8
0
 10
26.320491
 20
592.005916
 30
0.0
 11
38.3226
 21
604.008025
 31
0.0
  0
ENDSEC
  0
EOF
