  0
SECTION
  2
HEADER
  9
$ACADVER
  1
AC1009
  9
$INSBASE
 10
0.0
 20
0.0
 30
0.0
  9
$EXTMIN
 10
-989.819647
 20
581.505916
 30
0.0
  9
$EXTMAX
 10
-524.819647
 20
689.017767
 30
0.0
  9
$LIMMIN
 10
-989.819647
 20
581.505916
  9
$LIMMAX
 10
-524.819647
 20
688.5
  9
$ORTHOMODE
 70
     0
  9
$REGENMODE
 70
     1
  9
$FILLMODE
 70
     1
  9
$QTEXTMODE
 70
     0
  9
$MIRRTEXT
 70
     1
  9
$DRAGMODE
 70
     2
  9
$LTSCALE
 40
1.0
  9
$OSMODE
 70
     0
  9
$ATTMODE
 70
     1
  9
$TEXTSIZE
 40
3.5
  9
$TRACEWID
 40
0.5
  9
$TEXTSTYLE
  7
STANDARD
  9
$CLAYER
  8
0
  9
$CELTYPE
  6
BYLAYER
  9
$CECOLOR
 62
   256
  9
$DIMSCALE
 40
1.0
  9
$DIMASZ
 40
0.18
  9
$DIMEXO
 40
0.0625
  9
$DIMDLI
 40
0.38
  9
$DIMRND
 40
0.0
  9
$DIMDLE
 40
0.0
  9
$DIMEXE
 40
0.18
  9
$DIMTP
 40
0.0
  9
$DIMTM
 40
0.0
  9
$DIMTXT
 40
0.18
  9
$DIMCEN
 40
0.09
  9
$DIMTSZ
 40
0.0
  9
$DIMTOL
 70
     0
  9
$DIMLIM
 70
     0
  9
$DIMTIH
 70
     1
  9
$DIMTOH
 70
     1
  9
$DIMSE1
 70
     0
  9
$DIMSE2
 70
     0
  9
$DIMTAD
 70
     0
  9
$DIMZIN
 70
     0
  9
$DIMBLK
  1

  9
$DIMASO
 70
     1
  9
$DIMSHO
 70
     1
  9
$DIMPOST
  1

  9
$DIMAPOST
  1

  9
$DIMALT
 70
     0
  9
$DIMALTD
 70
     2
  9
$DIMALTF
 40
25.4
  9
$DIMLFAC
 40
1.0
  9
$DIMTOFL
 70
     0
  9
$DIMTVP
 40
0.0
  9
$DIMTIX
 70
     0
  9
$DIMSOXD
 70
     0
  9
$DIMSAH
 70
     0
  9
$DIMBLK1
  1

  9
$DIMBLK2
  1

  9
$DIMSTYLE
  2
*UNNAMED
  9
$DIMCLRD
 70
     0
  9
$DIMCLRE
 70
     0
  9
$DIMCLRT
 70
     0
  9
$DIMTFAC
 40
1.0
  9
$DIMGAP
 40
0.09
  9
$LUNITS
 70
     2
  9
$LUPREC
 70
     4
  9
$SKETCHINC
 40
0.1
  9
$FILLETRAD
 40
2.0
  9
$AUNITS
 70
     0
  9
$AUPREC
 70
     0
  9
$MENU
  1
ACAD
  9
$ELEVATION
 40
0.0
  9
$PELEVATION
 40
0.0
  9
$THICKNESS
 40
0.0
  9
$LIMCHECK
 70
     0
  9
$BLIPMODE
 70
     1
  9
$CHAMFERA
 40
0.0
  9
$CHAMFERB
 40
0.0
  9
$SKPOLY
 70
     0
  9
$TDCREATE
 40
2450948.562870601
  9
$TDUPDATE
 40
2450948.563530439
  9
$TDINDWG
 40
0.0004812500
  9
$TDUSRTIMER
 40
0.0004812500
  9
$USRTIMER
 70
     1
  9
$ANGBASE
 50
0.0
  9
$ANGDIR
 70
     0
  9
$PDMODE
 70
     0
  9
$PDSIZE
 40
0.0
  9
$PLINEWID
 40
0.0
  9
$COORDS
 70
     2
  9
$SPLFRAME
 70
     0
  9
$SPLINETYPE
 70
     6
  9
$SPLINESEGS
 70
     8
  9
$ATTDIA
 70
     0
  9
$ATTREQ
 70
     1
  9
$HANDLING
 70
     0
  9
$HANDSEED
  5
0
  9
$SURFTAB1
 70
     6
  9
$SURFTAB2
 70
     6
  9
$SURFTYPE
 70
     6
  9
$SURFU
 70
     6
  9
$SURFV
 70
     6
  9
$UCSNAME
  2

  9
$UCSORG
 10
0.0
 20
0.0
 30
0.0
  9
$UCSXDIR
 10
1.0
 20
0.0
 30
0.0
  9
$UCSYDIR
 10
0.0
 20
1.0
 30
0.0
  9
$PUCSNAME
  2

  9
$PUCSORG
 10
0.0
 20
0.0
 30
0.0
  9
$PUCSXDIR
 10
1.0
 20
0.0
 30
0.0
  9
$PUCSYDIR
 10
0.0
 20
1.0
 30
0.0
  9
$USERI1
 70
     0
  9
$USERI2
 70
     0
  9
$USERI3
 70
     0
  9
$USERI4
 70
     0
  9
$USERI5
 70
     0
  9
$USERR1
 40
0.0
  9
$USERR2
 40
0.0
  9
$USERR3
 40
0.0
  9
$USERR4
 40
0.0
  9
$USERR5
 40
0.0
  9
$WORLDVIEW
 70
     1
  9
$SHADEDGE
 70
     3
  9
$SHADEDIF
 70
    70
  9
$TILEMODE
 70
     1
  9
$MAXACTVP
 70
    16
  9
$PINSBASE
 10
0.0
 20
0.0
 30
0.0
  9
$PLIMCHECK
 70
     0
  9
$PEXTMIN
 10
1.000000E+20
 20
1.000000E+20
 30
1.000000E+20
  9
$PEXTMAX
 10
-1.000000E+20
 20
-1.000000E+20
 30
-1.000000E+20
  9
$PLIMMIN
 10
0.0
 20
0.0
  9
$PLIMMAX
 10
420.0
 20
297.0
  9
$UNITMODE
 70
     0
  9
$VISRETAIN
 70
     0
  9
$PLINEGEN
 70
     0
  9
$PSLTSCALE
 70
     1
  9
$TREEDEPTH
 70
  3020
  9
$DWGCODEPAGE
  3
iso8859-1
  0
ENDSEC
  0
SECTION
  2
TABLES
  0
TABLE
  2
VPORT
 70
     2
  0
VPORT
  2
*ACTIVE
 70
     0
 10
0.0
 20
0.0
 11
1.0
 21
1.0
 12
-797.350083
 22
696.884453
 13
0.0
 23
0.0
 14
1.0
 24
1.0
 15
0.0
 25
0.0
 16
0.0
 26
0.0
 36
1.0
 17
0.0
 27
0.0
 37
0.0
 40
401.952101
 41
1.748359
 42
50.0
 43
0.0
 44
0.0
 50
0.0
 51
0.0
 71
     0
 72
   100
 73
     1
 74
     0
 75
     0
 76
     0
 77
     0
 78
     0
  0
ENDTAB
  0
TABLE
  2
LTYPE
 70
     1
  0
LTYPE
  2
CONTINUOUS
 70
    64
  3
Solid line
 72
    65
 73
     0
 40
0.0
  0
ENDTAB
  0
TABLE
  2
LAYER
 70
     1
  0
LAYER
  2
0
 70
    64
 62
     7
  6
CONTINUOUS
  0
ENDTAB
  0
TABLE
  2
STYLE
 70
     1
  0
STYLE
  2
STANDARD
 70
     0
 40
0.0
 41
1.0
 50
0.0
 71
     0
 42
3.5
  3
txt
  4

  0
ENDTAB
  0
TABLE
  2
VIEW
 70
     0
  0
ENDTAB
  0
TABLE
  2
UCS
 70
     0
  0
ENDTAB
  0
TABLE
  2
APPID
 70
     1
  0
APPID
  2
ACAD
 70
    64
  0
ENDTAB
  0
TABLE
  2
DIMSTYLE
 70
     0
  0
ENDTAB
  0
ENDSEC
  0
SECTION
  2
BLOCKS
  0
ENDSEC
  0
SECTION
  2
ENTITIES
  0
LINE
  8
0
 10
-610.319647
 20
606.5
 30
0.0
 11
-904.319647
 21
606.5
 31
0.0
  0
LINE
  8
0
 10
-610.319647
 20
624.5
 30
0.0
 11
-610.319647
 21
606.5
 31
0.0
  0
LINE
  8
0
 10
-904.319647
 20
606.5
 30
0.0
 11
-904.319647
 21
624.5
 31
0.0
  0
LINE
  8
0
 10
-610.319647
 20
606.5
 30
0.0
 11
-524.819647
 21
606.505916
 31
0.0
  0
LINE
  8
0
 10
-904.319647
 20
606.5
 30
0.0
 11
-989.819647
 21
606.505916
 31
0.0
  0
LINE
  8
0
 10
-610.819647
 20
630.0
 30
0.0
 11
-610.816083
 21
668.222073
 31
0.0
  0
LINE
  8
0
 10
-607.319647
 20
668.257359
 30
0.0
 11
-607.319647
 21
627.5
 31
0.0
  0
LINE
  8
0
 10
-614.61254
 20
676.792893
 30
0.0
 11
-608.198326
 21
670.37868
 31
0.0
  0
LINE
  8
0
 10
-619.678523
 20
677.914214
 30
0.0
 11
-611.401869
 21
669.636286
 31
0.0
  0
LINE
  8
0
 10
-609.819647
 20
679.5
 30
0.0
 11
-609.819647
 21
681.585786
 31
0.0
  0
LINE
  8
0
 10
-613.905433
 20
678.5
 30
0.0
 11
-610.819647
 21
678.5
 31
0.0
  0
LINE
  8
0
 10
-610.11254
 20
682.292893
 30
0.0
 11
-612.026753
 21
684.207107
 31
0.0
  0
LINE
  8
0
 10
-626.319647
 20
678.5
 30
0.0
 11
-621.092736
 21
678.5
 31
0.0
  0
LINE
  8
0
 10
-664.819647
 20
679.5
 30
0.0
 11
-664.819647
 21
683.5
 31
0.0
  0
LINE
  8
0
 10
-626.819647
 20
676.0
 30
0.0
 11
-626.819647
 21
678.0
 31
0.0
  0
LINE
  8
0
 10
-630.85518
 20
677.62132
 30
0.0
 11
-628.526753
 21
675.292893
 31
0.0
  0
LINE
  8
0
 10
-663.819647
 20
678.5
 30
0.0
 11
-632.976501
 21
678.5
 31
0.0
  0
LINE
  8
0
 10
-612.73386
 20
684.5
 30
0.0
 11
-663.819647
 21
684.5
 31
0.0
  0
LINE
  8
0
 10
-611.819647
 20
681.171573
 30
0.0
 11
-613.148074
 21
682.5
 31
0.0
  0
LINE
  8
0
 10
-611.819647
 20
680.5
 30
0.0
 11
-611.819647
 21
681.171573
 31
0.0
  0
LINE
  8
0
 10
-626.819647
 20
680.5
 30
0.0
 11
-611.819647
 21
680.5
 31
0.0
  0
LINE
  8
0
 10
-662.819647
 20
682.5
 30
0.0
 11
-613.148074
 21
682.5
 31
0.0
  0
LINE
  8
0
 10
-662.819647
 20
682.5
 30
0.0
 11
-662.819647
 21
680.5
 31
0.0
  0
LINE
  8
0
 10
-626.819647
 20
681.5
 30
0.0
 11
-626.819647
 21
680.5
 31
0.0
  0
LINE
  8
0
 10
-662.819647
 20
680.5
 30
0.0
 11
-631.11254
 21
680.5
 31
0.0
  0
LINE
  8
0
 10
-630.758986
 20
680.353553
 30
0.0
 11
-628.819647
 21
678.414214
 31
0.0
  0
LINE
  8
0
 10
-628.819647
 20
681.5
 30
0.0
 11
-628.819647
 21
678.414214
 31
0.0
  0
LINE
  8
0
 10
-907.319647
 20
627.5
 30
0.0
 11
-907.319647
 21
668.257359
 31
0.0
  0
LINE
  8
0
 10
-906.440967
 20
670.37868
 30
0.0
 11
-900.026753
 21
676.792893
 31
0.0
  0
LINE
  8
0
 10
-903.237424
 20
669.636286
 30
0.0
 11
-894.960771
 21
677.914214
 31
0.0
  0
LINE
  8
0
 10
-903.82321
 20
668.222073
 30
0.0
 11
-903.819647
 21
630.0
 31
0.0
  0
LINE
  8
0
 10
-904.819647
 20
681.585786
 30
0.0
 11
-904.819647
 21
679.5
 31
0.0
  0
LINE
  8
0
 10
-903.819647
 20
678.5
 30
0.0
 11
-900.73386
 21
678.5
 31
0.0
  0
LINE
  8
0
 10
-902.61254
 20
684.207107
 30
0.0
 11
-904.526753
 21
682.292893
 31
0.0
  0
LINE
  8
0
 10
-893.546557
 20
678.5
 30
0.0
 11
-888.319647
 21
678.5
 31
0.0
  0
LINE
  8
0
 10
-849.819647
 20
683.5
 30
0.0
 11
-849.819647
 21
679.5
 31
0.0
  0
LINE
  8
0
 10
-887.819647
 20
678.0
 30
0.0
 11
-887.819647
 21
676.0
 31
0.0
  0
LINE
  8
0
 10
-886.11254
 20
675.292893
 30
0.0
 11
-883.784113
 21
677.62132
 31
0.0
  0
LINE
  8
0
 10
-881.662792
 20
678.5
 30
0.0
 11
-850.819647
 21
678.5
 31
0.0
  0
LINE
  8
0
 10
-850.819647
 20
684.5
 30
0.0
 11
-901.905433
 21
684.5
 31
0.0
  0
LINE
  8
0
 10
-901.491219
 20
682.5
 30
0.0
 11
-902.819647
 21
681.171573
 31
0.0
  0
LINE
  8
0
 10
-902.819647
 20
681.171573
 30
0.0
 11
-902.819647
 21
680.5
 31
0.0
  0
LINE
  8
0
 10
-902.819647
 20
680.5
 30
0.0
 11
-887.819647
 21
680.5
 31
0.0
  0
LINE
  8
0
 10
-901.491219
 20
682.5
 30
0.0
 11
-851.819647
 21
682.5
 31
0.0
  0
LINE
  8
0
 10
-851.819647
 20
680.5
 30
0.0
 11
-851.819647
 21
682.5
 31
0.0
  0
LINE
  8
0
 10
-887.819647
 20
680.5
 30
0.0
 11
-887.819647
 21
681.5
 31
0.0
  0
LINE
  8
0
 10
-883.526753
 20
680.5
 30
0.0
 11
-851.819647
 21
680.5
 31
0.0
  0
LINE
  8
0
 10
-885.819647
 20
678.414214
 30
0.0
 11
-883.880307
 21
680.353553
 31
0.0
  0
LINE
  8
0
 10
-885.819647
 20
678.414214
 30
0.0
 11
-885.819647
 21
681.5
 31
0.0
  0
LINE
  8
0
 10
-901.819647
 20
628.0
 30
0.0
 11
-612.819647
 21
628.0
 31
0.0
  0
LINE
  8
0
 10
-904.319647
 20
624.5
 30
0.0
 11
-610.319647
 21
624.5
 31
0.0
  0
ARC
  8
0
 10
-627.819647
 20
681.5
 30
0.0
 40
1.0
 50
0.0
 51
180.0
  0
ARC
  8
0
 10
-627.819647
 20
676.0
 30
0.0
 40
1.0
 50
225.0
 51
0.0
  0
ARC
  8
0
 10
-886.819647
 20
681.5
 30
0.0
 40
1.0
 50
0.0
 51
180.0
  0
ARC
  8
0
 10
-886.819647
 20
676.0
 30
0.0
 40
1.0
 50
180.0
 51
315.0
  0
ARC
  8
0
 10
-610.319647
 20
627.5
 30
0.0
 40
3.0
 50
270.0
 51
0.0
  0
ARC
  8
0
 10
-612.819647
 20
630.0
 30
0.0
 40
2.0
 50
270.0
 51
0.0
  0
ARC
  8
0
 10
-613.905433
 20
677.5
 30
0.0
 40
1.0
 50
90.0
 51
225.0
  0
ARC
  8
0
 10
-610.819647
 20
679.5
 30
0.0
 40
1.0
 50
270.0
 51
0.0
  0
ARC
  8
0
 10
-663.819647
 20
683.5
 30
0.0
 40
1.0
 50
90.0
 51
180.0
  0
ARC
  8
0
 10
-663.819647
 20
679.5
 30
0.0
 40
1.0
 50
180.0
 51
270.0
  0
ARC
  8
0
 10
-631.11254
 20
680.0
 30
0.0
 40
0.5
 50
45.0
 51
90.0
  0
ARC
  8
0
 10
-612.73386
 20
683.5
 30
0.0
 40
1.0
 50
45.0
 51
90.0
  0
ARC
  8
0
 10
-610.819647
 20
681.585786
 30
0.0
 40
1.0
 50
0.0
 51
45.0
  0
ARC
  8
0
 10
-621.092736
 20
676.5
 30
0.0
 40
2.0
 50
45.0
 51
90.0
  0
ARC
  8
0
 10
-626.319647
 20
678.0
 30
0.0
 40
0.5
 50
90.0
 51
180.0
  0
ARC
  8
0
 10
-632.976501
 20
675.5
 30
0.0
 40
3.0
 50
45.0
 51
90.0
  0
ARC
  8
0
 10
-612.816083
 20
668.222073
 30
0.0
 40
2.0
 50
0.0
 51
45.0
  0
ARC
  8
0
 10
-610.319647
 20
668.257359
 30
0.0
 40
3.0
 50
0.0
 51
45.0
  0
ARC
  8
0
 10
-900.73386
 20
677.5
 30
0.0
 40
1.0
 50
315.0
 51
90.0
  0
ARC
  8
0
 10
-903.819647
 20
679.5
 30
0.0
 40
1.0
 50
180.0
 51
270.0
  0
ARC
  8
0
 10
-850.819647
 20
683.5
 30
0.0
 40
1.0
 50
0.0
 51
90.0
  0
ARC
  8
0
 10
-850.819647
 20
679.5
 30
0.0
 40
1.0
 50
270.0
 51
0.0
  0
ARC
  8
0
 10
-883.526753
 20
680.0
 30
0.0
 40
0.5
 50
90.0
 51
135.0
  0
ARC
  8
0
 10
-901.905433
 20
683.5
 30
0.0
 40
1.0
 50
90.0
 51
135.0
  0
ARC
  8
0
 10
-903.819647
 20
681.585786
 30
0.0
 40
1.0
 50
135.0
 51
180.0
  0
ARC
  8
0
 10
-893.546557
 20
676.5
 30
0.0
 40
2.0
 50
90.0
 51
135.0
  0
ARC
  8
0
 10
-888.319647
 20
678.0
 30
0.0
 40
0.5
 50
0.0
 51
90.0
  0
ARC
  8
0
 10
-881.662792
 20
675.5
 30
0.0
 40
3.0
 50
90.0
 51
135.0
  0
ARC
  8
0
 10
-901.82321
 20
668.222073
 30
0.0
 40
2.0
 50
135.0
 51
180.0
  0
ARC
  8
0
 10
-904.319647
 20
627.5
 30
0.0
 40
3.0
 50
180.0
 51
270.0
  0
ARC
  8
0
 10
-901.819647
 20
630.0
 30
0.0
 40
2.0
 50
180.0
 51
270.0
  0
ARC
  8
0
 10
-904.319647
 20
668.257359
 30
0.0
 40
3.0
 50
135.0
 51
180.0
  0
LINE
  8
0
 10
-907.481407
 20
674.5
 30
0.0
 11
-907.481407
 21
686.0
 31
0.0
  0
LINE
  8
0
 10
-904.981407
 20
684.5
 30
0.0
 11
-904.981407
 21
675.0
 31
0.0
  0
LINE
  8
0
 10
-904.981407
 20
675.0
 30
0.0
 11
-903.655671
 21
676.325736
 31
0.0
  0
LINE
  8
0
 10
-903.655671
 20
676.325736
 30
0.0
 11
-904.805671
 21
677.475736
 31
0.0
  0
LINE
  8
0
 10
-904.381407
 20
678.5
 30
0.0
 11
-900.920747
 21
678.5
 31
0.0
  0
LINE
  8
0
 10
-900.256533
 20
676.896447
 30
0.0
 11
-904.067193
 21
673.085786
 31
0.0
  0
LINE
  8
0
 10
-609.819647
 20
675.0
 30
0.0
 11
-609.819647
 21
684.5
 31
0.0
  0
LINE
  8
0
 10
-611.145383
 20
676.325736
 30
0.0
 11
-609.819647
 21
675.0
 31
0.0
  0
LINE
  8
0
 10
-609.995383
 20
677.475736
 30
0.0
 11
-611.145383
 21
676.325736
 31
0.0
  0
LINE
  8
0
 10
-613.880307
 20
678.5
 30
0.0
 11
-610.419647
 21
678.5
 31
0.0
  0
LINE
  8
0
 10
-610.73386
 20
673.085786
 30
0.0
 11
-614.54452
 21
676.896447
 31
0.0
  0
LINE
  8
0
 10
-611.319647
 20
686.0
 30
0.0
 11
-903.481407
 21
686.0
 31
0.0
  0
LINE
  8
0
 10
-904.981407
 20
688.5
 30
0.0
 11
-609.819647
 21
688.5
 31
0.0
  0
LINE
  8
0
 10
-607.319647
 20
686.0
 30
0.0
 11
-607.319647
 21
674.5
 31
0.0
  0
ARC
  8
0
 10
-613.880307
 20
677.56066
 30
0.0
 40
0.93934
 50
90.0
 51
180.866301
  0
ARC
  8
0
 10
-900.920747
 20
677.56066
 30
0.0
 40
0.93934
 50
315.0
 51
359.820102
  0
ARC
  8
0
 10
-905.481407
 20
674.5
 30
0.0
 40
2.0
 50
180.0
 51
315.0
  0
ARC
  8
0
 10
-904.381407
 20
677.9
 30
0.0
 40
0.6
 50
90.0
 51
225.0
  0
ARC
  8
0
 10
-900.920747
 20
677.56066
 30
0.0
 40
0.93934
 50
359.820102
 51
90.0
  0
ARC
  8
0
 10
-609.319647
 20
674.5
 30
0.0
 40
2.0
 50
225.0
 51
0.0
  0
ARC
  8
0
 10
-610.419647
 20
677.9
 30
0.0
 40
0.6
 50
315.0
 51
90.0
  0
ARC
  8
0
 10
-613.880307
 20
677.56066
 30
0.0
 40
0.93934
 50
180.866301
 51
225.0
  0
ARC
  8
0
 10
-903.481407
 20
684.5
 30
0.0
 40
1.5
 50
90.0
 51
180.0
  0
ARC
  8
0
 10
-611.319647
 20
684.5
 30
0.0
 40
1.5
 50
0.0
 51
90.0
  0
ARC
  8
0
 10
-904.981407
 20
686.0
 30
0.0
 40
2.5
 50
90.0
 51
180.0
  0
ARC
  8
0
 10
-609.819647
 20
686.0
 30
0.0
 40
2.5
 50
0.0
 51
90.0
  0
LINE
  8
0
 10
-989.819647
 20
594.099543
 30
0.0
 11
-977.413274
 21
606.505916
 31
0.0
  0
LINE
  8
0
 10
-988.271138
 20
581.505916
 30
0.0
 11
-963.271138
 21
606.505916
 31
0.0
  0
LINE
  8
0
 10
-974.129002
 20
581.505916
 30
0.0
 11
-949.129002
 21
606.505916
 31
0.0
  0
LINE
  8
0
 10
-959.986867
 20
581.505916
 30
0.0
 11
-934.986867
 21
606.505916
 31
0.0
  0
LINE
  8
0
 10
-945.844731
 20
581.505916
 30
0.0
 11
-920.844731
 21
606.505916
 31
0.0
  0
LINE
  8
0
 10
-931.702596
 20
581.505916
 30
0.0
 11
-906.702596
 21
606.505916
 31
0.0
  0
LINE
  8
0
 10
-917.56046
 20
581.505916
 30
0.0
 11
-892.56046
 21
606.505916
 31
0.0
  0
LINE
  8
0
 10
-903.418324
 20
581.505916
 30
0.0
 11
-878.418324
 21
606.505916
 31
0.0
  0
LINE
  8
0
 10
-889.276189
 20
581.505916
 30
0.0
 11
-864.276189
 21
606.505916
 31
0.0
  0
LINE
  8
0
 10
-875.134053
 20
581.505916
 30
0.0
 11
-850.134053
 21
606.505916
 31
0.0
  0
LINE
  8
0
 10
-860.991917
 20
581.505916
 30
0.0
 11
-835.991917
 21
606.505916
 31
0.0
  0
LINE
  8
0
 10
-846.849782
 20
581.505916
 30
0.0
 11
-821.849782
 21
606.505916
 31
0.0
  0
LINE
  8
0
 10
-832.707646
 20
581.505916
 30
0.0
 11
-807.707646
 21
606.505916
 31
0.0
  0
LINE
  8
0
 10
-818.565511
 20
581.505916
 30
0.0
 11
-793.565511
 21
606.505916
 31
0.0
  0
LINE
  8
0
 10
-804.423375
 20
581.505916
 30
0.0
 11
-779.423375
 21
606.505916
 31
0.0
  0
LINE
  8
0
 10
-790.281239
 20
581.505916
 30
0.0
 11
-765.281239
 21
606.505916
 31
0.0
  0
LINE
  8
0
 10
-776.139104
 20
581.505916
 30
0.0
 11
-751.139104
 21
606.505916
 31
0.0
  0
LINE
  8
0
 10
-761.996968
 20
581.505916
 30
0.0
 11
-736.996968
 21
606.505916
 31
0.0
  0
LINE
  8
0
 10
-747.854832
 20
581.505916
 30
0.0
 11
-722.854832
 21
606.505916
 31
0.0
  0
LINE
  8
0
 10
-733.712697
 20
581.505916
 30
0.0
 11
-708.712697
 21
606.505916
 31
0.0
  0
LINE
  8
0
 10
-719.570561
 20
581.505916
 30
0.0
 11
-694.570561
 21
606.505916
 31
0.0
  0
LINE
  8
0
 10
-705.428426
 20
581.505916
 30
0.0
 11
-680.428426
 21
606.505916
 31
0.0
  0
LINE
  8
0
 10
-691.28629
 20
581.505916
 30
0.0
 11
-666.28629
 21
606.505916
 31
0.0
  0
LINE
  8
0
 10
-677.144154
 20
581.505916
 30
0.0
 11
-652.144154
 21
606.505916
 31
0.0
  0
LINE
  8
0
 10
-663.002019
 20
581.505916
 30
0.0
 11
-638.002019
 21
606.505916
 31
0.0
  0
LINE
  8
0
 10
-648.859883
 20
581.505916
 30
0.0
 11
-623.859883
 21
606.505916
 31
0.0
  0
LINE
  8
0
 10
-634.717747
 20
581.505916
 30
0.0
 11
-609.717747
 21
606.505916
 31
0.0
  0
LINE
  8
0
 10
-620.575612
 20
581.505916
 30
0.0
 11
-595.575612
 21
606.505916
 31
0.0
  0
LINE
  8
0
 10
-606.433476
 20
581.505916
 30
0.0
 11
-581.433476
 21
606.505916
 31
0.0
  0
LINE
  8
0
 10
-592.291341
 20
581.505916
 30
0.0
 11
-567.291341
 21
606.505916
 31
0.0
  0
LINE
  8
0
 10
-578.149205
 20
581.505916
 30
0.0
 11
-553.149205
 21
606.505916
 31
0.0
  0
LINE
  8
0
 10
-564.007069
 20
581.505916
 30
0.0
 11
-539.007069
 21
606.505916
 31
0.0
  0
LINE
  8
0
 10
-549.864934
 20
581.505916
 30
0.0
 11
-524.864934
 21
606.505916
 31
0.0
  0
LINE
  8
0
 10
-535.722798
 20
581.505916
 30
0.0
 11
-524.819647
 21
592.409068
 31
0.0
  0
ENDSEC
  0
EOF
