  0
SECTION
  2
HEADER
  9
$ACADVER
  1
AC1009
  9
$INSBASE
 10
0.0
 20
0.0
 30
0.0
  9
$EXTMIN
 10
477.589338
 20
-2232.0025
 30
0.0
  9
$EXTMAX
 10
919.47589
 20
-2069.058922
 30
0.0
  9
$LIMMIN
 10
477.589338
 20
-2232.0025
  9
$LIMMAX
 10
919.47589
 20
-2069.058922
  9
$ORTHOMODE
 70
     0
  9
$REGENMODE
 70
     1
  9
$FILLMODE
 70
     1
  9
$QTEXTMODE
 70
     0
  9
$MIRRTEXT
 70
     1
  9
$DRAGMODE
 70
     2
  9
$LTSCALE
 40
1.0
  9
$OSMODE
 70
     0
  9
$ATTMODE
 70
     1
  9
$TEXTSIZE
 40
3.5
  9
$TRACEWID
 40
0.5
  9
$TEXTSTYLE
  7
STANDARD
  9
$CLAYER
  8
0
  9
$CELTYPE
  6
BYLAYER
  9
$CECOLOR
 62
   256
  9
$DIMSCALE
 40
1.0
  9
$DIMASZ
 40
0.18
  9
$DIMEXO
 40
0.0625
  9
$DIMDLI
 40
0.38
  9
$DIMRND
 40
0.0
  9
$DIMDLE
 40
0.0
  9
$DIMEXE
 40
0.18
  9
$DIMTP
 40
0.0
  9
$DIMTM
 40
0.0
  9
$DIMTXT
 40
0.18
  9
$DIMCEN
 40
0.09
  9
$DIMTSZ
 40
0.0
  9
$DIMTOL
 70
     0
  9
$DIMLIM
 70
     0
  9
$DIMTIH
 70
     1
  9
$DIMTOH
 70
     1
  9
$DIMSE1
 70
     0
  9
$DIMSE2
 70
     0
  9
$DIMTAD
 70
     0
  9
$DIMZIN
 70
     0
  9
$DIMBLK
  1

  9
$DIMASO
 70
     1
  9
$DIMSHO
 70
     1
  9
$DIMPOST
  1

  9
$DIMAPOST
  1

  9
$DIMALT
 70
     0
  9
$DIMALTD
 70
     2
  9
$DIMALTF
 40
25.4
  9
$DIMLFAC
 40
1.0
  9
$DIMTOFL
 70
     0
  9
$DIMTVP
 40
0.0
  9
$DIMTIX
 70
     0
  9
$DIMSOXD
 70
     0
  9
$DIMSAH
 70
     0
  9
$DIMBLK1
  1

  9
$DIMBLK2
  1

  9
$DIMSTYLE
  2
*UNNAMED
  9
$DIMCLRD
 70
     0
  9
$DIMCLRE
 70
     0
  9
$DIMCLRT
 70
     0
  9
$DIMTFAC
 40
1.0
  9
$DIMGAP
 40
0.09
  9
$LUNITS
 70
     2
  9
$LUPREC
 70
     4
  9
$SKETCHINC
 40
0.1
  9
$FILLETRAD
 40
2.0
  9
$AUNITS
 70
     0
  9
$AUPREC
 70
     0
  9
$MENU
  1
ACAD
  9
$ELEVATION
 40
0.0
  9
$PELEVATION
 40
0.0
  9
$THICKNESS
 40
0.0
  9
$LIMCHECK
 70
     0
  9
$BLIPMODE
 70
     1
  9
$CHAMFERA
 40
0.0
  9
$CHAMFERB
 40
0.0
  9
$SKPOLY
 70
     0
  9
$TDCREATE
 40
2450948.561295255
  9
$TDUPDATE
 40
2450948.561778356
  9
$TDINDWG
 40
0.0002815972
  9
$TDUSRTIMER
 40
0.0002815972
  9
$USRTIMER
 70
     1
  9
$ANGBASE
 50
0.0
  9
$ANGDIR
 70
     0
  9
$PDMODE
 70
     0
  9
$PDSIZE
 40
0.0
  9
$PLINEWID
 40
0.0
  9
$COORDS
 70
     2
  9
$SPLFRAME
 70
     0
  9
$SPLINETYPE
 70
     6
  9
$SPLINESEGS
 70
     8
  9
$ATTDIA
 70
     0
  9
$ATTREQ
 70
     1
  9
$HANDLING
 70
     0
  9
$HANDSEED
  5
0
  9
$SURFTAB1
 70
     6
  9
$SURFTAB2
 70
     6
  9
$SURFTYPE
 70
     6
  9
$SURFU
 70
     6
  9
$SURFV
 70
     6
  9
$UCSNAME
  2

  9
$UCSORG
 10
0.0
 20
0.0
 30
0.0
  9
$UCSXDIR
 10
1.0
 20
0.0
 30
0.0
  9
$UCSYDIR
 10
0.0
 20
1.0
 30
0.0
  9
$PUCSNAME
  2

  9
$PUCSORG
 10
0.0
 20
0.0
 30
0.0
  9
$PUCSXDIR
 10
1.0
 20
0.0
 30
0.0
  9
$PUCSYDIR
 10
0.0
 20
1.0
 30
0.0
  9
$USERI1
 70
     0
  9
$USERI2
 70
     0
  9
$USERI3
 70
     0
  9
$USERI4
 70
     0
  9
$USERI5
 70
     0
  9
$USERR1
 40
0.0
  9
$USERR2
 40
0.0
  9
$USERR3
 40
0.0
  9
$USERR4
 40
0.0
  9
$USERR5
 40
0.0
  9
$WORLDVIEW
 70
     1
  9
$SHADEDGE
 70
     3
  9
$SHADEDIF
 70
    70
  9
$TILEMODE
 70
     1
  9
$MAXACTVP
 70
    16
  9
$PINSBASE
 10
0.0
 20
0.0
 30
0.0
  9
$PLIMCHECK
 70
     0
  9
$PEXTMIN
 10
1.000000E+20
 20
1.000000E+20
 30
1.000000E+20
  9
$PEXTMAX
 10
-1.000000E+20
 20
-1.000000E+20
 30
-1.000000E+20
  9
$PLIMMIN
 10
0.0
 20
0.0
  9
$PLIMMAX
 10
420.0
 20
297.0
  9
$UNITMODE
 70
     0
  9
$VISRETAIN
 70
     0
  9
$PLINEGEN
 70
     0
  9
$PSLTSCALE
 70
     1
  9
$TREEDEPTH
 70
  3020
  9
$DWGCODEPAGE
  3
iso8859-1
  0
ENDSEC
  0
SECTION
  2
TABLES
  0
TABLE
  2
VPORT
 70
     2
  0
VPORT
  2
*ACTIVE
 70
     0
 10
0.0
 20
0.0
 11
1.0
 21
1.0
 12
757.72318
 22
-2130.130358
 13
0.0
 23
0.0
 14
1.0
 24
1.0
 15
0.0
 25
0.0
 16
0.0
 26
0.0
 36
1.0
 17
0.0
 27
0.0
 37
0.0
 40
430.342011
 41
1.748359
 42
50.0
 43
0.0
 44
0.0
 50
0.0
 51
0.0
 71
     0
 72
   100
 73
     1
 74
     0
 75
     0
 76
     0
 77
     0
 78
     0
  0
ENDTAB
  0
TABLE
  2
LTYPE
 70
     1
  0
LTYPE
  2
CONTINUOUS
 70
    64
  3
Solid line
 72
    65
 73
     0
 40
0.0
  0
ENDTAB
  0
TABLE
  2
LAYER
 70
     2
  0
LAYER
  2
0
 70
    64
 62
     7
  6
CONTINUOUS
  0
ENDTAB
  0
TABLE
  2
STYLE
 70
     1
  0
STYLE
  2
STANDARD
 70
     0
 40
0.0
 41
1.0
 50
0.0
 71
     0
 42
3.5
  3
txt
  4

  0
ENDTAB
  0
TABLE
  2
VIEW
 70
     0
  0
ENDTAB
  0
TABLE
  2
UCS
 70
     0
  0
ENDTAB
  0
TABLE
  2
APPID
 70
     1
  0
APPID
  2
ACAD
 70
    64
  0
ENDTAB
  0
TABLE
  2
DIMSTYLE
 70
     0
  0
ENDTAB
  0
ENDSEC
  0
SECTION
  2
BLOCKS
  0
ENDSEC
  0
SECTION
  2
ENTITIES
  0
LINE
  8
0
 10
507.589338
 20
-2202.0025
 30
0.0
 11
552.268167
 21
-2201.996162
 31
0.0
  0
LINE
  8
0
 10
507.589338
 20
-2099.058922
 30
0.0
 11
507.589338
 21
-2202.0025
 31
0.0
  0
LINE
  8
0
 10
889.47589
 20
-2099.058922
 30
0.0
 11
507.589338
 21
-2099.058922
 31
0.0
  0
LINE
  8
0
 10
889.47589
 20
-2202.0025
 30
0.0
 11
889.47589
 21
-2099.058922
 31
0.0
  0
LINE
  8
0
 10
846.268167
 20
-2201.996162
 30
0.0
 11
889.47589
 21
-2202.0025
 31
0.0
  0
LINE
  8
0
 10
845.768167
 20
-2196.496162
 30
0.0
 11
845.771731
 21
-2158.274089
 31
0.0
  0
LINE
  8
0
 10
849.268167
 20
-2158.238803
 30
0.0
 11
849.268167
 21
-2198.996162
 31
0.0
  0
LINE
  8
0
 10
841.975274
 20
-2149.703269
 30
0.0
 11
848.389488
 21
-2156.117482
 31
0.0
  0
LINE
  8
0
 10
836.909291
 20
-2148.581948
 30
0.0
 11
845.185945
 21
-2156.859876
 31
0.0
  0
LINE
  8
0
 10
846.768167
 20
-2146.996162
 30
0.0
 11
846.768167
 21
-2144.910376
 31
0.0
  0
LINE
  8
0
 10
842.682381
 20
-2147.996162
 30
0.0
 11
845.768167
 21
-2147.996162
 31
0.0
  0
LINE
  8
0
 10
846.475274
 20
-2144.203269
 30
0.0
 11
844.561061
 21
-2142.289055
 31
0.0
  0
LINE
  8
0
 10
830.268167
 20
-2147.996162
 30
0.0
 11
835.495078
 21
-2147.996162
 31
0.0
  0
LINE
  8
0
 10
791.768167
 20
-2146.996162
 30
0.0
 11
791.768167
 21
-2142.996162
 31
0.0
  0
LINE
  8
0
 10
829.768167
 20
-2150.496162
 30
0.0
 11
829.768167
 21
-2148.496162
 31
0.0
  0
LINE
  8
0
 10
825.732633
 20
-2148.874842
 30
0.0
 11
828.061061
 21
-2151.203269
 31
0.0
  0
LINE
  8
0
 10
792.768167
 20
-2147.996162
 30
0.0
 11
823.611313
 21
-2147.996162
 31
0.0
  0
LINE
  8
0
 10
843.853954
 20
-2141.996162
 30
0.0
 11
792.768167
 21
-2141.996162
 31
0.0
  0
LINE
  8
0
 10
844.768167
 20
-2145.324589
 30
0.0
 11
843.43974
 21
-2143.996162
 31
0.0
  0
LINE
  8
0
 10
844.768167
 20
-2145.996162
 30
0.0
 11
844.768167
 21
-2145.324589
 31
0.0
  0
LINE
  8
0
 10
829.768167
 20
-2145.996162
 30
0.0
 11
844.768167
 21
-2145.996162
 31
0.0
  0
LINE
  8
0
 10
793.768167
 20
-2143.996162
 30
0.0
 11
843.43974
 21
-2143.996162
 31
0.0
  0
LINE
  8
0
 10
793.768167
 20
-2143.996162
 30
0.0
 11
793.768167
 21
-2145.996162
 31
0.0
  0
LINE
  8
0
 10
829.768167
 20
-2144.996162
 30
0.0
 11
829.768167
 21
-2145.996162
 31
0.0
  0
LINE
  8
0
 10
793.768167
 20
-2145.996162
 30
0.0
 11
825.475274
 21
-2145.996162
 31
0.0
  0
LINE
  8
0
 10
825.828828
 20
-2146.142609
 30
0.0
 11
827.768167
 21
-2148.081948
 31
0.0
  0
LINE
  8
0
 10
827.768167
 20
-2144.996162
 30
0.0
 11
827.768167
 21
-2148.081948
 31
0.0
  0
LINE
  8
0
 10
549.268167
 20
-2198.996162
 30
0.0
 11
549.268167
 21
-2158.238803
 31
0.0
  0
LINE
  8
0
 10
550.146847
 20
-2156.117482
 30
0.0
 11
556.561061
 21
-2149.703269
 31
0.0
  0
LINE
  8
0
 10
553.35039
 20
-2156.859876
 30
0.0
 11
561.627043
 21
-2148.581948
 31
0.0
  0
LINE
  8
0
 10
552.764604
 20
-2158.274089
 30
0.0
 11
552.768167
 21
-2196.496162
 31
0.0
  0
LINE
  8
0
 10
551.768167
 20
-2144.910376
 30
0.0
 11
551.768167
 21
-2146.996162
 31
0.0
  0
LINE
  8
0
 10
552.768167
 20
-2147.996162
 30
0.0
 11
555.853954
 21
-2147.996162
 31
0.0
  0
LINE
  8
0
 10
553.975274
 20
-2142.289055
 30
0.0
 11
552.061061
 21
-2144.203269
 31
0.0
  0
LINE
  8
0
 10
563.041257
 20
-2147.996162
 30
0.0
 11
568.268167
 21
-2147.996162
 31
0.0
  0
LINE
  8
0
 10
606.768167
 20
-2142.996162
 30
0.0
 11
606.768167
 21
-2146.996162
 31
0.0
  0
LINE
  8
0
 10
568.768167
 20
-2148.496162
 30
0.0
 11
568.768167
 21
-2150.496162
 31
0.0
  0
LINE
  8
0
 10
570.475274
 20
-2151.203269
 30
0.0
 11
572.803701
 21
-2148.874842
 31
0.0
  0
LINE
  8
0
 10
574.925022
 20
-2147.996162
 30
0.0
 11
605.768167
 21
-2147.996162
 31
0.0
  0
LINE
  8
0
 10
605.768167
 20
-2141.996162
 30
0.0
 11
554.682381
 21
-2141.996162
 31
0.0
  0
LINE
  8
0
 10
555.096595
 20
-2143.996162
 30
0.0
 11
553.768167
 21
-2145.324589
 31
0.0
  0
LINE
  8
0
 10
553.768167
 20
-2145.324589
 30
0.0
 11
553.768167
 21
-2145.996162
 31
0.0
  0
LINE
  8
0
 10
553.768167
 20
-2145.996162
 30
0.0
 11
568.768167
 21
-2145.996162
 31
0.0
  0
LINE
  8
0
 10
555.096595
 20
-2143.996162
 30
0.0
 11
604.768167
 21
-2143.996162
 31
0.0
  0
LINE
  8
0
 10
604.768167
 20
-2145.996162
 30
0.0
 11
604.768167
 21
-2143.996162
 31
0.0
  0
LINE
  8
0
 10
568.768167
 20
-2145.996162
 30
0.0
 11
568.768167
 21
-2144.996162
 31
0.0
  0
LINE
  8
0
 10
573.061061
 20
-2145.996162
 30
0.0
 11
604.768167
 21
-2145.996162
 31
0.0
  0
LINE
  8
0
 10
570.768167
 20
-2148.081948
 30
0.0
 11
572.707507
 21
-2146.142609
 31
0.0
  0
LINE
  8
0
 10
570.768167
 20
-2148.081948
 30
0.0
 11
570.768167
 21
-2144.996162
 31
0.0
  0
LINE
  8
0
 10
554.768167
 20
-2198.496162
 30
0.0
 11
843.768167
 21
-2198.496162
 31
0.0
  0
LINE
  8
0
 10
552.268167
 20
-2201.996162
 30
0.0
 11
846.268167
 21
-2201.996162
 31
0.0
  0
ARC
  8
0
 10
828.768167
 20
-2144.996162
 30
0.0
 40
1.0
 50
0.0
 51
180.0
  0
ARC
  8
0
 10
828.768167
 20
-2150.496162
 30
0.0
 40
1.0
 50
225.0
 51
0.0
  0
ARC
  8
0
 10
569.768167
 20
-2144.996162
 30
0.0
 40
1.0
 50
0.0
 51
180.0
  0
ARC
  8
0
 10
569.768167
 20
-2150.496162
 30
0.0
 40
1.0
 50
180.0
 51
315.0
  0
ARC
  8
0
 10
846.268167
 20
-2198.996162
 30
0.0
 40
3.0
 50
270.0
 51
0.0
  0
ARC
  8
0
 10
843.768167
 20
-2196.496162
 30
0.0
 40
2.0
 50
270.0
 51
0.0
  0
ARC
  8
0
 10
842.682381
 20
-2148.996162
 30
0.0
 40
1.0
 50
90.0
 51
225.0
  0
ARC
  8
0
 10
845.768167
 20
-2146.996162
 30
0.0
 40
1.0
 50
270.0
 51
0.0
  0
ARC
  8
0
 10
792.768167
 20
-2142.996162
 30
0.0
 40
1.0
 50
90.0
 51
180.0
  0
ARC
  8
0
 10
792.768167
 20
-2146.996162
 30
0.0
 40
1.0
 50
180.0
 51
270.0
  0
ARC
  8
0
 10
825.475274
 20
-2146.496162
 30
0.0
 40
0.5
 50
45.0
 51
90.0
  0
ARC
  8
0
 10
843.853954
 20
-2142.996162
 30
0.0
 40
1.0
 50
45.0
 51
90.0
  0
ARC
  8
0
 10
845.768167
 20
-2144.910376
 30
0.0
 40
1.0
 50
0.0
 51
45.0
  0
ARC
  8
0
 10
835.495078
 20
-2149.996162
 30
0.0
 40
2.0
 50
45.0
 51
90.0
  0
ARC
  8
0
 10
830.268167
 20
-2148.496162
 30
0.0
 40
0.5
 50
90.0
 51
180.0
  0
ARC
  8
0
 10
823.611313
 20
-2150.996162
 30
0.0
 40
3.0
 50
45.0
 51
90.0
  0
ARC
  8
0
 10
843.771731
 20
-2158.274089
 30
0.0
 40
2.0
 50
0.0
 51
45.0
  0
ARC
  8
0
 10
846.268167
 20
-2158.238803
 30
0.0
 40
3.0
 50
0.0
 51
45.0
  0
ARC
  8
0
 10
555.853954
 20
-2148.996162
 30
0.0
 40
1.0
 50
315.0
 51
90.0
  0
ARC
  8
0
 10
552.768167
 20
-2146.996162
 30
0.0
 40
1.0
 50
180.0
 51
270.0
  0
ARC
  8
0
 10
605.768167
 20
-2142.996162
 30
0.0
 40
1.0
 50
0.0
 51
90.0
  0
ARC
  8
0
 10
605.768167
 20
-2146.996162
 30
0.0
 40
1.0
 50
270.0
 51
0.0
  0
ARC
  8
0
 10
573.061061
 20
-2146.496162
 30
0.0
 40
0.5
 50
90.0
 51
135.0
  0
ARC
  8
0
 10
554.682381
 20
-2142.996162
 30
0.0
 40
1.0
 50
90.0
 51
135.0
  0
ARC
  8
0
 10
552.768167
 20
-2144.910376
 30
0.0
 40
1.0
 50
135.0
 51
180.0
  0
ARC
  8
0
 10
563.041257
 20
-2149.996162
 30
0.0
 40
2.0
 50
90.0
 51
135.0
  0
ARC
  8
0
 10
568.268167
 20
-2148.496162
 30
0.0
 40
0.5
 50
0.0
 51
90.0
  0
ARC
  8
0
 10
574.925022
 20
-2150.996162
 30
0.0
 40
3.0
 50
90.0
 51
135.0
  0
ARC
  8
0
 10
554.764604
 20
-2158.274089
 30
0.0
 40
2.0
 50
135.0
 51
180.0
  0
ARC
  8
0
 10
552.268167
 20
-2198.996162
 30
0.0
 40
3.0
 50
180.0
 51
270.0
  0
ARC
  8
0
 10
554.768167
 20
-2196.496162
 30
0.0
 40
2.0
 50
180.0
 51
270.0
  0
ARC
  8
0
 10
552.268167
 20
-2158.238803
 30
0.0
 40
3.0
 50
135.0
 51
180.0
  0
LINE
  8
0
 10
849.268167
 20
-2140.496162
 30
0.0
 11
849.268167
 21
-2151.996162
 31
0.0
  0
LINE
  8
0
 10
551.606407
 20
-2137.996162
 30
0.0
 11
846.768167
 21
-2137.996162
 31
0.0
  0
LINE
  8
0
 10
845.268167
 20
-2140.496162
 30
0.0
 11
553.106407
 21
-2140.496162
 31
0.0
  0
LINE
  8
0
 10
845.853954
 20
-2153.410376
 30
0.0
 11
842.043294
 21
-2149.599715
 31
0.0
  0
LINE
  8
0
 10
842.707507
 20
-2147.996162
 30
0.0
 11
846.168167
 21
-2147.996162
 31
0.0
  0
LINE
  8
0
 10
846.592431
 20
-2149.020426
 30
0.0
 11
845.442431
 21
-2150.170426
 31
0.0
  0
LINE
  8
0
 10
845.442431
 20
-2150.170426
 30
0.0
 11
846.768167
 21
-2151.496162
 31
0.0
  0
LINE
  8
0
 10
846.768167
 20
-2151.496162
 30
0.0
 11
846.768167
 21
-2141.996162
 31
0.0
  0
LINE
  8
0
 10
556.331281
 20
-2149.599715
 30
0.0
 11
552.520621
 21
-2153.410376
 31
0.0
  0
LINE
  8
0
 10
552.206407
 20
-2147.996162
 30
0.0
 11
555.667067
 21
-2147.996162
 31
0.0
  0
LINE
  8
0
 10
552.932143
 20
-2150.170426
 30
0.0
 11
551.782143
 21
-2149.020426
 31
0.0
  0
LINE
  8
0
 10
551.606407
 20
-2151.496162
 30
0.0
 11
552.932143
 21
-2150.170426
 31
0.0
  0
LINE
  8
0
 10
551.606407
 20
-2141.996162
 30
0.0
 11
551.606407
 21
-2151.496162
 31
0.0
  0
LINE
  8
0
 10
549.106407
 20
-2151.996162
 30
0.0
 11
549.106407
 21
-2140.496162
 31
0.0
  0
ARC
  8
0
 10
842.707507
 20
-2148.935502
 30
0.0
 40
0.93934
 50
180.866301
 51
225.0
  0
ARC
  8
0
 10
846.168167
 20
-2148.596162
 30
0.0
 40
0.6
 50
315.0
 51
90.0
  0
ARC
  8
0
 10
847.268167
 20
-2151.996162
 30
0.0
 40
2.0
 50
225.0
 51
0.0
  0
ARC
  8
0
 10
555.667067
 20
-2148.935502
 30
0.0
 40
0.93934
 50
359.820102
 51
90.0
  0
ARC
  8
0
 10
552.206407
 20
-2148.596162
 30
0.0
 40
0.6
 50
90.0
 51
225.0
  0
ARC
  8
0
 10
551.106407
 20
-2151.996162
 30
0.0
 40
2.0
 50
180.0
 51
315.0
  0
ARC
  8
0
 10
555.667067
 20
-2148.935502
 30
0.0
 40
0.93934
 50
315.0
 51
359.820102
  0
ARC
  8
0
 10
842.707507
 20
-2148.935502
 30
0.0
 40
0.93934
 50
90.0
 51
180.866301
  0
ARC
  8
0
 10
846.768167
 20
-2140.496162
 30
0.0
 40
2.5
 50
0.0
 51
90.0
  0
ARC
  8
0
 10
551.606407
 20
-2140.496162
 30
0.0
 40
2.5
 50
90.0
 51
180.0
  0
ARC
  8
0
 10
845.268167
 20
-2141.996162
 30
0.0
 40
1.5
 50
0.0
 51
90.0
  0
ARC
  8
0
 10
553.106407
 20
-2141.996162
 30
0.0
 40
1.5
 50
90.0
 51
180.0
  0
LINE
  8
0
 10
477.589338
 20
-2082.13721
 30
0.0
 11
490.667626
 21
-2069.058922
 31
0.0
  0
LINE
  8
0
 10
477.589338
 20
-2096.279346
 30
0.0
 11
504.809761
 21
-2069.058922
 31
0.0
  0
LINE
  8
0
 10
477.589338
 20
-2110.421482
 30
0.0
 11
518.951897
 21
-2069.058922
 31
0.0
  0
LINE
  8
0
 10
477.589338
 20
-2124.563617
 30
0.0
 11
533.094033
 21
-2069.058922
 31
0.0
  0
LINE
  8
0
 10
517.236168
 20
-2099.058922
 30
0.0
 11
547.236168
 21
-2069.058922
 31
0.0
  0
LINE
  8
0
 10
477.589338
 20
-2138.705753
 30
0.0
 11
507.589338
 21
-2108.705753
 31
0.0
  0
LINE
  8
0
 10
531.378304
 20
-2099.058922
 30
0.0
 11
561.378304
 21
-2069.058922
 31
0.0
  0
LINE
  8
0
 10
477.589338
 20
-2152.847888
 30
0.0
 11
507.589338
 21
-2122.847888
 31
0.0
  0
LINE
  8
0
 10
545.52044
 20
-2099.058922
 30
0.0
 11
575.52044
 21
-2069.058922
 31
0.0
  0
LINE
  8
0
 10
477.589338
 20
-2166.990024
 30
0.0
 11
507.589338
 21
-2136.990024
 31
0.0
  0
LINE
  8
0
 10
559.662575
 20
-2099.058922
 30
0.0
 11
589.662575
 21
-2069.058922
 31
0.0
  0
LINE
  8
0
 10
477.589338
 20
-2181.13216
 30
0.0
 11
507.589338
 21
-2151.13216
 31
0.0
  0
LINE
  8
0
 10
573.804711
 20
-2099.058922
 30
0.0
 11
603.804711
 21
-2069.058922
 31
0.0
  0
LINE
  8
0
 10
477.589338
 20
-2195.274295
 30
0.0
 11
507.589338
 21
-2165.274295
 31
0.0
  0
LINE
  8
0
 10
587.946846
 20
-2099.058922
 30
0.0
 11
617.946846
 21
-2069.058922
 31
0.0
  0
LINE
  8
0
 10
477.589338
 20
-2209.416431
 30
0.0
 11
507.589338
 21
-2179.416431
 31
0.0
  0
LINE
  8
0
 10
602.088982
 20
-2099.058922
 30
0.0
 11
632.088982
 21
-2069.058922
 31
0.0
  0
LINE
  8
0
 10
477.589338
 20
-2223.558567
 30
0.0
 11
507.589338
 21
-2193.558567
 31
0.0
  0
LINE
  8
0
 10
616.231118
 20
-2099.058922
 30
0.0
 11
646.231118
 21
-2069.058922
 31
0.0
  0
LINE
  8
0
 10
483.28754
 20
-2232.0025
 30
0.0
 11
513.28754
 21
-2202.0025
 31
0.0
  0
LINE
  8
0
 10
630.373253
 20
-2099.058922
 30
0.0
 11
660.373253
 21
-2069.058922
 31
0.0
  0
LINE
  8
0
 10
497.429675
 20
-2232.0025
 30
0.0
 11
527.429675
 21
-2202.0025
 31
0.0
  0
LINE
  8
0
 10
644.515389
 20
-2099.058922
 30
0.0
 11
674.515389
 21
-2069.058922
 31
0.0
  0
LINE
  8
0
 10
511.571811
 20
-2232.0025
 30
0.0
 11
541.571811
 21
-2202.0025
 31
0.0
  0
LINE
  8
0
 10
658.657525
 20
-2099.058922
 30
0.0
 11
688.657525
 21
-2069.058922
 31
0.0
  0
LINE
  8
0
 10
525.713946
 20
-2232.0025
 30
0.0
 11
555.713946
 21
-2202.0025
 31
0.0
  0
LINE
  8
0
 10
672.79966
 20
-2099.058922
 30
0.0
 11
702.79966
 21
-2069.058922
 31
0.0
  0
LINE
  8
0
 10
539.856082
 20
-2232.0025
 30
0.0
 11
569.856082
 21
-2202.0025
 31
0.0
  0
LINE
  8
0
 10
686.941796
 20
-2099.058922
 30
0.0
 11
716.941796
 21
-2069.058922
 31
0.0
  0
LINE
  8
0
 10
553.998218
 20
-2232.0025
 30
0.0
 11
583.998218
 21
-2202.0025
 31
0.0
  0
LINE
  8
0
 10
701.083931
 20
-2099.058922
 30
0.0
 11
731.083931
 21
-2069.058922
 31
0.0
  0
LINE
  8
0
 10
568.140353
 20
-2232.0025
 30
0.0
 11
598.140353
 21
-2202.0025
 31
0.0
  0
LINE
  8
0
 10
715.226067
 20
-2099.058922
 30
0.0
 11
745.226067
 21
-2069.058922
 31
0.0
  0
LINE
  8
0
 10
582.282489
 20
-2232.0025
 30
0.0
 11
612.282489
 21
-2202.0025
 31
0.0
  0
LINE
  8
0
 10
729.368203
 20
-2099.058922
 30
0.0
 11
759.368203
 21
-2069.058922
 31
0.0
  0
LINE
  8
0
 10
596.424625
 20
-2232.0025
 30
0.0
 11
626.424625
 21
-2202.0025
 31
0.0
  0
LINE
  8
0
 10
743.510338
 20
-2099.058922
 30
0.0
 11
773.510338
 21
-2069.058922
 31
0.0
  0
LINE
  8
0
 10
610.56676
 20
-2232.0025
 30
0.0
 11
640.56676
 21
-2202.0025
 31
0.0
  0
LINE
  8
0
 10
757.652474
 20
-2099.058922
 30
0.0
 11
787.652474
 21
-2069.058922
 31
0.0
  0
LINE
  8
0
 10
624.708896
 20
-2232.0025
 30
0.0
 11
654.708896
 21
-2202.0025
 31
0.0
  0
LINE
  8
0
 10
771.79461
 20
-2099.058922
 30
0.0
 11
801.79461
 21
-2069.058922
 31
0.0
  0
LINE
  8
0
 10
638.851031
 20
-2232.0025
 30
0.0
 11
668.851031
 21
-2202.0025
 31
0.0
  0
LINE
  8
0
 10
785.936745
 20
-2099.058922
 30
0.0
 11
815.936745
 21
-2069.058922
 31
0.0
  0
LINE
  8
0
 10
652.993167
 20
-2232.0025
 30
0.0
 11
682.993167
 21
-2202.0025
 31
0.0
  0
LINE
  8
0
 10
800.078881
 20
-2099.058922
 30
0.0
 11
830.078881
 21
-2069.058922
 31
0.0
  0
LINE
  8
0
 10
667.135303
 20
-2232.0025
 30
0.0
 11
697.135303
 21
-2202.0025
 31
0.0
  0
LINE
  8
0
 10
814.221016
 20
-2099.058922
 30
0.0
 11
844.221016
 21
-2069.058922
 31
0.0
  0
LINE
  8
0
 10
681.277438
 20
-2232.0025
 30
0.0
 11
711.277438
 21
-2202.0025
 31
0.0
  0
LINE
  8
0
 10
828.363152
 20
-2099.058922
 30
0.0
 11
858.363152
 21
-2069.058922
 31
0.0
  0
LINE
  8
0
 10
695.419574
 20
-2232.0025
 30
0.0
 11
725.419574
 21
-2202.0025
 31
0.0
  0
LINE
  8
0
 10
842.505288
 20
-2099.058922
 30
0.0
 11
872.505288
 21
-2069.058922
 31
0.0
  0
LINE
  8
0
 10
709.56171
 20
-2232.0025
 30
0.0
 11
739.56171
 21
-2202.0025
 31
0.0
  0
LINE
  8
0
 10
856.647423
 20
-2099.058922
 30
0.0
 11
886.647423
 21
-2069.058922
 31
0.0
  0
LINE
  8
0
 10
723.703845
 20
-2232.0025
 30
0.0
 11
753.703845
 21
-2202.0025
 31
0.0
  0
LINE
  8
0
 10
870.789559
 20
-2099.058922
 30
0.0
 11
900.789559
 21
-2069.058922
 31
0.0
  0
LINE
  8
0
 10
737.845981
 20
-2232.0025
 30
0.0
 11
767.845981
 21
-2202.0025
 31
0.0
  0
LINE
  8
0
 10
884.931695
 20
-2099.058922
 30
0.0
 11
914.931695
 21
-2069.058922
 31
0.0
  0
LINE
  8
0
 10
751.988116
 20
-2232.0025
 30
0.0
 11
781.988116
 21
-2202.0025
 31
0.0
  0
LINE
  8
0
 10
889.47589
 20
-2108.656863
 30
0.0
 11
919.47589
 21
-2078.656863
 31
0.0
  0
LINE
  8
0
 10
766.130252
 20
-2232.0025
 30
0.0
 11
796.130252
 21
-2202.0025
 31
0.0
  0
LINE
  8
0
 10
889.47589
 20
-2122.798998
 30
0.0
 11
919.47589
 21
-2092.798998
 31
0.0
  0
LINE
  8
0
 10
780.272388
 20
-2232.0025
 30
0.0
 11
810.272388
 21
-2202.0025
 31
0.0
  0
LINE
  8
0
 10
889.47589
 20
-2136.941134
 30
0.0
 11
919.47589
 21
-2106.941134
 31
0.0
  0
LINE
  8
0
 10
794.414523
 20
-2232.0025
 30
0.0
 11
824.414523
 21
-2202.0025
 31
0.0
  0
LINE
  8
0
 10
889.47589
 20
-2151.08327
 30
0.0
 11
919.47589
 21
-2121.08327
 31
0.0
  0
LINE
  8
0
 10
808.556659
 20
-2232.0025
 30
0.0
 11
838.556659
 21
-2202.0025
 31
0.0
  0
LINE
  8
0
 10
889.47589
 20
-2165.225405
 30
0.0
 11
919.47589
 21
-2135.225405
 31
0.0
  0
LINE
  8
0
 10
822.698795
 20
-2232.0025
 30
0.0
 11
852.698795
 21
-2202.0025
 31
0.0
  0
LINE
  8
0
 10
889.47589
 20
-2179.367541
 30
0.0
 11
919.47589
 21
-2149.367541
 31
0.0
  0
LINE
  8
0
 10
836.84093
 20
-2232.0025
 30
0.0
 11
866.84093
 21
-2202.0025
 31
0.0
  0
LINE
  8
0
 10
889.47589
 20
-2193.509676
 30
0.0
 11
919.47589
 21
-2163.509676
 31
0.0
  0
LINE
  8
0
 10
850.983066
 20
-2232.0025
 30
0.0
 11
880.983066
 21
-2202.0025
 31
0.0
  0
LINE
  8
0
 10
895.125201
 20
-2202.0025
 30
0.0
 11
919.47589
 21
-2177.651812
 31
0.0
  0
LINE
  8
0
 10
865.125201
 20
-2232.0025
 30
0.0
 11
895.125201
 21
-2202.0025
 31
0.0
  0
LINE
  8
0
 10
909.267337
 20
-2202.0025
 30
0.0
 11
919.47589
 21
-2191.793948
 31
0.0
  0
LINE
  8
0
 10
879.267337
 20
-2232.0025
 30
0.0
 11
909.267337
 21
-2202.0025
 31
0.0
  0
LINE
  8
0
 10
893.409473
 20
-2232.0025
 30
0.0
 11
919.47589
 21
-2205.936083
 31
0.0
  0
LINE
  8
0
 10
907.551608
 20
-2232.0025
 30
0.0
 11
919.47589
 21
-2220.078219
 31
0.0
  0
LINE
  8
0
 10
674.966263
 20
-2198.496162
 30
0.0
 11
649.966263
 21
-2198.496162
 31
0.0
  0
LINE
  8
0
 10
641.966263
 20
-2190.496162
 30
0.0
 11
641.966263
 21
-2159.981443
 31
0.0
  0
LINE
  8
0
 10
643.723623
 20
-2155.738803
 30
0.0
 11
650.880477
 21
-2148.581948
 31
0.0
  0
LINE
  8
0
 10
652.294691
 20
-2147.996162
 30
0.0
 11
656.966263
 21
-2147.996162
 31
0.0
  0
LINE
  8
0
 10
657.966263
 20
-2148.996162
 30
0.0
 11
657.966263
 21
-2151.996162
 31
0.0
  0
LINE
  8
0
 10
653.966263
 20
-2151.996162
 30
0.0
 11
653.123118
 21
-2151.996162
 31
0.0
  0
LINE
  8
0
 10
653.123118
 20
-2151.996162
 30
0.0
 11
646.55205
 21
-2158.56723
 31
0.0
  0
LINE
  8
0
 10
645.966263
 20
-2159.981443
 30
0.0
 11
645.966263
 21
-2190.496162
 31
0.0
  0
LINE
  8
0
 10
649.966263
 20
-2194.496162
 30
0.0
 11
674.966263
 21
-2194.496162
 31
0.0
  0
ARC
  8
0
 10
674.966263
 20
-2196.496162
 30
0.0
 40
2.0
 50
270.0
 51
0.0
  0
ARC
  8
0
 10
674.966263
 20
-2196.496162
 30
0.0
 40
2.0
 50
0.0
 51
90.0
  0
ARC
  8
0
 10
655.966263
 20
-2151.996162
 30
0.0
 40
2.0
 50
180.0
 51
0.0
  0
ARC
  8
0
 10
652.294691
 20
-2149.996162
 30
0.0
 40
2.0
 50
90.0
 51
135.0
  0
ARC
  8
0
 10
656.966263
 20
-2148.996162
 30
0.0
 40
1.0
 50
0.0
 51
90.0
  0
ARC
  8
0
 10
647.966263
 20
-2159.981443
 30
0.0
 40
6.0
 50
135.0
 51
180.0
  0
ARC
  8
0
 10
649.966263
 20
-2190.496162
 30
0.0
 40
8.0
 50
180.0
 51
270.0
  0
ARC
  8
0
 10
649.966263
 20
-2190.496162
 30
0.0
 40
4.0
 50
180.0
 51
270.0
  0
ARC
  8
0
 10
647.966263
 20
-2159.981443
 30
0.0
 40
2.0
 50
135.0
 51
180.0
  0
LINE
  8
0
 10
737.166506
 20
-2194.496162
 30
0.0
 11
762.166506
 21
-2194.496162
 31
0.0
  0
LINE
  8
0
 10
733.166506
 20
-2159.981443
 30
0.0
 11
733.166506
 21
-2190.496162
 31
0.0
  0
LINE
  8
0
 10
740.32336
 20
-2151.996162
 30
0.0
 11
733.752293
 21
-2158.56723
 31
0.0
  0
LINE
  8
0
 10
741.166506
 20
-2151.996162
 30
0.0
 11
740.32336
 21
-2151.996162
 31
0.0
  0
LINE
  8
0
 10
745.166506
 20
-2148.996162
 30
0.0
 11
745.166506
 21
-2151.996162
 31
0.0
  0
LINE
  8
0
 10
739.494933
 20
-2147.996162
 30
0.0
 11
744.166506
 21
-2147.996162
 31
0.0
  0
LINE
  8
0
 10
730.923865
 20
-2155.738803
 30
0.0
 11
738.08072
 21
-2148.581948
 31
0.0
  0
LINE
  8
0
 10
729.166506
 20
-2190.496162
 30
0.0
 11
729.166506
 21
-2159.981443
 31
0.0
  0
LINE
  8
0
 10
762.166506
 20
-2198.496162
 30
0.0
 11
737.166506
 21
-2198.496162
 31
0.0
  0
ARC
  8
0
 10
735.166506
 20
-2159.981443
 30
0.0
 40
2.0
 50
135.0
 51
180.0
  0
ARC
  8
0
 10
737.166506
 20
-2190.496162
 30
0.0
 40
4.0
 50
180.0
 51
270.0
  0
ARC
  8
0
 10
737.166506
 20
-2190.496162
 30
0.0
 40
8.0
 50
180.0
 51
270.0
  0
ARC
  8
0
 10
735.166506
 20
-2159.981443
 30
0.0
 40
6.0
 50
135.0
 51
180.0
  0
ARC
  8
0
 10
744.166506
 20
-2148.996162
 30
0.0
 40
1.0
 50
0.0
 51
90.0
  0
ARC
  8
0
 10
739.494933
 20
-2149.996162
 30
0.0
 40
2.0
 50
90.0
 51
135.0
  0
ARC
  8
0
 10
743.166506
 20
-2151.996162
 30
0.0
 40
2.0
 50
180.0
 51
0.0
  0
ARC
  8
0
 10
762.166506
 20
-2196.496162
 30
0.0
 40
2.0
 50
0.0
 51
90.0
  0
ARC
  8
0
 10
762.166506
 20
-2196.496162
 30
0.0
 40
2.0
 50
270.0
 51
0.0
  0
ENDSEC
  0
EOF
