  0
SECTION
  2
HEADER
  9
$ACADVER
  1
AC1009
  9
$INSBASE
 10
0.0
 20
0.0
 30
0.0
  9
$EXTMIN
 10
-229.317814
 20
-2232.0025
 30
0.0
  9
$EXTMAX
 10
212.568738
 20
-2069.058922
 30
0.0
  9
$LIMMIN
 10
-229.317814
 20
-2232.0025
  9
$LIMMAX
 10
212.568738
 20
-2069.058922
  9
$ORTHOMODE
 70
     0
  9
$REGENMODE
 70
     1
  9
$FILLMODE
 70
     1
  9
$QTEXTMODE
 70
     0
  9
$MIRRTEXT
 70
     1
  9
$DRAGMODE
 70
     2
  9
$LTSCALE
 40
1.0
  9
$OSMODE
 70
     0
  9
$ATTMODE
 70
     1
  9
$TEXTSIZE
 40
3.5
  9
$TRACEWID
 40
0.5
  9
$TEXTSTYLE
  7
STANDARD
  9
$CLAYER
  8
0
  9
$CELTYPE
  6
BYLAYER
  9
$CECOLOR
 62
   256
  9
$DIMSCALE
 40
1.0
  9
$DIMASZ
 40
0.18
  9
$DIMEXO
 40
0.0625
  9
$DIMDLI
 40
0.38
  9
$DIMRND
 40
0.0
  9
$DIMDLE
 40
0.0
  9
$DIMEXE
 40
0.18
  9
$DIMTP
 40
0.0
  9
$DIMTM
 40
0.0
  9
$DIMTXT
 40
0.18
  9
$DIMCEN
 40
0.09
  9
$DIMTSZ
 40
0.0
  9
$DIMTOL
 70
     0
  9
$DIMLIM
 70
     0
  9
$DIMTIH
 70
     1
  9
$DIMTOH
 70
     1
  9
$DIMSE1
 70
     0
  9
$DIMSE2
 70
     0
  9
$DIMTAD
 70
     0
  9
$DIMZIN
 70
     0
  9
$DIMBLK
  1

  9
$DIMASO
 70
     1
  9
$DIMSHO
 70
     1
  9
$DIMPOST
  1

  9
$DIMAPOST
  1

  9
$DIMALT
 70
     0
  9
$DIMALTD
 70
     2
  9
$DIMALTF
 40
25.4
  9
$DIMLFAC
 40
1.0
  9
$DIMTOFL
 70
     0
  9
$DIMTVP
 40
0.0
  9
$DIMTIX
 70
     0
  9
$DIMSOXD
 70
     0
  9
$DIMSAH
 70
     0
  9
$DIMBLK1
  1

  9
$DIMBLK2
  1

  9
$DIMSTYLE
  2
*UNNAMED
  9
$DIMCLRD
 70
     0
  9
$DIMCLRE
 70
     0
  9
$DIMCLRT
 70
     0
  9
$DIMTFAC
 40
1.0
  9
$DIMGAP
 40
0.09
  9
$LUNITS
 70
     2
  9
$LUPREC
 70
     4
  9
$SKETCHINC
 40
0.1
  9
$FILLETRAD
 40
2.0
  9
$AUNITS
 70
     0
  9
$AUPREC
 70
     0
  9
$MENU
  1
ACAD
  9
$ELEVATION
 40
0.0
  9
$PELEVATION
 40
0.0
  9
$THICKNESS
 40
0.0
  9
$LIMCHECK
 70
     0
  9
$BLIPMODE
 70
     1
  9
$CHAMFERA
 40
0.0
  9
$CHAMFERB
 40
0.0
  9
$SKPOLY
 70
     0
  9
$TDCREATE
 40
2450743.581284606
  9
$TDUPDATE
 40
2450948.556234954
  9
$TDINDWG
 40
0.0026012731
  9
$TDUSRTIMER
 40
0.0026012731
  9
$USRTIMER
 70
     1
  9
$ANGBASE
 50
0.0
  9
$ANGDIR
 70
     0
  9
$PDMODE
 70
     0
  9
$PDSIZE
 40
0.0
  9
$PLINEWID
 40
0.0
  9
$COORDS
 70
     2
  9
$SPLFRAME
 70
     0
  9
$SPLINETYPE
 70
     6
  9
$SPLINESEGS
 70
     8
  9
$ATTDIA
 70
     0
  9
$ATTREQ
 70
     1
  9
$HANDLING
 70
     0
  9
$HANDSEED
  5
0
  9
$SURFTAB1
 70
     6
  9
$SURFTAB2
 70
     6
  9
$SURFTYPE
 70
     6
  9
$SURFU
 70
     6
  9
$SURFV
 70
     6
  9
$UCSNAME
  2

  9
$UCSORG
 10
0.0
 20
0.0
 30
0.0
  9
$UCSXDIR
 10
1.0
 20
0.0
 30
0.0
  9
$UCSYDIR
 10
0.0
 20
1.0
 30
0.0
  9
$PUCSNAME
  2

  9
$PUCSORG
 10
0.0
 20
0.0
 30
0.0
  9
$PUCSXDIR
 10
1.0
 20
0.0
 30
0.0
  9
$PUCSYDIR
 10
0.0
 20
1.0
 30
0.0
  9
$USERI1
 70
     0
  9
$USERI2
 70
     0
  9
$USERI3
 70
     0
  9
$USERI4
 70
     0
  9
$USERI5
 70
     0
  9
$USERR1
 40
0.0
  9
$USERR2
 40
0.0
  9
$USERR3
 40
0.0
  9
$USERR4
 40
0.0
  9
$USERR5
 40
0.0
  9
$WORLDVIEW
 70
     1
  9
$SHADEDGE
 70
     3
  9
$SHADEDIF
 70
    70
  9
$TILEMODE
 70
     1
  9
$MAXACTVP
 70
    16
  9
$PINSBASE
 10
0.0
 20
0.0
 30
0.0
  9
$PLIMCHECK
 70
     0
  9
$PEXTMIN
 10
1.000000E+20
 20
1.000000E+20
 30
1.000000E+20
  9
$PEXTMAX
 10
-1.000000E+20
 20
-1.000000E+20
 30
-1.000000E+20
  9
$PLIMMIN
 10
0.0
 20
0.0
  9
$PLIMMAX
 10
420.0
 20
297.0
  9
$UNITMODE
 70
     0
  9
$VISRETAIN
 70
     0
  9
$PLINEGEN
 70
     0
  9
$PSLTSCALE
 70
     1
  9
$TREEDEPTH
 70
  3020
  9
$DWGCODEPAGE
  3
iso8859-1
  0
ENDSEC
  0
SECTION
  2
TABLES
  0
TABLE
  2
VPORT
 70
     2
  0
VPORT
  2
*ACTIVE
 70
     0
 10
0.0
 20
0.0
 11
1.0
 21
1.0
 12
-4.447395
 22
-2159.956042
 13
0.0
 23
0.0
 14
1.0
 24
1.0
 15
0.0
 25
0.0
 16
0.0
 26
0.0
 36
1.0
 17
0.0
 27
0.0
 37
0.0
 40
379.212267
 41
1.748359
 42
50.0
 43
0.0
 44
0.0
 50
0.0
 51
0.0
 71
     0
 72
   100
 73
     1
 74
     0
 75
     0
 76
     0
 77
     0
 78
     0
  0
ENDTAB
  0
TABLE
  2
LTYPE
 70
     1
  0
LTYPE
  2
CONTINUOUS
 70
    64
  3
Solid line
 72
    65
 73
     0
 40
0.0
  0
ENDTAB
  0
TABLE
  2
LAYER
 70
     1
  0
LAYER
  2
0
 70
    64
 62
     7
  6
CONTINUOUS
  0
ENDTAB
  0
TABLE
  2
STYLE
 70
     1
  0
STYLE
  2
STANDARD
 70
     0
 40
0.0
 41
1.0
 50
0.0
 71
     0
 42
3.5
  3
txt
  4

  0
ENDTAB
  0
TABLE
  2
VIEW
 70
     0
  0
ENDTAB
  0
TABLE
  2
UCS
 70
     0
  0
ENDTAB
  0
TABLE
  2
APPID
 70
     1
  0
APPID
  2
ACAD
 70
    64
  0
ENDTAB
  0
TABLE
  2
DIMSTYLE
 70
     0
  0
ENDTAB
  0
ENDSEC
  0
SECTION
  2
BLOCKS
  0
ENDSEC
  0
SECTION
  2
ENTITIES
  0
LINE
  8
0
 10
-199.317814
 20
-2202.0025
 30
0.0
 11
-154.638985
 21
-2201.996162
 31
0.0
  0
LINE
  8
0
 10
-199.317814
 20
-2099.058922
 30
0.0
 11
-199.317814
 21
-2202.0025
 31
0.0
  0
LINE
  8
0
 10
182.568738
 20
-2099.058922
 30
0.0
 11
-199.317814
 21
-2099.058922
 31
0.0
  0
LINE
  8
0
 10
182.568738
 20
-2202.0025
 30
0.0
 11
182.568738
 21
-2099.058922
 31
0.0
  0
LINE
  8
0
 10
139.361015
 20
-2201.996162
 30
0.0
 11
182.568738
 21
-2202.0025
 31
0.0
  0
LINE
  8
0
 10
138.861015
 20
-2196.496162
 30
0.0
 11
138.864579
 21
-2158.274089
 31
0.0
  0
LINE
  8
0
 10
142.361015
 20
-2158.238803
 30
0.0
 11
142.361015
 21
-2198.996162
 31
0.0
  0
LINE
  8
0
 10
135.068122
 20
-2149.703269
 30
0.0
 11
141.482336
 21
-2156.117482
 31
0.0
  0
LINE
  8
0
 10
130.002139
 20
-2148.581948
 30
0.0
 11
138.278793
 21
-2156.859876
 31
0.0
  0
LINE
  8
0
 10
139.861015
 20
-2146.996162
 30
0.0
 11
139.861015
 21
-2144.910376
 31
0.0
  0
LINE
  8
0
 10
135.775229
 20
-2147.996162
 30
0.0
 11
138.861015
 21
-2147.996162
 31
0.0
  0
LINE
  8
0
 10
139.568122
 20
-2144.203269
 30
0.0
 11
137.653909
 21
-2142.289055
 31
0.0
  0
LINE
  8
0
 10
123.361015
 20
-2147.996162
 30
0.0
 11
128.587926
 21
-2147.996162
 31
0.0
  0
LINE
  8
0
 10
84.861015
 20
-2146.996162
 30
0.0
 11
84.861015
 21
-2142.996162
 31
0.0
  0
LINE
  8
0
 10
122.861015
 20
-2150.496162
 30
0.0
 11
122.861015
 21
-2148.496162
 31
0.0
  0
LINE
  8
0
 10
118.825482
 20
-2148.874842
 30
0.0
 11
121.153909
 21
-2151.203269
 31
0.0
  0
LINE
  8
0
 10
85.861015
 20
-2147.996162
 30
0.0
 11
116.704161
 21
-2147.996162
 31
0.0
  0
LINE
  8
0
 10
136.946802
 20
-2141.996162
 30
0.0
 11
85.861015
 21
-2141.996162
 31
0.0
  0
LINE
  8
0
 10
137.861015
 20
-2145.324589
 30
0.0
 11
136.532588
 21
-2143.996162
 31
0.0
  0
LINE
  8
0
 10
137.861015
 20
-2145.996162
 30
0.0
 11
137.861015
 21
-2145.324589
 31
0.0
  0
LINE
  8
0
 10
122.861015
 20
-2145.996162
 30
0.0
 11
137.861015
 21
-2145.996162
 31
0.0
  0
LINE
  8
0
 10
86.861015
 20
-2143.996162
 30
0.0
 11
136.532588
 21
-2143.996162
 31
0.0
  0
LINE
  8
0
 10
86.861015
 20
-2143.996162
 30
0.0
 11
86.861015
 21
-2145.996162
 31
0.0
  0
LINE
  8
0
 10
122.861015
 20
-2144.996162
 30
0.0
 11
122.861015
 21
-2145.996162
 31
0.0
  0
LINE
  8
0
 10
86.861015
 20
-2145.996162
 30
0.0
 11
118.568122
 21
-2145.996162
 31
0.0
  0
LINE
  8
0
 10
118.921676
 20
-2146.142609
 30
0.0
 11
120.861015
 21
-2148.081948
 31
0.0
  0
LINE
  8
0
 10
120.861015
 20
-2144.996162
 30
0.0
 11
120.861015
 21
-2148.081948
 31
0.0
  0
LINE
  8
0
 10
-157.638985
 20
-2198.996162
 30
0.0
 11
-157.638985
 21
-2158.238803
 31
0.0
  0
LINE
  8
0
 10
-156.760305
 20
-2156.117482
 30
0.0
 11
-150.346091
 21
-2149.703269
 31
0.0
  0
LINE
  8
0
 10
-153.556762
 20
-2156.859876
 30
0.0
 11
-145.280109
 21
-2148.581948
 31
0.0
  0
LINE
  8
0
 10
-154.142548
 20
-2158.274089
 30
0.0
 11
-154.138985
 21
-2196.496162
 31
0.0
  0
LINE
  8
0
 10
-155.138985
 20
-2144.910376
 30
0.0
 11
-155.138985
 21
-2146.996162
 31
0.0
  0
LINE
  8
0
 10
-154.138985
 20
-2147.996162
 30
0.0
 11
-151.053198
 21
-2147.996162
 31
0.0
  0
LINE
  8
0
 10
-152.931878
 20
-2142.289055
 30
0.0
 11
-154.846091
 21
-2144.203269
 31
0.0
  0
LINE
  8
0
 10
-143.865895
 20
-2147.996162
 30
0.0
 11
-138.638985
 21
-2147.996162
 31
0.0
  0
LINE
  8
0
 10
-100.138985
 20
-2142.996162
 30
0.0
 11
-100.138985
 21
-2146.996162
 31
0.0
  0
LINE
  8
0
 10
-138.138985
 20
-2148.496162
 30
0.0
 11
-138.138985
 21
-2150.496162
 31
0.0
  0
LINE
  8
0
 10
-136.431878
 20
-2151.203269
 30
0.0
 11
-134.103451
 21
-2148.874842
 31
0.0
  0
LINE
  8
0
 10
-131.98213
 20
-2147.996162
 30
0.0
 11
-101.138985
 21
-2147.996162
 31
0.0
  0
LINE
  8
0
 10
-101.138985
 20
-2141.996162
 30
0.0
 11
-152.224771
 21
-2141.996162
 31
0.0
  0
LINE
  8
0
 10
-151.810557
 20
-2143.996162
 30
0.0
 11
-153.138985
 21
-2145.324589
 31
0.0
  0
LINE
  8
0
 10
-153.138985
 20
-2145.324589
 30
0.0
 11
-153.138985
 21
-2145.996162
 31
0.0
  0
LINE
  8
0
 10
-153.138985
 20
-2145.996162
 30
0.0
 11
-138.138985
 21
-2145.996162
 31
0.0
  0
LINE
  8
0
 10
-151.810557
 20
-2143.996162
 30
0.0
 11
-102.138985
 21
-2143.996162
 31
0.0
  0
LINE
  8
0
 10
-102.138985
 20
-2145.996162
 30
0.0
 11
-102.138985
 21
-2143.996162
 31
0.0
  0
LINE
  8
0
 10
-138.138985
 20
-2145.996162
 30
0.0
 11
-138.138985
 21
-2144.996162
 31
0.0
  0
LINE
  8
0
 10
-133.846091
 20
-2145.996162
 30
0.0
 11
-102.138985
 21
-2145.996162
 31
0.0
  0
LINE
  8
0
 10
-136.138985
 20
-2148.081948
 30
0.0
 11
-134.199645
 21
-2146.142609
 31
0.0
  0
LINE
  8
0
 10
-136.138985
 20
-2148.081948
 30
0.0
 11
-136.138985
 21
-2144.996162
 31
0.0
  0
LINE
  8
0
 10
-152.138985
 20
-2198.496162
 30
0.0
 11
136.861015
 21
-2198.496162
 31
0.0
  0
LINE
  8
0
 10
-154.638985
 20
-2201.996162
 30
0.0
 11
139.361015
 21
-2201.996162
 31
0.0
  0
ARC
  8
0
 10
121.861015
 20
-2144.996162
 30
0.0
 40
1.0
 50
0.0
 51
180.0
  0
ARC
  8
0
 10
121.861015
 20
-2150.496162
 30
0.0
 40
1.0
 50
225.0
 51
0.0
  0
ARC
  8
0
 10
-137.138985
 20
-2144.996162
 30
0.0
 40
1.0
 50
0.0
 51
180.0
  0
ARC
  8
0
 10
-137.138985
 20
-2150.496162
 30
0.0
 40
1.0
 50
180.0
 51
315.0
  0
ARC
  8
0
 10
139.361015
 20
-2198.996162
 30
0.0
 40
3.0
 50
270.0
 51
0.0
  0
ARC
  8
0
 10
136.861015
 20
-2196.496162
 30
0.0
 40
2.0
 50
270.0
 51
0.0
  0
ARC
  8
0
 10
135.775229
 20
-2148.996162
 30
0.0
 40
1.0
 50
90.0
 51
225.0
  0
ARC
  8
0
 10
138.861015
 20
-2146.996162
 30
0.0
 40
1.0
 50
270.0
 51
0.0
  0
ARC
  8
0
 10
85.861015
 20
-2142.996162
 30
0.0
 40
1.0
 50
90.0
 51
180.0
  0
ARC
  8
0
 10
85.861015
 20
-2146.996162
 30
0.0
 40
1.0
 50
180.0
 51
270.0
  0
ARC
  8
0
 10
118.568122
 20
-2146.496162
 30
0.0
 40
0.5
 50
45.0
 51
90.0
  0
ARC
  8
0
 10
136.946802
 20
-2142.996162
 30
0.0
 40
1.0
 50
45.0
 51
90.0
  0
ARC
  8
0
 10
138.861015
 20
-2144.910376
 30
0.0
 40
1.0
 50
0.0
 51
45.0
  0
ARC
  8
0
 10
128.587926
 20
-2149.996162
 30
0.0
 40
2.0
 50
45.0
 51
90.0
  0
ARC
  8
0
 10
123.361015
 20
-2148.496162
 30
0.0
 40
0.5
 50
90.0
 51
180.0
  0
ARC
  8
0
 10
116.704161
 20
-2150.996162
 30
0.0
 40
3.0
 50
45.0
 51
90.0
  0
ARC
  8
0
 10
136.864579
 20
-2158.274089
 30
0.0
 40
2.0
 50
0.0
 51
45.0
  0
ARC
  8
0
 10
139.361015
 20
-2158.238803
 30
0.0
 40
3.0
 50
0.0
 51
45.0
  0
ARC
  8
0
 10
-151.053198
 20
-2148.996162
 30
0.0
 40
1.0
 50
315.0
 51
90.0
  0
ARC
  8
0
 10
-154.138985
 20
-2146.996162
 30
0.0
 40
1.0
 50
180.0
 51
270.0
  0
ARC
  8
0
 10
-101.138985
 20
-2142.996162
 30
0.0
 40
1.0
 50
0.0
 51
90.0
  0
ARC
  8
0
 10
-101.138985
 20
-2146.996162
 30
0.0
 40
1.0
 50
270.0
 51
0.0
  0
ARC
  8
0
 10
-133.846091
 20
-2146.496162
 30
0.0
 40
0.5
 50
90.0
 51
135.0
  0
ARC
  8
0
 10
-152.224771
 20
-2142.996162
 30
0.0
 40
1.0
 50
90.0
 51
135.0
  0
ARC
  8
0
 10
-154.138985
 20
-2144.910376
 30
0.0
 40
1.0
 50
135.0
 51
180.0
  0
ARC
  8
0
 10
-143.865895
 20
-2149.996162
 30
0.0
 40
2.0
 50
90.0
 51
135.0
  0
ARC
  8
0
 10
-138.638985
 20
-2148.496162
 30
0.0
 40
0.5
 50
0.0
 51
90.0
  0
ARC
  8
0
 10
-131.98213
 20
-2150.996162
 30
0.0
 40
3.0
 50
90.0
 51
135.0
  0
ARC
  8
0
 10
-152.142548
 20
-2158.274089
 30
0.0
 40
2.0
 50
135.0
 51
180.0
  0
ARC
  8
0
 10
-154.638985
 20
-2198.996162
 30
0.0
 40
3.0
 50
180.0
 51
270.0
  0
ARC
  8
0
 10
-152.138985
 20
-2196.496162
 30
0.0
 40
2.0
 50
180.0
 51
270.0
  0
ARC
  8
0
 10
-154.638985
 20
-2158.238803
 30
0.0
 40
3.0
 50
135.0
 51
180.0
  0
LINE
  8
0
 10
-17.211487
 20
-2194.496162
 30
0.0
 11
7.788513
 21
-2194.496162
 31
0.0
  0
LINE
  8
0
 10
-21.211487
 20
-2159.981443
 30
0.0
 11
-21.211487
 21
-2190.496162
 31
0.0
  0
LINE
  8
0
 10
-14.054633
 20
-2151.996162
 30
0.0
 11
-20.6257
 21
-2158.56723
 31
0.0
  0
LINE
  8
0
 10
-13.211487
 20
-2151.996162
 30
0.0
 11
-14.054633
 21
-2151.996162
 31
0.0
  0
LINE
  8
0
 10
-9.211487
 20
-2148.996162
 30
0.0
 11
-9.211487
 21
-2151.996162
 31
0.0
  0
LINE
  8
0
 10
-14.88306
 20
-2147.996162
 30
0.0
 11
-10.211487
 21
-2147.996162
 31
0.0
  0
LINE
  8
0
 10
-23.454128
 20
-2155.738803
 30
0.0
 11
-16.297273
 21
-2148.581948
 31
0.0
  0
LINE
  8
0
 10
-25.211487
 20
-2190.496162
 30
0.0
 11
-25.211487
 21
-2159.981443
 31
0.0
  0
LINE
  8
0
 10
7.788513
 20
-2198.496162
 30
0.0
 11
-17.211487
 21
-2198.496162
 31
0.0
  0
ARC
  8
0
 10
-19.211487
 20
-2159.981443
 30
0.0
 40
2.0
 50
135.0
 51
180.0
  0
ARC
  8
0
 10
-17.211487
 20
-2190.496162
 30
0.0
 40
4.0
 50
180.0
 51
270.0
  0
ARC
  8
0
 10
-17.211487
 20
-2190.496162
 30
0.0
 40
8.0
 50
180.0
 51
270.0
  0
ARC
  8
0
 10
-19.211487
 20
-2159.981443
 30
0.0
 40
6.0
 50
135.0
 51
180.0
  0
ARC
  8
0
 10
-10.211487
 20
-2148.996162
 30
0.0
 40
1.0
 50
0.0
 51
90.0
  0
ARC
  8
0
 10
-14.88306
 20
-2149.996162
 30
0.0
 40
2.0
 50
90.0
 51
135.0
  0
ARC
  8
0
 10
-11.211487
 20
-2151.996162
 30
0.0
 40
2.0
 50
180.0
 51
0.0
  0
ARC
  8
0
 10
7.788513
 20
-2196.496162
 30
0.0
 40
2.0
 50
0.0
 51
90.0
  0
ARC
  8
0
 10
7.788513
 20
-2196.496162
 30
0.0
 40
2.0
 50
270.0
 51
0.0
  0
LINE
  8
0
 10
-157.800745
 20
-2151.996162
 30
0.0
 11
-157.800745
 21
-2140.496162
 31
0.0
  0
LINE
  8
0
 10
-155.300745
 20
-2141.996162
 30
0.0
 11
-155.300745
 21
-2151.496162
 31
0.0
  0
LINE
  8
0
 10
-155.300745
 20
-2151.496162
 30
0.0
 11
-153.975009
 21
-2150.170426
 31
0.0
  0
LINE
  8
0
 10
-153.975009
 20
-2150.170426
 30
0.0
 11
-155.125009
 21
-2149.020426
 31
0.0
  0
LINE
  8
0
 10
-154.700745
 20
-2147.996162
 30
0.0
 11
-151.240085
 21
-2147.996162
 31
0.0
  0
LINE
  8
0
 10
-150.575871
 20
-2149.599715
 30
0.0
 11
-154.386531
 21
-2153.410376
 31
0.0
  0
LINE
  8
0
 10
139.861015
 20
-2151.496162
 30
0.0
 11
139.861015
 21
-2141.996162
 31
0.0
  0
LINE
  8
0
 10
138.53528
 20
-2150.170426
 30
0.0
 11
139.861015
 21
-2151.496162
 31
0.0
  0
LINE
  8
0
 10
139.68528
 20
-2149.020426
 30
0.0
 11
138.53528
 21
-2150.170426
 31
0.0
  0
LINE
  8
0
 10
135.800355
 20
-2147.996162
 30
0.0
 11
139.261015
 21
-2147.996162
 31
0.0
  0
LINE
  8
0
 10
138.946802
 20
-2153.410376
 30
0.0
 11
135.136142
 21
-2149.599715
 31
0.0
  0
LINE
  8
0
 10
138.361015
 20
-2140.496162
 30
0.0
 11
-153.800745
 21
-2140.496162
 31
0.0
  0
LINE
  8
0
 10
-155.300745
 20
-2137.996162
 30
0.0
 11
139.861015
 21
-2137.996162
 31
0.0
  0
LINE
  8
0
 10
142.361015
 20
-2140.496162
 30
0.0
 11
142.361015
 21
-2151.996162
 31
0.0
  0
ARC
  8
0
 10
135.800355
 20
-2148.935502
 30
0.0
 40
0.93934
 50
90.0
 51
180.866301
  0
ARC
  8
0
 10
-151.240085
 20
-2148.935502
 30
0.0
 40
0.93934
 50
315.0
 51
359.820102
  0
ARC
  8
0
 10
-155.800745
 20
-2151.996162
 30
0.0
 40
2.0
 50
180.0
 51
315.0
  0
ARC
  8
0
 10
-154.700745
 20
-2148.596162
 30
0.0
 40
0.6
 50
90.0
 51
225.0
  0
ARC
  8
0
 10
-151.240085
 20
-2148.935502
 30
0.0
 40
0.93934
 50
359.820102
 51
90.0
  0
ARC
  8
0
 10
140.361015
 20
-2151.996162
 30
0.0
 40
2.0
 50
225.0
 51
0.0
  0
ARC
  8
0
 10
139.261015
 20
-2148.596162
 30
0.0
 40
0.6
 50
315.0
 51
90.0
  0
ARC
  8
0
 10
135.800355
 20
-2148.935502
 30
0.0
 40
0.93934
 50
180.866301
 51
225.0
  0
ARC
  8
0
 10
-153.800745
 20
-2141.996162
 30
0.0
 40
1.5
 50
90.0
 51
180.0
  0
ARC
  8
0
 10
138.361015
 20
-2141.996162
 30
0.0
 40
1.5
 50
0.0
 51
90.0
  0
ARC
  8
0
 10
-155.300745
 20
-2140.496162
 30
0.0
 40
2.5
 50
90.0
 51
180.0
  0
ARC
  8
0
 10
139.861015
 20
-2140.496162
 30
0.0
 40
2.5
 50
0.0
 51
90.0
  0
LINE
  8
0
 10
-229.317814
 20
-2081.937581
 30
0.0
 11
-216.439155
 21
-2069.058922
 31
0.0
  0
LINE
  8
0
 10
-229.317814
 20
-2096.079717
 30
0.0
 11
-202.29702
 21
-2069.058922
 31
0.0
  0
LINE
  8
0
 10
-229.317814
 20
-2110.221852
 30
0.0
 11
-188.154884
 21
-2069.058922
 31
0.0
  0
LINE
  8
0
 10
-229.317814
 20
-2124.363988
 30
0.0
 11
-174.012749
 21
-2069.058922
 31
0.0
  0
LINE
  8
0
 10
-189.870613
 20
-2099.058922
 30
0.0
 11
-159.870613
 21
-2069.058922
 31
0.0
  0
LINE
  8
0
 10
-229.317814
 20
-2138.506124
 30
0.0
 11
-199.317814
 21
-2108.506124
 31
0.0
  0
LINE
  8
0
 10
-175.728477
 20
-2099.058922
 30
0.0
 11
-145.728477
 21
-2069.058922
 31
0.0
  0
LINE
  8
0
 10
-229.317814
 20
-2152.648259
 30
0.0
 11
-199.317814
 21
-2122.648259
 31
0.0
  0
LINE
  8
0
 10
-161.586342
 20
-2099.058922
 30
0.0
 11
-131.586342
 21
-2069.058922
 31
0.0
  0
LINE
  8
0
 10
-229.317814
 20
-2166.790395
 30
0.0
 11
-199.317814
 21
-2136.790395
 31
0.0
  0
LINE
  8
0
 10
-147.444206
 20
-2099.058922
 30
0.0
 11
-117.444206
 21
-2069.058922
 31
0.0
  0
LINE
  8
0
 10
-229.317814
 20
-2180.93253
 30
0.0
 11
-199.317814
 21
-2150.93253
 31
0.0
  0
LINE
  8
0
 10
-133.30207
 20
-2099.058922
 30
0.0
 11
-103.30207
 21
-2069.058922
 31
0.0
  0
LINE
  8
0
 10
-229.317814
 20
-2195.074666
 30
0.0
 11
-199.317814
 21
-2165.074666
 31
0.0
  0
LINE
  8
0
 10
-119.159935
 20
-2099.058922
 30
0.0
 11
-89.159935
 21
-2069.058922
 31
0.0
  0
LINE
  8
0
 10
-229.317814
 20
-2209.216802
 30
0.0
 11
-199.317814
 21
-2179.216802
 31
0.0
  0
LINE
  8
0
 10
-105.017799
 20
-2099.058922
 30
0.0
 11
-75.017799
 21
-2069.058922
 31
0.0
  0
LINE
  8
0
 10
-229.317814
 20
-2223.358937
 30
0.0
 11
-199.317814
 21
-2193.358937
 31
0.0
  0
LINE
  8
0
 10
-90.875664
 20
-2099.058922
 30
0.0
 11
-60.875664
 21
-2069.058922
 31
0.0
  0
LINE
  8
0
 10
-223.819242
 20
-2232.0025
 30
0.0
 11
-193.819242
 21
-2202.0025
 31
0.0
  0
LINE
  8
0
 10
-76.733528
 20
-2099.058922
 30
0.0
 11
-46.733528
 21
-2069.058922
 31
0.0
  0
LINE
  8
0
 10
-209.677106
 20
-2232.0025
 30
0.0
 11
-179.677106
 21
-2202.0025
 31
0.0
  0
LINE
  8
0
 10
-62.591392
 20
-2099.058922
 30
0.0
 11
-32.591392
 21
-2069.058922
 31
0.0
  0
LINE
  8
0
 10
-195.53497
 20
-2232.0025
 30
0.0
 11
-165.53497
 21
-2202.0025
 31
0.0
  0
LINE
  8
0
 10
-48.449257
 20
-2099.058922
 30
0.0
 11
-18.449257
 21
-2069.058922
 31
0.0
  0
LINE
  8
0
 10
-181.392835
 20
-2232.0025
 30
0.0
 11
-151.392835
 21
-2202.0025
 31
0.0
  0
LINE
  8
0
 10
-34.307121
 20
-2099.058922
 30
0.0
 11
-4.307121
 21
-2069.058922
 31
0.0
  0
LINE
  8
0
 10
-167.250699
 20
-2232.0025
 30
0.0
 11
-137.250699
 21
-2202.0025
 31
0.0
  0
LINE
  8
0
 10
-20.164985
 20
-2099.058922
 30
0.0
 11
9.835015
 21
-2069.058922
 31
0.0
  0
LINE
  8
0
 10
-153.108564
 20
-2232.0025
 30
0.0
 11
-123.108564
 21
-2202.0025
 31
0.0
  0
LINE
  8
0
 10
-6.02285
 20
-2099.058922
 30
0.0
 11
23.97715
 21
-2069.058922
 31
0.0
  0
LINE
  8
0
 10
-138.966428
 20
-2232.0025
 30
0.0
 11
-108.966428
 21
-2202.0025
 31
0.0
  0
LINE
  8
0
 10
8.119286
 20
-2099.058922
 30
0.0
 11
38.119286
 21
-2069.058922
 31
0.0
  0
LINE
  8
0
 10
-124.824292
 20
-2232.0025
 30
0.0
 11
-94.824292
 21
-2202.0025
 31
0.0
  0
LINE
  8
0
 10
22.261421
 20
-2099.058922
 30
0.0
 11
52.261421
 21
-2069.058922
 31
0.0
  0
LINE
  8
0
 10
-110.682157
 20
-2232.0025
 30
0.0
 11
-80.682157
 21
-2202.0025
 31
0.0
  0
LINE
  8
0
 10
36.403557
 20
-2099.058922
 30
0.0
 11
66.403557
 21
-2069.058922
 31
0.0
  0
LINE
  8
0
 10
-96.540021
 20
-2232.0025
 30
0.0
 11
-66.540021
 21
-2202.0025
 31
0.0
  0
LINE
  8
0
 10
50.545693
 20
-2099.058922
 30
0.0
 11
80.545693
 21
-2069.058922
 31
0.0
  0
LINE
  8
0
 10
-82.397885
 20
-2232.0025
 30
0.0
 11
-52.397885
 21
-2202.0025
 31
0.0
  0
LINE
  8
0
 10
64.687828
 20
-2099.058922
 30
0.0
 11
94.687828
 21
-2069.058922
 31
0.0
  0
LINE
  8
0
 10
-68.25575
 20
-2232.0025
 30
0.0
 11
-38.25575
 21
-2202.0025
 31
0.0
  0
LINE
  8
0
 10
78.829964
 20
-2099.058922
 30
0.0
 11
108.829964
 21
-2069.058922
 31
0.0
  0
LINE
  8
0
 10
-54.113614
 20
-2232.0025
 30
0.0
 11
-24.113614
 21
-2202.0025
 31
0.0
  0
LINE
  8
0
 10
92.9721
 20
-2099.058922
 30
0.0
 11
122.9721
 21
-2069.058922
 31
0.0
  0
LINE
  8
0
 10
-39.971479
 20
-2232.0025
 30
0.0
 11
-9.971479
 21
-2202.0025
 31
0.0
  0
LINE
  8
0
 10
107.114235
 20
-2099.058922
 30
0.0
 11
137.114235
 21
-2069.058922
 31
0.0
  0
LINE
  8
0
 10
-25.829343
 20
-2232.0025
 30
0.0
 11
4.170657
 21
-2202.0025
 31
0.0
  0
LINE
  8
0
 10
121.256371
 20
-2099.058922
 30
0.0
 11
151.256371
 21
-2069.058922
 31
0.0
  0
LINE
  8
0
 10
-11.687207
 20
-2232.0025
 30
0.0
 11
18.312793
 21
-2202.0025
 31
0.0
  0
LINE
  8
0
 10
135.398506
 20
-2099.058922
 30
0.0
 11
165.398506
 21
-2069.058922
 31
0.0
  0
LINE
  8
0
 10
2.454928
 20
-2232.0025
 30
0.0
 11
32.454928
 21
-2202.0025
 31
0.0
  0
LINE
  8
0
 10
149.540642
 20
-2099.058922
 30
0.0
 11
179.540642
 21
-2069.058922
 31
0.0
  0
LINE
  8
0
 10
16.597064
 20
-2232.0025
 30
0.0
 11
46.597064
 21
-2202.0025
 31
0.0
  0
LINE
  8
0
 10
163.682778
 20
-2099.058922
 30
0.0
 11
193.682778
 21
-2069.058922
 31
0.0
  0
LINE
  8
0
 10
30.7392
 20
-2232.0025
 30
0.0
 11
60.7392
 21
-2202.0025
 31
0.0
  0
LINE
  8
0
 10
177.824913
 20
-2099.058922
 30
0.0
 11
207.824913
 21
-2069.058922
 31
0.0
  0
LINE
  8
0
 10
44.881335
 20
-2232.0025
 30
0.0
 11
74.881335
 21
-2202.0025
 31
0.0
  0
LINE
  8
0
 10
182.568738
 20
-2108.457233
 30
0.0
 11
212.568738
 21
-2078.457233
 31
0.0
  0
LINE
  8
0
 10
59.023471
 20
-2232.0025
 30
0.0
 11
89.023471
 21
-2202.0025
 31
0.0
  0
LINE
  8
0
 10
182.568738
 20
-2122.599369
 30
0.0
 11
212.568738
 21
-2092.599369
 31
0.0
  0
LINE
  8
0
 10
73.165606
 20
-2232.0025
 30
0.0
 11
103.165606
 21
-2202.0025
 31
0.0
  0
LINE
  8
0
 10
182.568738
 20
-2136.741505
 30
0.0
 11
212.568738
 21
-2106.741505
 31
0.0
  0
LINE
  8
0
 10
87.307742
 20
-2232.0025
 30
0.0
 11
117.307742
 21
-2202.0025
 31
0.0
  0
LINE
  8
0
 10
182.568738
 20
-2150.88364
 30
0.0
 11
212.568738
 21
-2120.88364
 31
0.0
  0
LINE
  8
0
 10
101.449878
 20
-2232.0025
 30
0.0
 11
131.449878
 21
-2202.0025
 31
0.0
  0
LINE
  8
0
 10
182.568738
 20
-2165.025776
 30
0.0
 11
212.568738
 21
-2135.025776
 31
0.0
  0
LINE
  8
0
 10
115.592013
 20
-2232.0025
 30
0.0
 11
145.592013
 21
-2202.0025
 31
0.0
  0
LINE
  8
0
 10
182.568738
 20
-2179.167912
 30
0.0
 11
212.568738
 21
-2149.167912
 31
0.0
  0
LINE
  8
0
 10
129.734149
 20
-2232.0025
 30
0.0
 11
159.734149
 21
-2202.0025
 31
0.0
  0
LINE
  8
0
 10
182.568738
 20
-2193.310047
 30
0.0
 11
212.568738
 21
-2163.310047
 31
0.0
  0
LINE
  8
0
 10
143.876285
 20
-2232.0025
 30
0.0
 11
173.876285
 21
-2202.0025
 31
0.0
  0
LINE
  8
0
 10
188.01842
 20
-2202.0025
 30
0.0
 11
212.568738
 21
-2177.452183
 31
0.0
  0
LINE
  8
0
 10
158.01842
 20
-2232.0025
 30
0.0
 11
188.01842
 21
-2202.0025
 31
0.0
  0
LINE
  8
0
 10
202.160556
 20
-2202.0025
 30
0.0
 11
212.568738
 21
-2191.594318
 31
0.0
  0
LINE
  8
0
 10
172.160556
 20
-2232.0025
 30
0.0
 11
202.160556
 21
-2202.0025
 31
0.0
  0
LINE
  8
0
 10
186.302691
 20
-2232.0025
 30
0.0
 11
212.568738
 21
-2205.736454
 31
0.0
  0
LINE
  8
0
 10
200.444827
 20
-2232.0025
 30
0.0
 11
212.568738
 21
-2219.87859
 31
0.0
  0
ENDSEC
  0
EOF
