  0
SECTION
  2
HEADER
  9
$ACADVER
  1
AC1009
  9
$INSBASE
 10
0.0
 20
0.0
 30
0.0
  9
$EXTMIN
 10
-891.255916
 20
-2232.0025
 30
0.0
  9
$EXTMAX
 10
-449.369364
 20
-2069.058922
 30
0.0
  9
$LIMMIN
 10
-891.255916
 20
-2232.0025
  9
$LIMMAX
 10
-449.369364
 20
-2069.058922
  9
$ORTHOMODE
 70
     0
  9
$REGENMODE
 70
     1
  9
$FILLMODE
 70
     1
  9
$QTEXTMODE
 70
     0
  9
$MIRRTEXT
 70
     1
  9
$DRAGMODE
 70
     2
  9
$LTSCALE
 40
1.0
  9
$OSMODE
 70
     0
  9
$ATTMODE
 70
     1
  9
$TEXTSIZE
 40
3.5
  9
$TRACEWID
 40
0.5
  9
$TEXTSTYLE
  7
STANDARD
  9
$CLAYER
  8
0
  9
$CELTYPE
  6
BYLAYER
  9
$CECOLOR
 62
   256
  9
$DIMSCALE
 40
1.0
  9
$DIMASZ
 40
0.18
  9
$DIMEXO
 40
0.0625
  9
$DIMDLI
 40
0.38
  9
$DIMRND
 40
0.0
  9
$DIMDLE
 40
0.0
  9
$DIMEXE
 40
0.18
  9
$DIMTP
 40
0.0
  9
$DIMTM
 40
0.0
  9
$DIMTXT
 40
0.18
  9
$DIMCEN
 40
0.09
  9
$DIMTSZ
 40
0.0
  9
$DIMTOL
 70
     0
  9
$DIMLIM
 70
     0
  9
$DIMTIH
 70
     1
  9
$DIMTOH
 70
     1
  9
$DIMSE1
 70
     0
  9
$DIMSE2
 70
     0
  9
$DIMTAD
 70
     0
  9
$DIMZIN
 70
     0
  9
$DIMBLK
  1

  9
$DIMASO
 70
     1
  9
$DIMSHO
 70
     1
  9
$DIMPOST
  1

  9
$DIMAPOST
  1

  9
$DIMALT
 70
     0
  9
$DIMALTD
 70
     2
  9
$DIMALTF
 40
25.4
  9
$DIMLFAC
 40
1.0
  9
$DIMTOFL
 70
     0
  9
$DIMTVP
 40
0.0
  9
$DIMTIX
 70
     0
  9
$DIMSOXD
 70
     0
  9
$DIMSAH
 70
     0
  9
$DIMBLK1
  1

  9
$DIMBLK2
  1

  9
$DIMSTYLE
  2
*UNNAMED
  9
$DIMCLRD
 70
     0
  9
$DIMCLRE
 70
     0
  9
$DIMCLRT
 70
     0
  9
$DIMTFAC
 40
1.0
  9
$DIMGAP
 40
0.09
  9
$LUNITS
 70
     2
  9
$LUPREC
 70
     4
  9
$SKETCHINC
 40
0.1
  9
$FILLETRAD
 40
2.0
  9
$AUNITS
 70
     0
  9
$AUPREC
 70
     0
  9
$MENU
  1
ACAD
  9
$ELEVATION
 40
0.0
  9
$PELEVATION
 40
0.0
  9
$THICKNESS
 40
0.0
  9
$LIMCHECK
 70
     0
  9
$BLIPMODE
 70
     1
  9
$CHAMFERA
 40
0.0
  9
$CHAMFERB
 40
0.0
  9
$SKPOLY
 70
     0
  9
$TDCREATE
 40
2450948.549134722
  9
$TDUPDATE
 40
2450948.549509837
  9
$TDINDWG
 40
0.0002695602
  9
$TDUSRTIMER
 40
0.0002695602
  9
$USRTIMER
 70
     1
  9
$ANGBASE
 50
0.0
  9
$ANGDIR
 70
     0
  9
$PDMODE
 70
     0
  9
$PDSIZE
 40
0.0
  9
$PLINEWID
 40
0.0
  9
$COORDS
 70
     2
  9
$SPLFRAME
 70
     0
  9
$SPLINETYPE
 70
     6
  9
$SPLINESEGS
 70
     8
  9
$ATTDIA
 70
     0
  9
$ATTREQ
 70
     1
  9
$HANDLING
 70
     0
  9
$HANDSEED
  5
0
  9
$SURFTAB1
 70
     6
  9
$SURFTAB2
 70
     6
  9
$SURFTYPE
 70
     6
  9
$SURFU
 70
     6
  9
$SURFV
 70
     6
  9
$UCSNAME
  2

  9
$UCSORG
 10
0.0
 20
0.0
 30
0.0
  9
$UCSXDIR
 10
1.0
 20
0.0
 30
0.0
  9
$UCSYDIR
 10
0.0
 20
1.0
 30
0.0
  9
$PUCSNAME
  2

  9
$PUCSORG
 10
0.0
 20
0.0
 30
0.0
  9
$PUCSXDIR
 10
1.0
 20
0.0
 30
0.0
  9
$PUCSYDIR
 10
0.0
 20
1.0
 30
0.0
  9
$USERI1
 70
     0
  9
$USERI2
 70
     0
  9
$USERI3
 70
     0
  9
$USERI4
 70
     0
  9
$USERI5
 70
     0
  9
$USERR1
 40
0.0
  9
$USERR2
 40
0.0
  9
$USERR3
 40
0.0
  9
$USERR4
 40
0.0
  9
$USERR5
 40
0.0
  9
$WORLDVIEW
 70
     1
  9
$SHADEDGE
 70
     3
  9
$SHADEDIF
 70
    70
  9
$TILEMODE
 70
     1
  9
$MAXACTVP
 70
    16
  9
$PINSBASE
 10
0.0
 20
0.0
 30
0.0
  9
$PLIMCHECK
 70
     0
  9
$PEXTMIN
 10
1.000000E+20
 20
1.000000E+20
 30
1.000000E+20
  9
$PEXTMAX
 10
-1.000000E+20
 20
-1.000000E+20
 30
-1.000000E+20
  9
$PLIMMIN
 10
0.0
 20
0.0
  9
$PLIMMAX
 10
420.0
 20
297.0
  9
$UNITMODE
 70
     0
  9
$VISRETAIN
 70
     0
  9
$PLINEGEN
 70
     0
  9
$PSLTSCALE
 70
     1
  9
$TREEDEPTH
 70
  3020
  9
$DWGCODEPAGE
  3
iso8859-1
  0
ENDSEC
  0
SECTION
  2
TABLES
  0
TABLE
  2
VPORT
 70
     2
  0
VPORT
  2
*ACTIVE
 70
     0
 10
0.0
 20
0.0
 11
1.0
 21
1.0
 12
-638.871196
 22
-2135.456373
 13
0.0
 23
0.0
 14
1.0
 24
1.0
 15
0.0
 25
0.0
 16
0.0
 26
0.0
 36
1.0
 17
0.0
 27
0.0
 37
0.0
 40
342.995365
 41
1.748359
 42
50.0
 43
0.0
 44
0.0
 50
0.0
 51
0.0
 71
     0
 72
   100
 73
     1
 74
     0
 75
     0
 76
     0
 77
     0
 78
     0
  0
ENDTAB
  0
TABLE
  2
LTYPE
 70
     1
  0
LTYPE
  2
CONTINUOUS
 70
    64
  3
Solid line
 72
    65
 73
     0
 40
0.0
  0
ENDTAB
  0
TABLE
  2
LAYER
 70
     1
  0
LAYER
  2
0
 70
    64
 62
     7
  6
CONTINUOUS
  0
ENDTAB
  0
TABLE
  2
STYLE
 70
     1
  0
STYLE
  2
STANDARD
 70
     0
 40
0.0
 41
1.0
 50
0.0
 71
     0
 42
3.5
  3
txt
  4

  0
ENDTAB
  0
TABLE
  2
VIEW
 70
     0
  0
ENDTAB
  0
TABLE
  2
UCS
 70
     0
  0
ENDTAB
  0
TABLE
  2
APPID
 70
     1
  0
APPID
  2
ACAD
 70
    64
  0
ENDTAB
  0
TABLE
  2
DIMSTYLE
 70
     0
  0
ENDTAB
  0
ENDSEC
  0
SECTION
  2
BLOCKS
  0
ENDSEC
  0
SECTION
  2
ENTITIES
  0
LINE
  8
0
 10
-861.255916
 20
-2202.0025
 30
0.0
 11
-861.255916
 21
-2099.058922
 31
0.0
  0
LINE
  8
0
 10
-816.577086
 20
-2201.996162
 30
0.0
 11
-861.255916
 21
-2202.0025
 31
0.0
  0
LINE
  8
0
 10
-479.369364
 20
-2099.058922
 30
0.0
 11
-861.255916
 21
-2099.058922
 31
0.0
  0
LINE
  8
0
 10
-479.369364
 20
-2202.0025
 30
0.0
 11
-479.369364
 21
-2099.058922
 31
0.0
  0
LINE
  8
0
 10
-522.577086
 20
-2201.996162
 30
0.0
 11
-479.369364
 21
-2202.0025
 31
0.0
  0
LINE
  8
0
 10
-523.077086
 20
-2196.496162
 30
0.0
 11
-523.073522
 21
-2158.274089
 31
0.0
  0
LINE
  8
0
 10
-519.577086
 20
-2158.238803
 30
0.0
 11
-519.577086
 21
-2198.996162
 31
0.0
  0
LINE
  8
0
 10
-526.869979
 20
-2149.703269
 30
0.0
 11
-520.455766
 21
-2156.117482
 31
0.0
  0
LINE
  8
0
 10
-531.935962
 20
-2148.581948
 30
0.0
 11
-523.659309
 21
-2156.859876
 31
0.0
  0
LINE
  8
0
 10
-522.077086
 20
-2146.996162
 30
0.0
 11
-522.077086
 21
-2144.910376
 31
0.0
  0
LINE
  8
0
 10
-526.162872
 20
-2147.996162
 30
0.0
 11
-523.077086
 21
-2147.996162
 31
0.0
  0
LINE
  8
0
 10
-522.369979
 20
-2144.203269
 30
0.0
 11
-524.284193
 21
-2142.289055
 31
0.0
  0
LINE
  8
0
 10
-538.577086
 20
-2147.996162
 30
0.0
 11
-533.350175
 21
-2147.996162
 31
0.0
  0
LINE
  8
0
 10
-577.077086
 20
-2146.996162
 30
0.0
 11
-577.077086
 21
-2142.996162
 31
0.0
  0
LINE
  8
0
 10
-539.077086
 20
-2150.496162
 30
0.0
 11
-539.077086
 21
-2148.496162
 31
0.0
  0
LINE
  8
0
 10
-543.11262
 20
-2148.874842
 30
0.0
 11
-540.784193
 21
-2151.203269
 31
0.0
  0
LINE
  8
0
 10
-576.077086
 20
-2147.996162
 30
0.0
 11
-545.23394
 21
-2147.996162
 31
0.0
  0
LINE
  8
0
 10
-524.991299
 20
-2141.996162
 30
0.0
 11
-576.077086
 21
-2141.996162
 31
0.0
  0
LINE
  8
0
 10
-524.077086
 20
-2145.324589
 30
0.0
 11
-525.405513
 21
-2143.996162
 31
0.0
  0
LINE
  8
0
 10
-524.077086
 20
-2145.996162
 30
0.0
 11
-524.077086
 21
-2145.324589
 31
0.0
  0
LINE
  8
0
 10
-539.077086
 20
-2145.996162
 30
0.0
 11
-524.077086
 21
-2145.996162
 31
0.0
  0
LINE
  8
0
 10
-575.077086
 20
-2143.996162
 30
0.0
 11
-525.405513
 21
-2143.996162
 31
0.0
  0
LINE
  8
0
 10
-575.077086
 20
-2143.996162
 30
0.0
 11
-575.077086
 21
-2145.996162
 31
0.0
  0
LINE
  8
0
 10
-539.077086
 20
-2144.996162
 30
0.0
 11
-539.077086
 21
-2145.996162
 31
0.0
  0
LINE
  8
0
 10
-575.077086
 20
-2145.996162
 30
0.0
 11
-543.369979
 21
-2145.996162
 31
0.0
  0
LINE
  8
0
 10
-543.016426
 20
-2146.142609
 30
0.0
 11
-541.077086
 21
-2148.081948
 31
0.0
  0
LINE
  8
0
 10
-541.077086
 20
-2144.996162
 30
0.0
 11
-541.077086
 21
-2148.081948
 31
0.0
  0
LINE
  8
0
 10
-819.577086
 20
-2198.996162
 30
0.0
 11
-819.577086
 21
-2158.238803
 31
0.0
  0
LINE
  8
0
 10
-818.698406
 20
-2156.117482
 30
0.0
 11
-812.284193
 21
-2149.703269
 31
0.0
  0
LINE
  8
0
 10
-815.494863
 20
-2156.859876
 30
0.0
 11
-807.21821
 21
-2148.581948
 31
0.0
  0
LINE
  8
0
 10
-816.08065
 20
-2158.274089
 30
0.0
 11
-816.077086
 21
-2196.496162
 31
0.0
  0
LINE
  8
0
 10
-817.077086
 20
-2144.910376
 30
0.0
 11
-817.077086
 21
-2146.996162
 31
0.0
  0
LINE
  8
0
 10
-816.077086
 20
-2147.996162
 30
0.0
 11
-812.991299
 21
-2147.996162
 31
0.0
  0
LINE
  8
0
 10
-814.869979
 20
-2142.289055
 30
0.0
 11
-816.784193
 21
-2144.203269
 31
0.0
  0
LINE
  8
0
 10
-805.803996
 20
-2147.996162
 30
0.0
 11
-800.577086
 21
-2147.996162
 31
0.0
  0
LINE
  8
0
 10
-762.077086
 20
-2142.996162
 30
0.0
 11
-762.077086
 21
-2146.996162
 31
0.0
  0
LINE
  8
0
 10
-800.077086
 20
-2148.496162
 30
0.0
 11
-800.077086
 21
-2150.496162
 31
0.0
  0
LINE
  8
0
 10
-798.369979
 20
-2151.203269
 30
0.0
 11
-796.041552
 21
-2148.874842
 31
0.0
  0
LINE
  8
0
 10
-793.920232
 20
-2147.996162
 30
0.0
 11
-763.077086
 21
-2147.996162
 31
0.0
  0
LINE
  8
0
 10
-763.077086
 20
-2141.996162
 30
0.0
 11
-814.162872
 21
-2141.996162
 31
0.0
  0
LINE
  8
0
 10
-813.748659
 20
-2143.996162
 30
0.0
 11
-815.077086
 21
-2145.324589
 31
0.0
  0
LINE
  8
0
 10
-815.077086
 20
-2145.324589
 30
0.0
 11
-815.077086
 21
-2145.996162
 31
0.0
  0
LINE
  8
0
 10
-815.077086
 20
-2145.996162
 30
0.0
 11
-800.077086
 21
-2145.996162
 31
0.0
  0
LINE
  8
0
 10
-813.748659
 20
-2143.996162
 30
0.0
 11
-764.077086
 21
-2143.996162
 31
0.0
  0
LINE
  8
0
 10
-764.077086
 20
-2145.996162
 30
0.0
 11
-764.077086
 21
-2143.996162
 31
0.0
  0
LINE
  8
0
 10
-800.077086
 20
-2145.996162
 30
0.0
 11
-800.077086
 21
-2144.996162
 31
0.0
  0
LINE
  8
0
 10
-795.784193
 20
-2145.996162
 30
0.0
 11
-764.077086
 21
-2145.996162
 31
0.0
  0
LINE
  8
0
 10
-798.077086
 20
-2148.081948
 30
0.0
 11
-796.137746
 21
-2146.142609
 31
0.0
  0
LINE
  8
0
 10
-798.077086
 20
-2148.081948
 30
0.0
 11
-798.077086
 21
-2144.996162
 31
0.0
  0
LINE
  8
0
 10
-814.077086
 20
-2198.496162
 30
0.0
 11
-525.077086
 21
-2198.496162
 31
0.0
  0
LINE
  8
0
 10
-816.577086
 20
-2201.996162
 30
0.0
 11
-522.577086
 21
-2201.996162
 31
0.0
  0
ARC
  8
0
 10
-540.077086
 20
-2144.996162
 30
0.0
 40
1.0
 50
0.0
 51
180.0
  0
ARC
  8
0
 10
-540.077086
 20
-2150.496162
 30
0.0
 40
1.0
 50
225.0
 51
0.0
  0
ARC
  8
0
 10
-799.077086
 20
-2144.996162
 30
0.0
 40
1.0
 50
0.0
 51
180.0
  0
ARC
  8
0
 10
-799.077086
 20
-2150.496162
 30
0.0
 40
1.0
 50
180.0
 51
315.0
  0
ARC
  8
0
 10
-522.577086
 20
-2198.996162
 30
0.0
 40
3.0
 50
270.0
 51
0.0
  0
ARC
  8
0
 10
-525.077086
 20
-2196.496162
 30
0.0
 40
2.0
 50
270.0
 51
0.0
  0
ARC
  8
0
 10
-526.162872
 20
-2148.996162
 30
0.0
 40
1.0
 50
90.0
 51
225.0
  0
ARC
  8
0
 10
-523.077086
 20
-2146.996162
 30
0.0
 40
1.0
 50
270.0
 51
0.0
  0
ARC
  8
0
 10
-576.077086
 20
-2142.996162
 30
0.0
 40
1.0
 50
90.0
 51
180.0
  0
ARC
  8
0
 10
-576.077086
 20
-2146.996162
 30
0.0
 40
1.0
 50
180.0
 51
270.0
  0
ARC
  8
0
 10
-543.369979
 20
-2146.496162
 30
0.0
 40
0.5
 50
45.0
 51
90.0
  0
ARC
  8
0
 10
-524.991299
 20
-2142.996162
 30
0.0
 40
1.0
 50
45.0
 51
90.0
  0
ARC
  8
0
 10
-523.077086
 20
-2144.910376
 30
0.0
 40
1.0
 50
0.0
 51
45.0
  0
ARC
  8
0
 10
-533.350175
 20
-2149.996162
 30
0.0
 40
2.0
 50
45.0
 51
90.0
  0
ARC
  8
0
 10
-538.577086
 20
-2148.496162
 30
0.0
 40
0.5
 50
90.0
 51
180.0
  0
ARC
  8
0
 10
-545.23394
 20
-2150.996162
 30
0.0
 40
3.0
 50
45.0
 51
90.0
  0
ARC
  8
0
 10
-525.073522
 20
-2158.274089
 30
0.0
 40
2.0
 50
0.0
 51
45.0
  0
ARC
  8
0
 10
-522.577086
 20
-2158.238803
 30
0.0
 40
3.0
 50
0.0
 51
45.0
  0
ARC
  8
0
 10
-812.991299
 20
-2148.996162
 30
0.0
 40
1.0
 50
315.0
 51
90.0
  0
ARC
  8
0
 10
-816.077086
 20
-2146.996162
 30
0.0
 40
1.0
 50
180.0
 51
270.0
  0
ARC
  8
0
 10
-763.077086
 20
-2142.996162
 30
0.0
 40
1.0
 50
0.0
 51
90.0
  0
ARC
  8
0
 10
-763.077086
 20
-2146.996162
 30
0.0
 40
1.0
 50
270.0
 51
0.0
  0
ARC
  8
0
 10
-795.784193
 20
-2146.496162
 30
0.0
 40
0.5
 50
90.0
 51
135.0
  0
ARC
  8
0
 10
-814.162872
 20
-2142.996162
 30
0.0
 40
1.0
 50
90.0
 51
135.0
  0
ARC
  8
0
 10
-816.077086
 20
-2144.910376
 30
0.0
 40
1.0
 50
135.0
 51
180.0
  0
ARC
  8
0
 10
-805.803996
 20
-2149.996162
 30
0.0
 40
2.0
 50
90.0
 51
135.0
  0
ARC
  8
0
 10
-800.577086
 20
-2148.496162
 30
0.0
 40
0.5
 50
0.0
 51
90.0
  0
ARC
  8
0
 10
-793.920232
 20
-2150.996162
 30
0.0
 40
3.0
 50
90.0
 51
135.0
  0
ARC
  8
0
 10
-814.08065
 20
-2158.274089
 30
0.0
 40
2.0
 50
135.0
 51
180.0
  0
ARC
  8
0
 10
-816.577086
 20
-2198.996162
 30
0.0
 40
3.0
 50
180.0
 51
270.0
  0
ARC
  8
0
 10
-814.077086
 20
-2196.496162
 30
0.0
 40
2.0
 50
180.0
 51
270.0
  0
ARC
  8
0
 10
-816.577086
 20
-2158.238803
 30
0.0
 40
3.0
 50
135.0
 51
180.0
  0
LINE
  8
0
 10
-519.577086
 20
-2140.496162
 30
0.0
 11
-519.577086
 21
-2151.996162
 31
0.0
  0
LINE
  8
0
 10
-817.238846
 20
-2137.996162
 30
0.0
 11
-522.077086
 21
-2137.996162
 31
0.0
  0
LINE
  8
0
 10
-523.577086
 20
-2140.496162
 30
0.0
 11
-815.738846
 21
-2140.496162
 31
0.0
  0
LINE
  8
0
 10
-522.991299
 20
-2153.410376
 30
0.0
 11
-526.80196
 21
-2149.599715
 31
0.0
  0
LINE
  8
0
 10
-526.137746
 20
-2147.996162
 30
0.0
 11
-522.677086
 21
-2147.996162
 31
0.0
  0
LINE
  8
0
 10
-522.252822
 20
-2149.020426
 30
0.0
 11
-523.402822
 21
-2150.170426
 31
0.0
  0
LINE
  8
0
 10
-523.402822
 20
-2150.170426
 30
0.0
 11
-522.077086
 21
-2151.496162
 31
0.0
  0
LINE
  8
0
 10
-522.077086
 20
-2151.496162
 30
0.0
 11
-522.077086
 21
-2141.996162
 31
0.0
  0
LINE
  8
0
 10
-812.513972
 20
-2149.599715
 30
0.0
 11
-816.324633
 21
-2153.410376
 31
0.0
  0
LINE
  8
0
 10
-816.638846
 20
-2147.996162
 30
0.0
 11
-813.178186
 21
-2147.996162
 31
0.0
  0
LINE
  8
0
 10
-815.91311
 20
-2150.170426
 30
0.0
 11
-817.06311
 21
-2149.020426
 31
0.0
  0
LINE
  8
0
 10
-817.238846
 20
-2151.496162
 30
0.0
 11
-815.91311
 21
-2150.170426
 31
0.0
  0
LINE
  8
0
 10
-817.238846
 20
-2141.996162
 30
0.0
 11
-817.238846
 21
-2151.496162
 31
0.0
  0
LINE
  8
0
 10
-819.738846
 20
-2151.996162
 30
0.0
 11
-819.738846
 21
-2140.496162
 31
0.0
  0
ARC
  8
0
 10
-526.137746
 20
-2148.935502
 30
0.0
 40
0.93934
 50
180.866301
 51
225.0
  0
ARC
  8
0
 10
-522.677086
 20
-2148.596162
 30
0.0
 40
0.6
 50
315.0
 51
90.0
  0
ARC
  8
0
 10
-521.577086
 20
-2151.996162
 30
0.0
 40
2.0
 50
225.0
 51
0.0
  0
ARC
  8
0
 10
-813.178186
 20
-2148.935502
 30
0.0
 40
0.93934
 50
359.820102
 51
90.0
  0
ARC
  8
0
 10
-816.638846
 20
-2148.596162
 30
0.0
 40
0.6
 50
90.0
 51
225.0
  0
ARC
  8
0
 10
-817.738846
 20
-2151.996162
 30
0.0
 40
2.0
 50
180.0
 51
315.0
  0
ARC
  8
0
 10
-813.178186
 20
-2148.935502
 30
0.0
 40
0.93934
 50
315.0
 51
359.820102
  0
ARC
  8
0
 10
-526.137746
 20
-2148.935502
 30
0.0
 40
0.93934
 50
90.0
 51
180.866301
  0
ARC
  8
0
 10
-522.077086
 20
-2140.496162
 30
0.0
 40
2.5
 50
0.0
 51
90.0
  0
ARC
  8
0
 10
-817.238846
 20
-2140.496162
 30
0.0
 40
2.5
 50
90.0
 51
180.0
  0
ARC
  8
0
 10
-523.577086
 20
-2141.996162
 30
0.0
 40
1.5
 50
0.0
 51
90.0
  0
ARC
  8
0
 10
-815.738846
 20
-2141.996162
 30
0.0
 40
1.5
 50
90.0
 51
180.0
  0
LINE
  8
0
 10
-891.255916
 20
-2079.195308
 30
0.0
 11
-881.11953
 21
-2069.058922
 31
0.0
  0
LINE
  8
0
 10
-891.255916
 20
-2093.337444
 30
0.0
 11
-866.977394
 21
-2069.058922
 31
0.0
  0
LINE
  8
0
 10
-891.255916
 20
-2107.479579
 30
0.0
 11
-852.835258
 21
-2069.058922
 31
0.0
  0
LINE
  8
0
 10
-891.255916
 20
-2121.621715
 30
0.0
 11
-838.693123
 21
-2069.058922
 31
0.0
  0
LINE
  8
0
 10
-854.550987
 20
-2099.058922
 30
0.0
 11
-824.550987
 21
-2069.058922
 31
0.0
  0
LINE
  8
0
 10
-891.255916
 20
-2135.763851
 30
0.0
 11
-861.255916
 21
-2105.763851
 31
0.0
  0
LINE
  8
0
 10
-840.408852
 20
-2099.058922
 30
0.0
 11
-810.408852
 21
-2069.058922
 31
0.0
  0
LINE
  8
0
 10
-891.255916
 20
-2149.905986
 30
0.0
 11
-861.255916
 21
-2119.905986
 31
0.0
  0
LINE
  8
0
 10
-826.266716
 20
-2099.058922
 30
0.0
 11
-796.266716
 21
-2069.058922
 31
0.0
  0
LINE
  8
0
 10
-891.255916
 20
-2164.048122
 30
0.0
 11
-861.255916
 21
-2134.048122
 31
0.0
  0
LINE
  8
0
 10
-812.12458
 20
-2099.058922
 30
0.0
 11
-782.12458
 21
-2069.058922
 31
0.0
  0
LINE
  8
0
 10
-891.255916
 20
-2178.190257
 30
0.0
 11
-861.255916
 21
-2148.190257
 31
0.0
  0
LINE
  8
0
 10
-797.982445
 20
-2099.058922
 30
0.0
 11
-767.982445
 21
-2069.058922
 31
0.0
  0
LINE
  8
0
 10
-891.255916
 20
-2192.332393
 30
0.0
 11
-861.255916
 21
-2162.332393
 31
0.0
  0
LINE
  8
0
 10
-783.840309
 20
-2099.058922
 30
0.0
 11
-753.840309
 21
-2069.058922
 31
0.0
  0
LINE
  8
0
 10
-891.255916
 20
-2206.474529
 30
0.0
 11
-861.255916
 21
-2176.474529
 31
0.0
  0
LINE
  8
0
 10
-769.698173
 20
-2099.058922
 30
0.0
 11
-739.698173
 21
-2069.058922
 31
0.0
  0
LINE
  8
0
 10
-891.255916
 20
-2220.616664
 30
0.0
 11
-861.255916
 21
-2190.616664
 31
0.0
  0
LINE
  8
0
 10
-755.556038
 20
-2099.058922
 30
0.0
 11
-725.556038
 21
-2069.058922
 31
0.0
  0
LINE
  8
0
 10
-888.499616
 20
-2232.0025
 30
0.0
 11
-858.499616
 21
-2202.0025
 31
0.0
  0
LINE
  8
0
 10
-741.413902
 20
-2099.058922
 30
0.0
 11
-711.413902
 21
-2069.058922
 31
0.0
  0
LINE
  8
0
 10
-874.35748
 20
-2232.0025
 30
0.0
 11
-844.35748
 21
-2202.0025
 31
0.0
  0
LINE
  8
0
 10
-727.271767
 20
-2099.058922
 30
0.0
 11
-697.271767
 21
-2069.058922
 31
0.0
  0
LINE
  8
0
 10
-860.215345
 20
-2232.0025
 30
0.0
 11
-830.215345
 21
-2202.0025
 31
0.0
  0
LINE
  8
0
 10
-713.129631
 20
-2099.058922
 30
0.0
 11
-683.129631
 21
-2069.058922
 31
0.0
  0
LINE
  8
0
 10
-846.073209
 20
-2232.0025
 30
0.0
 11
-816.073209
 21
-2202.0025
 31
0.0
  0
LINE
  8
0
 10
-698.987495
 20
-2099.058922
 30
0.0
 11
-668.987495
 21
-2069.058922
 31
0.0
  0
LINE
  8
0
 10
-831.931073
 20
-2232.0025
 30
0.0
 11
-801.931073
 21
-2202.0025
 31
0.0
  0
LINE
  8
0
 10
-684.84536
 20
-2099.058922
 30
0.0
 11
-654.84536
 21
-2069.058922
 31
0.0
  0
LINE
  8
0
 10
-817.788938
 20
-2232.0025
 30
0.0
 11
-787.788938
 21
-2202.0025
 31
0.0
  0
LINE
  8
0
 10
-670.703224
 20
-2099.058922
 30
0.0
 11
-640.703224
 21
-2069.058922
 31
0.0
  0
LINE
  8
0
 10
-803.646802
 20
-2232.0025
 30
0.0
 11
-773.646802
 21
-2202.0025
 31
0.0
  0
LINE
  8
0
 10
-656.561088
 20
-2099.058922
 30
0.0
 11
-626.561088
 21
-2069.058922
 31
0.0
  0
LINE
  8
0
 10
-789.504667
 20
-2232.0025
 30
0.0
 11
-759.504667
 21
-2202.0025
 31
0.0
  0
LINE
  8
0
 10
-642.418953
 20
-2099.058922
 30
0.0
 11
-612.418953
 21
-2069.058922
 31
0.0
  0
LINE
  8
0
 10
-775.362531
 20
-2232.0025
 30
0.0
 11
-745.362531
 21
-2202.0025
 31
0.0
  0
LINE
  8
0
 10
-628.276817
 20
-2099.058922
 30
0.0
 11
-598.276817
 21
-2069.058922
 31
0.0
  0
LINE
  8
0
 10
-761.220395
 20
-2232.0025
 30
0.0
 11
-731.220395
 21
-2202.0025
 31
0.0
  0
LINE
  8
0
 10
-614.134682
 20
-2099.058922
 30
0.0
 11
-584.134682
 21
-2069.058922
 31
0.0
  0
LINE
  8
0
 10
-747.07826
 20
-2232.0025
 30
0.0
 11
-717.07826
 21
-2202.0025
 31
0.0
  0
LINE
  8
0
 10
-599.992546
 20
-2099.058922
 30
0.0
 11
-569.992546
 21
-2069.058922
 31
0.0
  0
LINE
  8
0
 10
-732.936124
 20
-2232.0025
 30
0.0
 11
-702.936124
 21
-2202.0025
 31
0.0
  0
LINE
  8
0
 10
-585.85041
 20
-2099.058922
 30
0.0
 11
-555.85041
 21
-2069.058922
 31
0.0
  0
LINE
  8
0
 10
-718.793988
 20
-2232.0025
 30
0.0
 11
-688.793988
 21
-2202.0025
 31
0.0
  0
LINE
  8
0
 10
-571.708275
 20
-2099.058922
 30
0.0
 11
-541.708275
 21
-2069.058922
 31
0.0
  0
LINE
  8
0
 10
-704.651853
 20
-2232.0025
 30
0.0
 11
-674.651853
 21
-2202.0025
 31
0.0
  0
LINE
  8
0
 10
-557.566139
 20
-2099.058922
 30
0.0
 11
-527.566139
 21
-2069.058922
 31
0.0
  0
LINE
  8
0
 10
-690.509717
 20
-2232.0025
 30
0.0
 11
-660.509717
 21
-2202.0025
 31
0.0
  0
LINE
  8
0
 10
-543.424003
 20
-2099.058922
 30
0.0
 11
-513.424003
 21
-2069.058922
 31
0.0
  0
LINE
  8
0
 10
-676.367582
 20
-2232.0025
 30
0.0
 11
-646.367582
 21
-2202.0025
 31
0.0
  0
LINE
  8
0
 10
-529.281868
 20
-2099.058922
 30
0.0
 11
-499.281868
 21
-2069.058922
 31
0.0
  0
LINE
  8
0
 10
-662.225446
 20
-2232.0025
 30
0.0
 11
-632.225446
 21
-2202.0025
 31
0.0
  0
LINE
  8
0
 10
-515.139732
 20
-2099.058922
 30
0.0
 11
-485.139732
 21
-2069.058922
 31
0.0
  0
LINE
  8
0
 10
-648.08331
 20
-2232.0025
 30
0.0
 11
-618.08331
 21
-2202.0025
 31
0.0
  0
LINE
  8
0
 10
-500.997597
 20
-2099.058922
 30
0.0
 11
-470.997597
 21
-2069.058922
 31
0.0
  0
LINE
  8
0
 10
-633.941175
 20
-2232.0025
 30
0.0
 11
-603.941175
 21
-2202.0025
 31
0.0
  0
LINE
  8
0
 10
-486.855461
 20
-2099.058922
 30
0.0
 11
-456.855461
 21
-2069.058922
 31
0.0
  0
LINE
  8
0
 10
-619.799039
 20
-2232.0025
 30
0.0
 11
-589.799039
 21
-2202.0025
 31
0.0
  0
LINE
  8
0
 10
-479.369364
 20
-2105.71496
 30
0.0
 11
-449.369364
 21
-2075.71496
 31
0.0
  0
LINE
  8
0
 10
-605.656903
 20
-2232.0025
 30
0.0
 11
-575.656903
 21
-2202.0025
 31
0.0
  0
LINE
  8
0
 10
-479.369364
 20
-2119.857096
 30
0.0
 11
-449.369364
 21
-2089.857096
 31
0.0
  0
LINE
  8
0
 10
-591.514768
 20
-2232.0025
 30
0.0
 11
-561.514768
 21
-2202.0025
 31
0.0
  0
LINE
  8
0
 10
-479.369364
 20
-2133.999232
 30
0.0
 11
-449.369364
 21
-2103.999232
 31
0.0
  0
LINE
  8
0
 10
-577.372632
 20
-2232.0025
 30
0.0
 11
-547.372632
 21
-2202.0025
 31
0.0
  0
LINE
  8
0
 10
-479.369364
 20
-2148.141367
 30
0.0
 11
-449.369364
 21
-2118.141367
 31
0.0
  0
LINE
  8
0
 10
-563.230497
 20
-2232.0025
 30
0.0
 11
-533.230497
 21
-2202.0025
 31
0.0
  0
LINE
  8
0
 10
-479.369364
 20
-2162.283503
 30
0.0
 11
-449.369364
 21
-2132.283503
 31
0.0
  0
LINE
  8
0
 10
-549.088361
 20
-2232.0025
 30
0.0
 11
-519.088361
 21
-2202.0025
 31
0.0
  0
LINE
  8
0
 10
-479.369364
 20
-2176.425639
 30
0.0
 11
-449.369364
 21
-2146.425639
 31
0.0
  0
LINE
  8
0
 10
-534.946225
 20
-2232.0025
 30
0.0
 11
-504.946225
 21
-2202.0025
 31
0.0
  0
LINE
  8
0
 10
-479.369364
 20
-2190.567774
 30
0.0
 11
-449.369364
 21
-2160.567774
 31
0.0
  0
LINE
  8
0
 10
-520.80409
 20
-2232.0025
 30
0.0
 11
-490.80409
 21
-2202.0025
 31
0.0
  0
LINE
  8
0
 10
-476.661954
 20
-2202.0025
 30
0.0
 11
-449.369364
 21
-2174.70991
 31
0.0
  0
LINE
  8
0
 10
-506.661954
 20
-2232.0025
 30
0.0
 11
-476.661954
 21
-2202.0025
 31
0.0
  0
LINE
  8
0
 10
-462.519818
 20
-2202.0025
 30
0.0
 11
-449.369364
 21
-2188.852045
 31
0.0
  0
LINE
  8
0
 10
-492.519818
 20
-2232.0025
 30
0.0
 11
-462.519818
 21
-2202.0025
 31
0.0
  0
LINE
  8
0
 10
-478.377683
 20
-2232.0025
 30
0.0
 11
-449.369364
 21
-2202.994181
 31
0.0
  0
LINE
  8
0
 10
-464.235547
 20
-2232.0025
 30
0.0
 11
-449.369364
 21
-2217.136317
 31
0.0
  0
LINE
  8
0
 10
-450.093412
 20
-2232.0025
 30
0.0
 11
-449.369364
 21
-2231.278452
 31
0.0
  0
ENDSEC
  0
EOF
