  0
SECTION
  2
HEADER
  9
$ACADVER
  1
AC1009
  9
$INSBASE
 10
0.0
 20
0.0
 30
0.0
  9
$EXTMIN
 10
489.718611
 20
-1917.784135
 30
0.0
  9
$EXTMAX
 10
849.718611
 20
-1793.784135
 30
0.0
  9
$LIMMIN
 10
489.718611
 20
-1917.784135
  9
$LIMMAX
 10
849.718611
 20
-1793.784135
  9
$ORTHOMODE
 70
     0
  9
$REGENMODE
 70
     1
  9
$FILLMODE
 70
     1
  9
$QTEXTMODE
 70
     0
  9
$MIRRTEXT
 70
     1
  9
$DRAGMODE
 70
     2
  9
$LTSCALE
 40
1.0
  9
$OSMODE
 70
     0
  9
$ATTMODE
 70
     1
  9
$TEXTSIZE
 40
3.5
  9
$TRACEWID
 40
0.5
  9
$TEXTSTYLE
  7
STANDARD
  9
$CLAYER
  8
0
  9
$CELTYPE
  6
BYLAYER
  9
$CECOLOR
 62
   256
  9
$DIMSCALE
 40
1.0
  9
$DIMASZ
 40
0.18
  9
$DIMEXO
 40
0.0625
  9
$DIMDLI
 40
0.38
  9
$DIMRND
 40
0.0
  9
$DIMDLE
 40
0.0
  9
$DIMEXE
 40
0.18
  9
$DIMTP
 40
0.0
  9
$DIMTM
 40
0.0
  9
$DIMTXT
 40
0.18
  9
$DIMCEN
 40
0.09
  9
$DIMTSZ
 40
0.0
  9
$DIMTOL
 70
     0
  9
$DIMLIM
 70
     0
  9
$DIMTIH
 70
     1
  9
$DIMTOH
 70
     1
  9
$DIMSE1
 70
     0
  9
$DIMSE2
 70
     0
  9
$DIMTAD
 70
     0
  9
$DIMZIN
 70
     0
  9
$DIMBLK
  1

  9
$DIMASO
 70
     1
  9
$DIMSHO
 70
     1
  9
$DIMPOST
  1

  9
$DIMAPOST
  1

  9
$DIMALT
 70
     0
  9
$DIMALTD
 70
     2
  9
$DIMALTF
 40
25.4
  9
$DIMLFAC
 40
1.0
  9
$DIMTOFL
 70
     0
  9
$DIMTVP
 40
0.0
  9
$DIMTIX
 70
     0
  9
$DIMSOXD
 70
     0
  9
$DIMSAH
 70
     0
  9
$DIMBLK1
  1

  9
$DIMBLK2
  1

  9
$DIMSTYLE
  2
*UNNAMED
  9
$DIMCLRD
 70
     0
  9
$DIMCLRE
 70
     0
  9
$DIMCLRT
 70
     0
  9
$DIMTFAC
 40
1.0
  9
$DIMGAP
 40
0.09
  9
$LUNITS
 70
     2
  9
$LUPREC
 70
     4
  9
$SKETCHINC
 40
0.1
  9
$FILLETRAD
 40
2.0
  9
$AUNITS
 70
     0
  9
$AUPREC
 70
     0
  9
$MENU
  1
ACAD
  9
$ELEVATION
 40
0.0
  9
$PELEVATION
 40
0.0
  9
$THICKNESS
 40
0.0
  9
$LIMCHECK
 70
     0
  9
$BLIPMODE
 70
     1
  9
$CHAMFERA
 40
0.0
  9
$CHAMFERB
 40
0.0
  9
$SKPOLY
 70
     0
  9
$TDCREATE
 40
2450948.547064814
  9
$TDUPDATE
 40
2450948.547357870
  9
$TDINDWG
 40
0.0001976852
  9
$TDUSRTIMER
 40
0.0001976852
  9
$USRTIMER
 70
     1
  9
$ANGBASE
 50
0.0
  9
$ANGDIR
 70
     0
  9
$PDMODE
 70
     0
  9
$PDSIZE
 40
0.0
  9
$PLINEWID
 40
0.0
  9
$COORDS
 70
     2
  9
$SPLFRAME
 70
     0
  9
$SPLINETYPE
 70
     6
  9
$SPLINESEGS
 70
     8
  9
$ATTDIA
 70
     0
  9
$ATTREQ
 70
     1
  9
$HANDLING
 70
     0
  9
$HANDSEED
  5
0
  9
$SURFTAB1
 70
     6
  9
$SURFTAB2
 70
     6
  9
$SURFTYPE
 70
     6
  9
$SURFU
 70
     6
  9
$SURFV
 70
     6
  9
$UCSNAME
  2

  9
$UCSORG
 10
0.0
 20
0.0
 30
0.0
  9
$UCSXDIR
 10
1.0
 20
0.0
 30
0.0
  9
$UCSYDIR
 10
0.0
 20
1.0
 30
0.0
  9
$PUCSNAME
  2

  9
$PUCSORG
 10
0.0
 20
0.0
 30
0.0
  9
$PUCSXDIR
 10
1.0
 20
0.0
 30
0.0
  9
$PUCSYDIR
 10
0.0
 20
1.0
 30
0.0
  9
$USERI1
 70
     0
  9
$USERI2
 70
     0
  9
$USERI3
 70
     0
  9
$USERI4
 70
     0
  9
$USERI5
 70
     0
  9
$USERR1
 40
0.0
  9
$USERR2
 40
0.0
  9
$USERR3
 40
0.0
  9
$USERR4
 40
0.0
  9
$USERR5
 40
0.0
  9
$WORLDVIEW
 70
     1
  9
$SHADEDGE
 70
     3
  9
$SHADEDIF
 70
    70
  9
$TILEMODE
 70
     1
  9
$MAXACTVP
 70
    16
  9
$PINSBASE
 10
0.0
 20
0.0
 30
0.0
  9
$PLIMCHECK
 70
     0
  9
$PEXTMIN
 10
1.000000E+20
 20
1.000000E+20
 30
1.000000E+20
  9
$PEXTMAX
 10
-1.000000E+20
 20
-1.000000E+20
 30
-1.000000E+20
  9
$PLIMMIN
 10
0.0
 20
0.0
  9
$PLIMMAX
 10
420.0
 20
297.0
  9
$UNITMODE
 70
     0
  9
$VISRETAIN
 70
     0
  9
$PLINEGEN
 70
     0
  9
$PSLTSCALE
 70
     1
  9
$TREEDEPTH
 70
  3020
  9
$DWGCODEPAGE
  3
iso8859-1
  0
ENDSEC
  0
SECTION
  2
TABLES
  0
TABLE
  2
VPORT
 70
     2
  0
VPORT
  2
*ACTIVE
 70
     0
 10
0.0
 20
0.0
 11
1.0
 21
1.0
 12
672.301219
 22
-1828.102259
 13
0.0
 23
0.0
 14
1.0
 24
1.0
 15
0.0
 25
0.0
 16
0.0
 26
0.0
 36
1.0
 17
0.0
 27
0.0
 37
0.0
 40
280.660716
 41
1.748359
 42
50.0
 43
0.0
 44
0.0
 50
0.0
 51
0.0
 71
     0
 72
   100
 73
     1
 74
     0
 75
     0
 76
     0
 77
     0
 78
     0
  0
ENDTAB
  0
TABLE
  2
LTYPE
 70
     1
  0
LTYPE
  2
CONTINUOUS
 70
    64
  3
Solid line
 72
    65
 73
     0
 40
0.0
  0
ENDTAB
  0
TABLE
  2
LAYER
 70
     1
  0
LAYER
  2
0
 70
    64
 62
     7
  6
CONTINUOUS
  0
ENDTAB
  0
TABLE
  2
STYLE
 70
     1
  0
STYLE
  2
STANDARD
 70
     0
 40
0.0
 41
1.0
 50
0.0
 71
     0
 42
3.5
  3
txt
  4

  0
ENDTAB
  0
TABLE
  2
VIEW
 70
     0
  0
ENDTAB
  0
TABLE
  2
UCS
 70
     0
  0
ENDTAB
  0
TABLE
  2
APPID
 70
     1
  0
APPID
  2
ACAD
 70
    64
  0
ENDTAB
  0
TABLE
  2
DIMSTYLE
 70
     0
  0
ENDTAB
  0
ENDSEC
  0
SECTION
  2
BLOCKS
  0
ENDSEC
  0
SECTION
  2
ENTITIES
  0
LINE
  8
0
 10
522.718611
 20
-1887.804084
 30
0.0
 11
816.718611
 21
-1887.804084
 31
0.0
  0
LINE
  8
0
 10
525.218611
 20
-1884.304084
 30
0.0
 11
814.218611
 21
-1884.304084
 31
0.0
  0
LINE
  8
0
 10
541.218611
 20
-1833.889871
 30
0.0
 11
541.218611
 21
-1830.804084
 31
0.0
  0
LINE
  8
0
 10
541.218611
 20
-1833.889871
 30
0.0
 11
543.15795
 21
-1831.950531
 31
0.0
  0
LINE
  8
0
 10
543.511504
 20
-1831.804084
 30
0.0
 11
575.218611
 21
-1831.804084
 31
0.0
  0
LINE
  8
0
 10
539.218611
 20
-1831.804084
 30
0.0
 11
539.218611
 21
-1830.804084
 31
0.0
  0
LINE
  8
0
 10
575.218611
 20
-1831.804084
 30
0.0
 11
575.218611
 21
-1829.804084
 31
0.0
  0
LINE
  8
0
 10
525.547038
 20
-1829.804084
 30
0.0
 11
575.218611
 21
-1829.804084
 31
0.0
  0
LINE
  8
0
 10
524.218611
 20
-1831.804084
 30
0.0
 11
539.218611
 21
-1831.804084
 31
0.0
  0
LINE
  8
0
 10
524.218611
 20
-1831.132511
 30
0.0
 11
524.218611
 21
-1831.804084
 31
0.0
  0
LINE
  8
0
 10
525.547038
 20
-1829.804084
 30
0.0
 11
524.218611
 21
-1831.132511
 31
0.0
  0
LINE
  8
0
 10
576.218611
 20
-1827.804084
 30
0.0
 11
525.132824
 21
-1827.804084
 31
0.0
  0
LINE
  8
0
 10
545.375465
 20
-1833.804084
 30
0.0
 11
576.218611
 21
-1833.804084
 31
0.0
  0
LINE
  8
0
 10
540.925717
 20
-1837.011191
 30
0.0
 11
543.254144
 21
-1834.682764
 31
0.0
  0
LINE
  8
0
 10
539.218611
 20
-1834.304084
 30
0.0
 11
539.218611
 21
-1836.304084
 31
0.0
  0
LINE
  8
0
 10
577.218611
 20
-1828.804084
 30
0.0
 11
577.218611
 21
-1832.804084
 31
0.0
  0
LINE
  8
0
 10
533.4917
 20
-1833.804084
 30
0.0
 11
538.718611
 21
-1833.804084
 31
0.0
  0
LINE
  8
0
 10
524.425717
 20
-1828.096977
 30
0.0
 11
522.511504
 21
-1830.011191
 31
0.0
  0
LINE
  8
0
 10
523.218611
 20
-1833.804084
 30
0.0
 11
526.304397
 21
-1833.804084
 31
0.0
  0
LINE
  8
0
 10
522.218611
 20
-1830.718298
 30
0.0
 11
522.218611
 21
-1832.804084
 31
0.0
  0
LINE
  8
0
 10
523.215047
 20
-1844.082011
 30
0.0
 11
523.218611
 21
-1882.304084
 31
0.0
  0
LINE
  8
0
 10
523.800833
 20
-1842.667798
 30
0.0
 11
532.077487
 21
-1834.389871
 31
0.0
  0
LINE
  8
0
 10
520.59729
 20
-1841.925405
 30
0.0
 11
527.011504
 21
-1835.511191
 31
0.0
  0
LINE
  8
0
 10
519.718611
 20
-1884.804084
 30
0.0
 11
519.718611
 21
-1844.046725
 31
0.0
  0
LINE
  8
0
 10
798.218611
 20
-1830.804084
 30
0.0
 11
798.218611
 21
-1833.889871
 31
0.0
  0
LINE
  8
0
 10
796.279271
 20
-1831.950531
 30
0.0
 11
798.218611
 21
-1833.889871
 31
0.0
  0
LINE
  8
0
 10
764.218611
 20
-1831.804084
 30
0.0
 11
795.925717
 21
-1831.804084
 31
0.0
  0
LINE
  8
0
 10
800.218611
 20
-1830.804084
 30
0.0
 11
800.218611
 21
-1831.804084
 31
0.0
  0
LINE
  8
0
 10
764.218611
 20
-1829.804084
 30
0.0
 11
764.218611
 21
-1831.804084
 31
0.0
  0
LINE
  8
0
 10
764.218611
 20
-1829.804084
 30
0.0
 11
813.890183
 21
-1829.804084
 31
0.0
  0
LINE
  8
0
 10
800.218611
 20
-1831.804084
 30
0.0
 11
815.218611
 21
-1831.804084
 31
0.0
  0
LINE
  8
0
 10
815.218611
 20
-1831.804084
 30
0.0
 11
815.218611
 21
-1831.132511
 31
0.0
  0
LINE
  8
0
 10
815.218611
 20
-1831.132511
 30
0.0
 11
813.890183
 21
-1829.804084
 31
0.0
  0
LINE
  8
0
 10
814.304397
 20
-1827.804084
 30
0.0
 11
763.218611
 21
-1827.804084
 31
0.0
  0
LINE
  8
0
 10
763.218611
 20
-1833.804084
 30
0.0
 11
794.061756
 21
-1833.804084
 31
0.0
  0
LINE
  8
0
 10
796.183077
 20
-1834.682764
 30
0.0
 11
798.511504
 21
-1837.011191
 31
0.0
  0
LINE
  8
0
 10
800.218611
 20
-1836.304084
 30
0.0
 11
800.218611
 21
-1834.304084
 31
0.0
  0
LINE
  8
0
 10
762.218611
 20
-1832.804084
 30
0.0
 11
762.218611
 21
-1828.804084
 31
0.0
  0
LINE
  8
0
 10
800.718611
 20
-1833.804084
 30
0.0
 11
805.945521
 21
-1833.804084
 31
0.0
  0
LINE
  8
0
 10
816.925717
 20
-1830.011191
 30
0.0
 11
815.011504
 21
-1828.096977
 31
0.0
  0
LINE
  8
0
 10
813.132824
 20
-1833.804084
 30
0.0
 11
816.218611
 21
-1833.804084
 31
0.0
  0
LINE
  8
0
 10
817.218611
 20
-1832.804084
 30
0.0
 11
817.218611
 21
-1830.718298
 31
0.0
  0
LINE
  8
0
 10
807.359735
 20
-1834.389871
 30
0.0
 11
815.636388
 21
-1842.667798
 31
0.0
  0
LINE
  8
0
 10
812.425717
 20
-1835.511191
 30
0.0
 11
818.839931
 21
-1841.925405
 31
0.0
  0
LINE
  8
0
 10
819.718611
 20
-1844.046725
 30
0.0
 11
819.718611
 21
-1884.804084
 31
0.0
  0
LINE
  8
0
 10
816.218611
 20
-1882.304084
 30
0.0
 11
816.222174
 21
-1844.082011
 31
0.0
  0
ARC
  8
0
 10
540.218611
 20
-1836.304084
 30
0.0
 40
1.0
 50
180.0
 51
315.0
  0
ARC
  8
0
 10
540.218611
 20
-1830.804084
 30
0.0
 40
1.0
 50
0.0
 51
180.0
  0
ARC
  8
0
 10
799.218611
 20
-1836.304084
 30
0.0
 40
1.0
 50
225.0
 51
0.0
  0
ARC
  8
0
 10
799.218611
 20
-1830.804084
 30
0.0
 40
1.0
 50
0.0
 51
180.0
  0
ARC
  8
0
 10
522.718611
 20
-1844.046725
 30
0.0
 40
3.0
 50
135.0
 51
180.0
  0
ARC
  8
0
 10
525.218611
 20
-1882.304084
 30
0.0
 40
2.0
 50
180.0
 51
270.0
  0
ARC
  8
0
 10
522.718611
 20
-1884.804084
 30
0.0
 40
3.0
 50
180.0
 51
270.0
  0
ARC
  8
0
 10
525.215047
 20
-1844.082011
 30
0.0
 40
2.0
 50
135.0
 51
180.0
  0
ARC
  8
0
 10
545.375465
 20
-1836.804084
 30
0.0
 40
3.0
 50
90.0
 51
135.0
  0
ARC
  8
0
 10
538.718611
 20
-1834.304084
 30
0.0
 40
0.5
 50
0.0
 51
90.0
  0
ARC
  8
0
 10
533.4917
 20
-1835.804084
 30
0.0
 40
2.0
 50
90.0
 51
135.0
  0
ARC
  8
0
 10
523.218611
 20
-1830.718298
 30
0.0
 40
1.0
 50
135.0
 51
180.0
  0
ARC
  8
0
 10
525.132824
 20
-1828.804084
 30
0.0
 40
1.0
 50
90.0
 51
135.0
  0
ARC
  8
0
 10
543.511504
 20
-1832.304084
 30
0.0
 40
0.5
 50
90.0
 51
135.0
  0
ARC
  8
0
 10
576.218611
 20
-1832.804084
 30
0.0
 40
1.0
 50
270.0
 51
0.0
  0
ARC
  8
0
 10
576.218611
 20
-1828.804084
 30
0.0
 40
1.0
 50
0.0
 51
90.0
  0
ARC
  8
0
 10
523.218611
 20
-1832.804084
 30
0.0
 40
1.0
 50
180.0
 51
270.0
  0
ARC
  8
0
 10
526.304397
 20
-1834.804084
 30
0.0
 40
1.0
 50
315.0
 51
90.0
  0
ARC
  8
0
 10
816.718611
 20
-1844.046725
 30
0.0
 40
3.0
 50
0.0
 51
45.0
  0
ARC
  8
0
 10
814.222174
 20
-1844.082011
 30
0.0
 40
2.0
 50
0.0
 51
45.0
  0
ARC
  8
0
 10
794.061756
 20
-1836.804084
 30
0.0
 40
3.0
 50
45.0
 51
90.0
  0
ARC
  8
0
 10
800.718611
 20
-1834.304084
 30
0.0
 40
0.5
 50
90.0
 51
180.0
  0
ARC
  8
0
 10
805.945521
 20
-1835.804084
 30
0.0
 40
2.0
 50
45.0
 51
90.0
  0
ARC
  8
0
 10
816.218611
 20
-1830.718298
 30
0.0
 40
1.0
 50
0.0
 51
45.0
  0
ARC
  8
0
 10
814.304397
 20
-1828.804084
 30
0.0
 40
1.0
 50
45.0
 51
90.0
  0
ARC
  8
0
 10
795.925717
 20
-1832.304084
 30
0.0
 40
0.5
 50
45.0
 51
90.0
  0
ARC
  8
0
 10
763.218611
 20
-1832.804084
 30
0.0
 40
1.0
 50
180.0
 51
270.0
  0
ARC
  8
0
 10
763.218611
 20
-1828.804084
 30
0.0
 40
1.0
 50
90.0
 51
180.0
  0
ARC
  8
0
 10
816.218611
 20
-1832.804084
 30
0.0
 40
1.0
 50
270.0
 51
0.0
  0
ARC
  8
0
 10
813.132824
 20
-1834.804084
 30
0.0
 40
1.0
 50
90.0
 51
225.0
  0
ARC
  8
0
 10
814.218611
 20
-1882.304084
 30
0.0
 40
2.0
 50
270.0
 51
0.0
  0
ARC
  8
0
 10
816.718611
 20
-1884.804084
 30
0.0
 40
3.0
 50
270.0
 51
0.0
  0
LINE
  8
0
 10
819.718611
 20
-1826.304084
 30
0.0
 11
819.718611
 21
-1837.804084
 31
0.0
  0
LINE
  8
0
 10
522.05685
 20
-1823.804084
 30
0.0
 11
817.218611
 21
-1823.804084
 31
0.0
  0
LINE
  8
0
 10
815.718611
 20
-1826.304084
 30
0.0
 11
523.55685
 21
-1826.304084
 31
0.0
  0
LINE
  8
0
 10
816.304397
 20
-1839.218298
 30
0.0
 11
812.493737
 21
-1835.407638
 31
0.0
  0
LINE
  8
0
 10
813.15795
 20
-1833.804084
 30
0.0
 11
816.618611
 21
-1833.804084
 31
0.0
  0
LINE
  8
0
 10
817.042875
 20
-1834.828348
 30
0.0
 11
815.892875
 21
-1835.978348
 31
0.0
  0
LINE
  8
0
 10
815.892875
 20
-1835.978348
 30
0.0
 11
817.218611
 21
-1837.304084
 31
0.0
  0
LINE
  8
0
 10
817.218611
 20
-1837.304084
 30
0.0
 11
817.218611
 21
-1827.804084
 31
0.0
  0
LINE
  8
0
 10
526.781724
 20
-1835.407638
 30
0.0
 11
522.971064
 21
-1839.218298
 31
0.0
  0
LINE
  8
0
 10
522.65685
 20
-1833.804084
 30
0.0
 11
526.11751
 21
-1833.804084
 31
0.0
  0
LINE
  8
0
 10
523.382586
 20
-1835.978348
 30
0.0
 11
522.232586
 21
-1834.828348
 31
0.0
  0
LINE
  8
0
 10
522.05685
 20
-1837.304084
 30
0.0
 11
523.382586
 21
-1835.978348
 31
0.0
  0
LINE
  8
0
 10
522.05685
 20
-1827.804084
 30
0.0
 11
522.05685
 21
-1837.304084
 31
0.0
  0
LINE
  8
0
 10
519.55685
 20
-1837.804084
 30
0.0
 11
519.55685
 21
-1826.304084
 31
0.0
  0
ARC
  8
0
 10
813.15795
 20
-1834.743424
 30
0.0
 40
0.93934
 50
180.866301
 51
225.0
  0
ARC
  8
0
 10
816.618611
 20
-1834.404084
 30
0.0
 40
0.6
 50
315.0
 51
90.0
  0
ARC
  8
0
 10
817.718611
 20
-1837.804084
 30
0.0
 40
2.0
 50
225.0
 51
0.0
  0
ARC
  8
0
 10
526.11751
 20
-1834.743424
 30
0.0
 40
0.93934
 50
359.820102
 51
90.0
  0
ARC
  8
0
 10
522.65685
 20
-1834.404084
 30
0.0
 40
0.6
 50
90.0
 51
225.0
  0
ARC
  8
0
 10
521.55685
 20
-1837.804084
 30
0.0
 40
2.0
 50
180.0
 51
315.0
  0
ARC
  8
0
 10
526.11751
 20
-1834.743424
 30
0.0
 40
0.93934
 50
315.0
 51
359.820102
  0
ARC
  8
0
 10
813.15795
 20
-1834.743424
 30
0.0
 40
0.93934
 50
90.0
 51
180.866301
  0
ARC
  8
0
 10
817.218611
 20
-1826.304084
 30
0.0
 40
2.5
 50
0.0
 51
90.0
  0
ARC
  8
0
 10
522.05685
 20
-1826.304084
 30
0.0
 40
2.5
 50
90.0
 51
180.0
  0
ARC
  8
0
 10
815.718611
 20
-1827.804084
 30
0.0
 40
1.5
 50
0.0
 51
90.0
  0
ARC
  8
0
 10
523.55685
 20
-1827.804084
 30
0.0
 40
1.5
 50
90.0
 51
180.0
  0
LINE
  8
0
 10
489.718611
 20
-1801.30736
 30
0.0
 11
497.241836
 21
-1793.784135
 31
0.0
  0
LINE
  8
0
 10
489.718611
 20
-1815.449496
 30
0.0
 11
511.383972
 21
-1793.784135
 31
0.0
  0
LINE
  8
0
 10
489.718611
 20
-1829.591632
 30
0.0
 11
525.526108
 21
-1793.784135
 31
0.0
  0
LINE
  8
0
 10
489.718611
 20
-1843.733767
 30
0.0
 11
539.668243
 21
-1793.784135
 31
0.0
  0
LINE
  8
0
 10
523.810379
 20
-1823.784135
 30
0.0
 11
553.810379
 21
-1793.784135
 31
0.0
  0
LINE
  8
0
 10
489.718611
 20
-1857.875903
 30
0.0
 11
519.718611
 21
-1827.875903
 31
0.0
  0
LINE
  8
0
 10
537.952515
 20
-1823.784135
 30
0.0
 11
567.952515
 21
-1793.784135
 31
0.0
  0
LINE
  8
0
 10
489.718611
 20
-1872.018039
 30
0.0
 11
519.718611
 21
-1842.018039
 31
0.0
  0
LINE
  8
0
 10
552.09465
 20
-1823.784135
 30
0.0
 11
582.09465
 21
-1793.784135
 31
0.0
  0
LINE
  8
0
 10
489.718611
 20
-1886.160174
 30
0.0
 11
519.718611
 21
-1856.160174
 31
0.0
  0
LINE
  8
0
 10
566.236786
 20
-1823.784135
 30
0.0
 11
596.236786
 21
-1793.784135
 31
0.0
  0
LINE
  8
0
 10
489.718611
 20
-1900.30231
 30
0.0
 11
519.718611
 21
-1870.30231
 31
0.0
  0
LINE
  8
0
 10
580.378921
 20
-1823.784135
 30
0.0
 11
610.378921
 21
-1793.784135
 31
0.0
  0
LINE
  8
0
 10
489.718611
 20
-1914.444445
 30
0.0
 11
519.718611
 21
-1884.444445
 31
0.0
  0
LINE
  8
0
 10
594.521057
 20
-1823.784135
 30
0.0
 11
624.521057
 21
-1793.784135
 31
0.0
  0
LINE
  8
0
 10
500.521057
 20
-1917.784135
 30
0.0
 11
530.521057
 21
-1887.784135
 31
0.0
  0
LINE
  8
0
 10
608.663193
 20
-1823.784135
 30
0.0
 11
638.663193
 21
-1793.784135
 31
0.0
  0
LINE
  8
0
 10
514.663193
 20
-1917.784135
 30
0.0
 11
544.663193
 21
-1887.784135
 31
0.0
  0
LINE
  8
0
 10
622.805328
 20
-1823.784135
 30
0.0
 11
652.805328
 21
-1793.784135
 31
0.0
  0
LINE
  8
0
 10
528.805328
 20
-1917.784135
 30
0.0
 11
558.805328
 21
-1887.784135
 31
0.0
  0
LINE
  8
0
 10
636.947464
 20
-1823.784135
 30
0.0
 11
666.947464
 21
-1793.784135
 31
0.0
  0
LINE
  8
0
 10
542.947464
 20
-1917.784135
 30
0.0
 11
572.947464
 21
-1887.784135
 31
0.0
  0
LINE
  8
0
 10
651.0896
 20
-1823.784135
 30
0.0
 11
681.0896
 21
-1793.784135
 31
0.0
  0
LINE
  8
0
 10
557.0896
 20
-1917.784135
 30
0.0
 11
587.0896
 21
-1887.784135
 31
0.0
  0
LINE
  8
0
 10
665.231735
 20
-1823.784135
 30
0.0
 11
695.231735
 21
-1793.784135
 31
0.0
  0
LINE
  8
0
 10
571.231735
 20
-1917.784135
 30
0.0
 11
601.231735
 21
-1887.784135
 31
0.0
  0
LINE
  8
0
 10
679.373871
 20
-1823.784135
 30
0.0
 11
709.373871
 21
-1793.784135
 31
0.0
  0
LINE
  8
0
 10
585.373871
 20
-1917.784135
 30
0.0
 11
615.373871
 21
-1887.784135
 31
0.0
  0
LINE
  8
0
 10
693.516006
 20
-1823.784135
 30
0.0
 11
723.516006
 21
-1793.784135
 31
0.0
  0
LINE
  8
0
 10
599.516006
 20
-1917.784135
 30
0.0
 11
629.516006
 21
-1887.784135
 31
0.0
  0
LINE
  8
0
 10
707.658142
 20
-1823.784135
 30
0.0
 11
737.658142
 21
-1793.784135
 31
0.0
  0
LINE
  8
0
 10
613.658142
 20
-1917.784135
 30
0.0
 11
643.658142
 21
-1887.784135
 31
0.0
  0
LINE
  8
0
 10
721.800278
 20
-1823.784135
 30
0.0
 11
751.800278
 21
-1793.784135
 31
0.0
  0
LINE
  8
0
 10
627.800278
 20
-1917.784135
 30
0.0
 11
657.800278
 21
-1887.784135
 31
0.0
  0
LINE
  8
0
 10
735.942413
 20
-1823.784135
 30
0.0
 11
765.942413
 21
-1793.784135
 31
0.0
  0
LINE
  8
0
 10
641.942413
 20
-1917.784135
 30
0.0
 11
671.942413
 21
-1887.784135
 31
0.0
  0
LINE
  8
0
 10
750.084549
 20
-1823.784135
 30
0.0
 11
780.084549
 21
-1793.784135
 31
0.0
  0
LINE
  8
0
 10
656.084549
 20
-1917.784135
 30
0.0
 11
686.084549
 21
-1887.784135
 31
0.0
  0
LINE
  8
0
 10
764.226685
 20
-1823.784135
 30
0.0
 11
794.226685
 21
-1793.784135
 31
0.0
  0
LINE
  8
0
 10
670.226685
 20
-1917.784135
 30
0.0
 11
700.226685
 21
-1887.784135
 31
0.0
  0
LINE
  8
0
 10
778.36882
 20
-1823.784135
 30
0.0
 11
808.36882
 21
-1793.784135
 31
0.0
  0
LINE
  8
0
 10
684.36882
 20
-1917.784135
 30
0.0
 11
714.36882
 21
-1887.784135
 31
0.0
  0
LINE
  8
0
 10
792.510956
 20
-1823.784135
 30
0.0
 11
822.510956
 21
-1793.784135
 31
0.0
  0
LINE
  8
0
 10
698.510956
 20
-1917.784135
 30
0.0
 11
728.510956
 21
-1887.784135
 31
0.0
  0
LINE
  8
0
 10
806.653091
 20
-1823.784135
 30
0.0
 11
836.653091
 21
-1793.784135
 31
0.0
  0
LINE
  8
0
 10
712.653091
 20
-1917.784135
 30
0.0
 11
742.653091
 21
-1887.784135
 31
0.0
  0
LINE
  8
0
 10
819.718611
 20
-1824.860751
 30
0.0
 11
849.718611
 21
-1794.860751
 31
0.0
  0
LINE
  8
0
 10
726.795227
 20
-1917.784135
 30
0.0
 11
756.795227
 21
-1887.784135
 31
0.0
  0
LINE
  8
0
 10
819.718611
 20
-1839.002887
 30
0.0
 11
849.718611
 21
-1809.002887
 31
0.0
  0
LINE
  8
0
 10
740.937363
 20
-1917.784135
 30
0.0
 11
770.937363
 21
-1887.784135
 31
0.0
  0
LINE
  8
0
 10
819.718611
 20
-1853.145022
 30
0.0
 11
849.718611
 21
-1823.145022
 31
0.0
  0
LINE
  8
0
 10
755.079498
 20
-1917.784135
 30
0.0
 11
785.079498
 21
-1887.784135
 31
0.0
  0
LINE
  8
0
 10
819.718611
 20
-1867.287158
 30
0.0
 11
849.718611
 21
-1837.287158
 31
0.0
  0
LINE
  8
0
 10
769.221634
 20
-1917.784135
 30
0.0
 11
799.221634
 21
-1887.784135
 31
0.0
  0
LINE
  8
0
 10
819.718611
 20
-1881.429294
 30
0.0
 11
849.718611
 21
-1851.429294
 31
0.0
  0
LINE
  8
0
 10
783.36377
 20
-1917.784135
 30
0.0
 11
813.36377
 21
-1887.784135
 31
0.0
  0
LINE
  8
0
 10
827.505905
 20
-1887.784135
 30
0.0
 11
849.718611
 21
-1865.571429
 31
0.0
  0
LINE
  8
0
 10
797.505905
 20
-1917.784135
 30
0.0
 11
827.505905
 21
-1887.784135
 31
0.0
  0
LINE
  8
0
 10
841.648041
 20
-1887.784135
 30
0.0
 11
849.718611
 21
-1879.713565
 31
0.0
  0
LINE
  8
0
 10
811.648041
 20
-1917.784135
 30
0.0
 11
841.648041
 21
-1887.784135
 31
0.0
  0
LINE
  8
0
 10
825.790176
 20
-1917.784135
 30
0.0
 11
849.718611
 21
-1893.8557
 31
0.0
  0
LINE
  8
0
 10
839.932312
 20
-1917.784135
 30
0.0
 11
849.718611
 21
-1907.997836
 31
0.0
  0
LINE
  8
0
 10
645.416707
 20
-1884.304084
 30
0.0
 11
620.416707
 21
-1884.304084
 31
0.0
  0
LINE
  8
0
 10
612.416707
 20
-1876.304084
 30
0.0
 11
612.416707
 21
-1845.789366
 31
0.0
  0
LINE
  8
0
 10
614.174066
 20
-1841.546725
 30
0.0
 11
621.33092
 21
-1834.389871
 31
0.0
  0
LINE
  8
0
 10
622.745134
 20
-1833.804084
 30
0.0
 11
627.416707
 21
-1833.804084
 31
0.0
  0
LINE
  8
0
 10
628.416707
 20
-1834.804084
 30
0.0
 11
628.416707
 21
-1837.804084
 31
0.0
  0
LINE
  8
0
 10
624.416707
 20
-1837.804084
 30
0.0
 11
623.573561
 21
-1837.804084
 31
0.0
  0
LINE
  8
0
 10
623.573561
 20
-1837.804084
 30
0.0
 11
617.002493
 21
-1844.375152
 31
0.0
  0
LINE
  8
0
 10
616.416707
 20
-1845.789366
 30
0.0
 11
616.416707
 21
-1876.304084
 31
0.0
  0
LINE
  8
0
 10
620.416707
 20
-1880.304084
 30
0.0
 11
645.416707
 21
-1880.304084
 31
0.0
  0
ARC
  8
0
 10
645.416707
 20
-1882.304084
 30
0.0
 40
2.0
 50
270.0
 51
0.0
  0
ARC
  8
0
 10
645.416707
 20
-1882.304084
 30
0.0
 40
2.0
 50
0.0
 51
90.0
  0
ARC
  8
0
 10
626.416707
 20
-1837.804084
 30
0.0
 40
2.0
 50
180.0
 51
0.0
  0
ARC
  8
0
 10
622.745134
 20
-1835.804084
 30
0.0
 40
2.0
 50
90.0
 51
135.0
  0
ARC
  8
0
 10
627.416707
 20
-1834.804084
 30
0.0
 40
1.0
 50
0.0
 51
90.0
  0
ARC
  8
0
 10
618.416707
 20
-1845.789366
 30
0.0
 40
6.0
 50
135.0
 51
180.0
  0
ARC
  8
0
 10
620.416707
 20
-1876.304084
 30
0.0
 40
8.0
 50
180.0
 51
270.0
  0
ARC
  8
0
 10
620.416707
 20
-1876.304084
 30
0.0
 40
4.0
 50
180.0
 51
270.0
  0
ARC
  8
0
 10
618.416707
 20
-1845.789366
 30
0.0
 40
2.0
 50
135.0
 51
180.0
  0
LINE
  8
0
 10
707.616949
 20
-1880.304084
 30
0.0
 11
732.616949
 21
-1880.304084
 31
0.0
  0
LINE
  8
0
 10
703.616949
 20
-1845.789366
 30
0.0
 11
703.616949
 21
-1876.304084
 31
0.0
  0
LINE
  8
0
 10
710.773804
 20
-1837.804084
 30
0.0
 11
704.202736
 21
-1844.375152
 31
0.0
  0
LINE
  8
0
 10
711.616949
 20
-1837.804084
 30
0.0
 11
710.773804
 21
-1837.804084
 31
0.0
  0
LINE
  8
0
 10
715.616949
 20
-1834.804084
 30
0.0
 11
715.616949
 21
-1837.804084
 31
0.0
  0
LINE
  8
0
 10
709.945376
 20
-1833.804084
 30
0.0
 11
714.616949
 21
-1833.804084
 31
0.0
  0
LINE
  8
0
 10
701.374309
 20
-1841.546725
 30
0.0
 11
708.531163
 21
-1834.389871
 31
0.0
  0
LINE
  8
0
 10
699.616949
 20
-1876.304084
 30
0.0
 11
699.616949
 21
-1845.789366
 31
0.0
  0
LINE
  8
0
 10
732.616949
 20
-1884.304084
 30
0.0
 11
707.616949
 21
-1884.304084
 31
0.0
  0
ARC
  8
0
 10
705.616949
 20
-1845.789366
 30
0.0
 40
2.0
 50
135.0
 51
180.0
  0
ARC
  8
0
 10
707.616949
 20
-1876.304084
 30
0.0
 40
4.0
 50
180.0
 51
270.0
  0
ARC
  8
0
 10
707.616949
 20
-1876.304084
 30
0.0
 40
8.0
 50
180.0
 51
270.0
  0
ARC
  8
0
 10
705.616949
 20
-1845.789366
 30
0.0
 40
6.0
 50
135.0
 51
180.0
  0
ARC
  8
0
 10
714.616949
 20
-1834.804084
 30
0.0
 40
1.0
 50
0.0
 51
90.0
  0
ARC
  8
0
 10
709.945376
 20
-1835.804084
 30
0.0
 40
2.0
 50
90.0
 51
135.0
  0
ARC
  8
0
 10
713.616949
 20
-1837.804084
 30
0.0
 40
2.0
 50
180.0
 51
0.0
  0
ARC
  8
0
 10
732.616949
 20
-1882.304084
 30
0.0
 40
2.0
 50
0.0
 51
90.0
  0
ARC
  8
0
 10
732.616949
 20
-1882.304084
 30
0.0
 40
2.0
 50
270.0
 51
0.0
  0
ENDSEC
  0
EOF
