  0
SECTION
  2
HEADER
  9
$ACADVER
  1
AC1009
  9
$INSBASE
 10
0.0
 20
0.0
 30
0.0
  9
$EXTMIN
 10
-203.312339
 20
-1917.784135
 30
0.0
  9
$EXTMAX
 10
156.687661
 20
-1793.784135
 30
0.0
  9
$LIMMIN
 10
-203.312339
 20
-1917.784135
  9
$LIMMAX
 10
156.687661
 20
-1793.784135
  9
$ORTHOMODE
 70
     0
  9
$REGENMODE
 70
     1
  9
$FILLMODE
 70
     1
  9
$QTEXTMODE
 70
     0
  9
$MIRRTEXT
 70
     1
  9
$DRAGMODE
 70
     2
  9
$LTSCALE
 40
1.0
  9
$OSMODE
 70
     0
  9
$ATTMODE
 70
     1
  9
$TEXTSIZE
 40
3.5
  9
$TRACEWID
 40
0.5
  9
$TEXTSTYLE
  7
STANDARD
  9
$CLAYER
  8
0
  9
$CELTYPE
  6
BYLAYER
  9
$CECOLOR
 62
   256
  9
$DIMSCALE
 40
1.0
  9
$DIMASZ
 40
0.18
  9
$DIMEXO
 40
0.0625
  9
$DIMDLI
 40
0.38
  9
$DIMRND
 40
0.0
  9
$DIMDLE
 40
0.0
  9
$DIMEXE
 40
0.18
  9
$DIMTP
 40
0.0
  9
$DIMTM
 40
0.0
  9
$DIMTXT
 40
0.18
  9
$DIMCEN
 40
0.09
  9
$DIMTSZ
 40
0.0
  9
$DIMTOL
 70
     0
  9
$DIMLIM
 70
     0
  9
$DIMTIH
 70
     1
  9
$DIMTOH
 70
     1
  9
$DIMSE1
 70
     0
  9
$DIMSE2
 70
     0
  9
$DIMTAD
 70
     0
  9
$DIMZIN
 70
     0
  9
$DIMBLK
  1

  9
$DIMASO
 70
     1
  9
$DIMSHO
 70
     1
  9
$DIMPOST
  1

  9
$DIMAPOST
  1

  9
$DIMALT
 70
     0
  9
$DIMALTD
 70
     2
  9
$DIMALTF
 40
25.4
  9
$DIMLFAC
 40
1.0
  9
$DIMTOFL
 70
     0
  9
$DIMTVP
 40
0.0
  9
$DIMTIX
 70
     0
  9
$DIMSOXD
 70
     0
  9
$DIMSAH
 70
     0
  9
$DIMBLK1
  1

  9
$DIMBLK2
  1

  9
$DIMSTYLE
  2
*UNNAMED
  9
$DIMCLRD
 70
     0
  9
$DIMCLRE
 70
     0
  9
$DIMCLRT
 70
     0
  9
$DIMTFAC
 40
1.0
  9
$DIMGAP
 40
0.09
  9
$LUNITS
 70
     2
  9
$LUPREC
 70
     4
  9
$SKETCHINC
 40
0.1
  9
$FILLETRAD
 40
2.0
  9
$AUNITS
 70
     0
  9
$AUPREC
 70
     0
  9
$MENU
  1
ACAD
  9
$ELEVATION
 40
0.0
  9
$PELEVATION
 40
0.0
  9
$THICKNESS
 40
0.0
  9
$LIMCHECK
 70
     0
  9
$BLIPMODE
 70
     1
  9
$CHAMFERA
 40
0.0
  9
$CHAMFERB
 40
0.0
  9
$SKPOLY
 70
     0
  9
$TDCREATE
 40
2450948.544000694
  9
$TDUPDATE
 40
2450948.544400579
  9
$TDINDWG
 40
0.0002422454
  9
$TDUSRTIMER
 40
0.0002422454
  9
$USRTIMER
 70
     1
  9
$ANGBASE
 50
0.0
  9
$ANGDIR
 70
     0
  9
$PDMODE
 70
     0
  9
$PDSIZE
 40
0.0
  9
$PLINEWID
 40
0.0
  9
$COORDS
 70
     2
  9
$SPLFRAME
 70
     0
  9
$SPLINETYPE
 70
     6
  9
$SPLINESEGS
 70
     8
  9
$ATTDIA
 70
     0
  9
$ATTREQ
 70
     1
  9
$HANDLING
 70
     0
  9
$HANDSEED
  5
0
  9
$SURFTAB1
 70
     6
  9
$SURFTAB2
 70
     6
  9
$SURFTYPE
 70
     6
  9
$SURFU
 70
     6
  9
$SURFV
 70
     6
  9
$UCSNAME
  2

  9
$UCSORG
 10
0.0
 20
0.0
 30
0.0
  9
$UCSXDIR
 10
1.0
 20
0.0
 30
0.0
  9
$UCSYDIR
 10
0.0
 20
1.0
 30
0.0
  9
$PUCSNAME
  2

  9
$PUCSORG
 10
0.0
 20
0.0
 30
0.0
  9
$PUCSXDIR
 10
1.0
 20
0.0
 30
0.0
  9
$PUCSYDIR
 10
0.0
 20
1.0
 30
0.0
  9
$USERI1
 70
     0
  9
$USERI2
 70
     0
  9
$USERI3
 70
     0
  9
$USERI4
 70
     0
  9
$USERI5
 70
     0
  9
$USERR1
 40
0.0
  9
$USERR2
 40
0.0
  9
$USERR3
 40
0.0
  9
$USERR4
 40
0.0
  9
$USERR5
 40
0.0
  9
$WORLDVIEW
 70
     1
  9
$SHADEDGE
 70
     3
  9
$SHADEDIF
 70
    70
  9
$TILEMODE
 70
     1
  9
$MAXACTVP
 70
    16
  9
$PINSBASE
 10
0.0
 20
0.0
 30
0.0
  9
$PLIMCHECK
 70
     0
  9
$PEXTMIN
 10
1.000000E+20
 20
1.000000E+20
 30
1.000000E+20
  9
$PEXTMAX
 10
-1.000000E+20
 20
-1.000000E+20
 30
-1.000000E+20
  9
$PLIMMIN
 10
0.0
 20
0.0
  9
$PLIMMAX
 10
420.0
 20
297.0
  9
$UNITMODE
 70
     0
  9
$VISRETAIN
 70
     0
  9
$PLINEGEN
 70
     0
  9
$PSLTSCALE
 70
     1
  9
$TREEDEPTH
 70
  3020
  9
$DWGCODEPAGE
  3
iso8859-1
  0
ENDSEC
  0
SECTION
  2
TABLES
  0
TABLE
  2
VPORT
 70
     2
  0
VPORT
  2
*ACTIVE
 70
     0
 10
0.0
 20
0.0
 11
1.0
 21
1.0
 12
-24.173209
 22
-1847.145005
 13
0.0
 23
0.0
 14
1.0
 24
1.0
 15
0.0
 25
0.0
 16
0.0
 26
0.0
 36
1.0
 17
0.0
 27
0.0
 37
0.0
 40
266.873874
 41
1.748359
 42
50.0
 43
0.0
 44
0.0
 50
0.0
 51
0.0
 71
     0
 72
   100
 73
     1
 74
     0
 75
     0
 76
     0
 77
     0
 78
     0
  0
ENDTAB
  0
TABLE
  2
LTYPE
 70
     1
  0
LTYPE
  2
CONTINUOUS
 70
    64
  3
Solid line
 72
    65
 73
     0
 40
0.0
  0
ENDTAB
  0
TABLE
  2
LAYER
 70
     1
  0
LAYER
  2
0
 70
    64
 62
     7
  6
CONTINUOUS
  0
ENDTAB
  0
TABLE
  2
STYLE
 70
     1
  0
STYLE
  2
STANDARD
 70
     0
 40
0.0
 41
1.0
 50
0.0
 71
     0
 42
3.5
  3
txt
  4

  0
ENDTAB
  0
TABLE
  2
VIEW
 70
     0
  0
ENDTAB
  0
TABLE
  2
UCS
 70
     0
  0
ENDTAB
  0
TABLE
  2
APPID
 70
     1
  0
APPID
  2
ACAD
 70
    64
  0
ENDTAB
  0
TABLE
  2
DIMSTYLE
 70
     0
  0
ENDTAB
  0
ENDSEC
  0
SECTION
  2
BLOCKS
  0
ENDSEC
  0
SECTION
  2
ENTITIES
  0
LINE
  8
0
 10
-170.312339
 20
-1887.804084
 30
0.0
 11
123.687661
 21
-1887.804084
 31
0.0
  0
LINE
  8
0
 10
-167.812339
 20
-1884.304084
 30
0.0
 11
121.187661
 21
-1884.304084
 31
0.0
  0
LINE
  8
0
 10
-151.812339
 20
-1833.889871
 30
0.0
 11
-151.812339
 21
-1830.804084
 31
0.0
  0
LINE
  8
0
 10
-151.812339
 20
-1833.889871
 30
0.0
 11
-149.872999
 21
-1831.950531
 31
0.0
  0
LINE
  8
0
 10
-149.519446
 20
-1831.804084
 30
0.0
 11
-117.812339
 21
-1831.804084
 31
0.0
  0
LINE
  8
0
 10
-153.812339
 20
-1831.804084
 30
0.0
 11
-153.812339
 21
-1830.804084
 31
0.0
  0
LINE
  8
0
 10
-117.812339
 20
-1831.804084
 30
0.0
 11
-117.812339
 21
-1829.804084
 31
0.0
  0
LINE
  8
0
 10
-167.483912
 20
-1829.804084
 30
0.0
 11
-117.812339
 21
-1829.804084
 31
0.0
  0
LINE
  8
0
 10
-168.812339
 20
-1831.804084
 30
0.0
 11
-153.812339
 21
-1831.804084
 31
0.0
  0
LINE
  8
0
 10
-168.812339
 20
-1831.132511
 30
0.0
 11
-168.812339
 21
-1831.804084
 31
0.0
  0
LINE
  8
0
 10
-167.483912
 20
-1829.804084
 30
0.0
 11
-168.812339
 21
-1831.132511
 31
0.0
  0
LINE
  8
0
 10
-116.812339
 20
-1827.804084
 30
0.0
 11
-167.898125
 21
-1827.804084
 31
0.0
  0
LINE
  8
0
 10
-147.655485
 20
-1833.804084
 30
0.0
 11
-116.812339
 21
-1833.804084
 31
0.0
  0
LINE
  8
0
 10
-152.105232
 20
-1837.011191
 30
0.0
 11
-149.776805
 21
-1834.682764
 31
0.0
  0
LINE
  8
0
 10
-153.812339
 20
-1834.304084
 30
0.0
 11
-153.812339
 21
-1836.304084
 31
0.0
  0
LINE
  8
0
 10
-115.812339
 20
-1828.804084
 30
0.0
 11
-115.812339
 21
-1832.804084
 31
0.0
  0
LINE
  8
0
 10
-159.539249
 20
-1833.804084
 30
0.0
 11
-154.312339
 21
-1833.804084
 31
0.0
  0
LINE
  8
0
 10
-168.605232
 20
-1828.096977
 30
0.0
 11
-170.519446
 21
-1830.011191
 31
0.0
  0
LINE
  8
0
 10
-169.812339
 20
-1833.804084
 30
0.0
 11
-166.726552
 21
-1833.804084
 31
0.0
  0
LINE
  8
0
 10
-170.812339
 20
-1830.718298
 30
0.0
 11
-170.812339
 21
-1832.804084
 31
0.0
  0
LINE
  8
0
 10
-169.815902
 20
-1844.082011
 30
0.0
 11
-169.812339
 21
-1882.304084
 31
0.0
  0
LINE
  8
0
 10
-169.230116
 20
-1842.667798
 30
0.0
 11
-160.953463
 21
-1834.389871
 31
0.0
  0
LINE
  8
0
 10
-172.433659
 20
-1841.925405
 30
0.0
 11
-166.019446
 21
-1835.511191
 31
0.0
  0
LINE
  8
0
 10
-173.312339
 20
-1884.804084
 30
0.0
 11
-173.312339
 21
-1844.046725
 31
0.0
  0
LINE
  8
0
 10
105.187661
 20
-1830.804084
 30
0.0
 11
105.187661
 21
-1833.889871
 31
0.0
  0
LINE
  8
0
 10
103.248321
 20
-1831.950531
 30
0.0
 11
105.187661
 21
-1833.889871
 31
0.0
  0
LINE
  8
0
 10
71.187661
 20
-1831.804084
 30
0.0
 11
102.894768
 21
-1831.804084
 31
0.0
  0
LINE
  8
0
 10
107.187661
 20
-1830.804084
 30
0.0
 11
107.187661
 21
-1831.804084
 31
0.0
  0
LINE
  8
0
 10
71.187661
 20
-1829.804084
 30
0.0
 11
71.187661
 21
-1831.804084
 31
0.0
  0
LINE
  8
0
 10
71.187661
 20
-1829.804084
 30
0.0
 11
120.859234
 21
-1829.804084
 31
0.0
  0
LINE
  8
0
 10
107.187661
 20
-1831.804084
 30
0.0
 11
122.187661
 21
-1831.804084
 31
0.0
  0
LINE
  8
0
 10
122.187661
 20
-1831.804084
 30
0.0
 11
122.187661
 21
-1831.132511
 31
0.0
  0
LINE
  8
0
 10
122.187661
 20
-1831.132511
 30
0.0
 11
120.859234
 21
-1829.804084
 31
0.0
  0
LINE
  8
0
 10
121.273448
 20
-1827.804084
 30
0.0
 11
70.187661
 21
-1827.804084
 31
0.0
  0
LINE
  8
0
 10
70.187661
 20
-1833.804084
 30
0.0
 11
101.030807
 21
-1833.804084
 31
0.0
  0
LINE
  8
0
 10
103.152127
 20
-1834.682764
 30
0.0
 11
105.480554
 21
-1837.011191
 31
0.0
  0
LINE
  8
0
 10
107.187661
 20
-1836.304084
 30
0.0
 11
107.187661
 21
-1834.304084
 31
0.0
  0
LINE
  8
0
 10
69.187661
 20
-1832.804084
 30
0.0
 11
69.187661
 21
-1828.804084
 31
0.0
  0
LINE
  8
0
 10
107.687661
 20
-1833.804084
 30
0.0
 11
112.914572
 21
-1833.804084
 31
0.0
  0
LINE
  8
0
 10
123.894768
 20
-1830.011191
 30
0.0
 11
121.980554
 21
-1828.096977
 31
0.0
  0
LINE
  8
0
 10
120.101875
 20
-1833.804084
 30
0.0
 11
123.187661
 21
-1833.804084
 31
0.0
  0
LINE
  8
0
 10
124.187661
 20
-1832.804084
 30
0.0
 11
124.187661
 21
-1830.718298
 31
0.0
  0
LINE
  8
0
 10
114.328785
 20
-1834.389871
 30
0.0
 11
122.605438
 21
-1842.667798
 31
0.0
  0
LINE
  8
0
 10
119.394768
 20
-1835.511191
 30
0.0
 11
125.808982
 21
-1841.925405
 31
0.0
  0
LINE
  8
0
 10
126.687661
 20
-1844.046725
 30
0.0
 11
126.687661
 21
-1884.804084
 31
0.0
  0
LINE
  8
0
 10
123.187661
 20
-1882.304084
 30
0.0
 11
123.191225
 21
-1844.082011
 31
0.0
  0
ARC
  8
0
 10
-152.812339
 20
-1836.304084
 30
0.0
 40
1.0
 50
180.0
 51
315.0
  0
ARC
  8
0
 10
-152.812339
 20
-1830.804084
 30
0.0
 40
1.0
 50
0.0
 51
180.0
  0
ARC
  8
0
 10
106.187661
 20
-1836.304084
 30
0.0
 40
1.0
 50
225.0
 51
0.0
  0
ARC
  8
0
 10
106.187661
 20
-1830.804084
 30
0.0
 40
1.0
 50
0.0
 51
180.0
  0
ARC
  8
0
 10
-170.312339
 20
-1844.046725
 30
0.0
 40
3.0
 50
135.0
 51
180.0
  0
ARC
  8
0
 10
-167.812339
 20
-1882.304084
 30
0.0
 40
2.0
 50
180.0
 51
270.0
  0
ARC
  8
0
 10
-170.312339
 20
-1884.804084
 30
0.0
 40
3.0
 50
180.0
 51
270.0
  0
ARC
  8
0
 10
-167.815902
 20
-1844.082011
 30
0.0
 40
2.0
 50
135.0
 51
180.0
  0
ARC
  8
0
 10
-147.655485
 20
-1836.804084
 30
0.0
 40
3.0
 50
90.0
 51
135.0
  0
ARC
  8
0
 10
-154.312339
 20
-1834.304084
 30
0.0
 40
0.5
 50
0.0
 51
90.0
  0
ARC
  8
0
 10
-159.539249
 20
-1835.804084
 30
0.0
 40
2.0
 50
90.0
 51
135.0
  0
ARC
  8
0
 10
-169.812339
 20
-1830.718298
 30
0.0
 40
1.0
 50
135.0
 51
180.0
  0
ARC
  8
0
 10
-167.898125
 20
-1828.804084
 30
0.0
 40
1.0
 50
90.0
 51
135.0
  0
ARC
  8
0
 10
-149.519446
 20
-1832.304084
 30
0.0
 40
0.5
 50
90.0
 51
135.0
  0
ARC
  8
0
 10
-116.812339
 20
-1832.804084
 30
0.0
 40
1.0
 50
270.0
 51
0.0
  0
ARC
  8
0
 10
-116.812339
 20
-1828.804084
 30
0.0
 40
1.0
 50
0.0
 51
90.0
  0
ARC
  8
0
 10
-169.812339
 20
-1832.804084
 30
0.0
 40
1.0
 50
180.0
 51
270.0
  0
ARC
  8
0
 10
-166.726552
 20
-1834.804084
 30
0.0
 40
1.0
 50
315.0
 51
90.0
  0
ARC
  8
0
 10
123.687661
 20
-1844.046725
 30
0.0
 40
3.0
 50
0.0
 51
45.0
  0
ARC
  8
0
 10
121.191225
 20
-1844.082011
 30
0.0
 40
2.0
 50
0.0
 51
45.0
  0
ARC
  8
0
 10
101.030807
 20
-1836.804084
 30
0.0
 40
3.0
 50
45.0
 51
90.0
  0
ARC
  8
0
 10
107.687661
 20
-1834.304084
 30
0.0
 40
0.5
 50
90.0
 51
180.0
  0
ARC
  8
0
 10
112.914572
 20
-1835.804084
 30
0.0
 40
2.0
 50
45.0
 51
90.0
  0
ARC
  8
0
 10
123.187661
 20
-1830.718298
 30
0.0
 40
1.0
 50
0.0
 51
45.0
  0
ARC
  8
0
 10
121.273448
 20
-1828.804084
 30
0.0
 40
1.0
 50
45.0
 51
90.0
  0
ARC
  8
0
 10
102.894768
 20
-1832.304084
 30
0.0
 40
0.5
 50
45.0
 51
90.0
  0
ARC
  8
0
 10
70.187661
 20
-1832.804084
 30
0.0
 40
1.0
 50
180.0
 51
270.0
  0
ARC
  8
0
 10
70.187661
 20
-1828.804084
 30
0.0
 40
1.0
 50
90.0
 51
180.0
  0
ARC
  8
0
 10
123.187661
 20
-1832.804084
 30
0.0
 40
1.0
 50
270.0
 51
0.0
  0
ARC
  8
0
 10
120.101875
 20
-1834.804084
 30
0.0
 40
1.0
 50
90.0
 51
225.0
  0
ARC
  8
0
 10
121.187661
 20
-1882.304084
 30
0.0
 40
2.0
 50
270.0
 51
0.0
  0
ARC
  8
0
 10
123.687661
 20
-1884.804084
 30
0.0
 40
3.0
 50
270.0
 51
0.0
  0
LINE
  8
0
 10
-173.474099
 20
-1837.804084
 30
0.0
 11
-173.474099
 21
-1826.304084
 31
0.0
  0
LINE
  8
0
 10
-170.974099
 20
-1827.804084
 30
0.0
 11
-170.974099
 21
-1837.304084
 31
0.0
  0
LINE
  8
0
 10
-170.974099
 20
-1837.304084
 30
0.0
 11
-169.648363
 21
-1835.978348
 31
0.0
  0
LINE
  8
0
 10
-169.648363
 20
-1835.978348
 30
0.0
 11
-170.798363
 21
-1834.828348
 31
0.0
  0
LINE
  8
0
 10
-170.374099
 20
-1833.804084
 30
0.0
 11
-166.913439
 21
-1833.804084
 31
0.0
  0
LINE
  8
0
 10
-166.249225
 20
-1835.407638
 30
0.0
 11
-170.059886
 21
-1839.218298
 31
0.0
  0
LINE
  8
0
 10
124.187661
 20
-1837.304084
 30
0.0
 11
124.187661
 21
-1827.804084
 31
0.0
  0
LINE
  8
0
 10
122.861925
 20
-1835.978348
 30
0.0
 11
124.187661
 21
-1837.304084
 31
0.0
  0
LINE
  8
0
 10
124.011925
 20
-1834.828348
 30
0.0
 11
122.861925
 21
-1835.978348
 31
0.0
  0
LINE
  8
0
 10
120.127001
 20
-1833.804084
 30
0.0
 11
123.587661
 21
-1833.804084
 31
0.0
  0
LINE
  8
0
 10
123.273448
 20
-1839.218298
 30
0.0
 11
119.462787
 21
-1835.407638
 31
0.0
  0
LINE
  8
0
 10
122.687661
 20
-1826.304084
 30
0.0
 11
-169.474099
 21
-1826.304084
 31
0.0
  0
LINE
  8
0
 10
-170.974099
 20
-1823.804084
 30
0.0
 11
124.187661
 21
-1823.804084
 31
0.0
  0
LINE
  8
0
 10
126.687661
 20
-1826.304084
 30
0.0
 11
126.687661
 21
-1837.804084
 31
0.0
  0
ARC
  8
0
 10
120.127001
 20
-1834.743424
 30
0.0
 40
0.93934
 50
90.0
 51
180.866301
  0
ARC
  8
0
 10
-166.913439
 20
-1834.743424
 30
0.0
 40
0.93934
 50
315.0
 51
359.820102
  0
ARC
  8
0
 10
-171.474099
 20
-1837.804084
 30
0.0
 40
2.0
 50
180.0
 51
315.0
  0
ARC
  8
0
 10
-170.374099
 20
-1834.404084
 30
0.0
 40
0.6
 50
90.0
 51
225.0
  0
ARC
  8
0
 10
-166.913439
 20
-1834.743424
 30
0.0
 40
0.93934
 50
359.820102
 51
90.0
  0
ARC
  8
0
 10
124.687661
 20
-1837.804084
 30
0.0
 40
2.0
 50
225.0
 51
0.0
  0
ARC
  8
0
 10
123.587661
 20
-1834.404084
 30
0.0
 40
0.6
 50
315.0
 51
90.0
  0
ARC
  8
0
 10
120.127001
 20
-1834.743424
 30
0.0
 40
0.93934
 50
180.866301
 51
225.0
  0
ARC
  8
0
 10
-169.474099
 20
-1827.804084
 30
0.0
 40
1.5
 50
90.0
 51
180.0
  0
ARC
  8
0
 10
122.687661
 20
-1827.804084
 30
0.0
 40
1.5
 50
0.0
 51
90.0
  0
ARC
  8
0
 10
-170.974099
 20
-1826.304084
 30
0.0
 40
2.5
 50
90.0
 51
180.0
  0
ARC
  8
0
 10
124.187661
 20
-1826.304084
 30
0.0
 40
2.5
 50
0.0
 51
90.0
  0
LINE
  8
0
 10
-32.884841
 20
-1880.304084
 30
0.0
 11
-7.884841
 21
-1880.304084
 31
0.0
  0
LINE
  8
0
 10
-36.884841
 20
-1845.789366
 30
0.0
 11
-36.884841
 21
-1876.304084
 31
0.0
  0
LINE
  8
0
 10
-29.727987
 20
-1837.804084
 30
0.0
 11
-36.299055
 21
-1844.375152
 31
0.0
  0
LINE
  8
0
 10
-28.884841
 20
-1837.804084
 30
0.0
 11
-29.727987
 21
-1837.804084
 31
0.0
  0
LINE
  8
0
 10
-24.884841
 20
-1834.804084
 30
0.0
 11
-24.884841
 21
-1837.804084
 31
0.0
  0
LINE
  8
0
 10
-30.556414
 20
-1833.804084
 30
0.0
 11
-25.884841
 21
-1833.804084
 31
0.0
  0
LINE
  8
0
 10
-39.127482
 20
-1841.546725
 30
0.0
 11
-31.970628
 21
-1834.389871
 31
0.0
  0
LINE
  8
0
 10
-40.884841
 20
-1876.304084
 30
0.0
 11
-40.884841
 21
-1845.789366
 31
0.0
  0
LINE
  8
0
 10
-7.884841
 20
-1884.304084
 30
0.0
 11
-32.884841
 21
-1884.304084
 31
0.0
  0
ARC
  8
0
 10
-34.884841
 20
-1845.789366
 30
0.0
 40
2.0
 50
135.0
 51
180.0
  0
ARC
  8
0
 10
-32.884841
 20
-1876.304084
 30
0.0
 40
4.0
 50
180.0
 51
270.0
  0
ARC
  8
0
 10
-32.884841
 20
-1876.304084
 30
0.0
 40
8.0
 50
180.0
 51
270.0
  0
ARC
  8
0
 10
-34.884841
 20
-1845.789366
 30
0.0
 40
6.0
 50
135.0
 51
180.0
  0
ARC
  8
0
 10
-25.884841
 20
-1834.804084
 30
0.0
 40
1.0
 50
0.0
 51
90.0
  0
ARC
  8
0
 10
-30.556414
 20
-1835.804084
 30
0.0
 40
2.0
 50
90.0
 51
135.0
  0
ARC
  8
0
 10
-26.884841
 20
-1837.804084
 30
0.0
 40
2.0
 50
180.0
 51
0.0
  0
ARC
  8
0
 10
-7.884841
 20
-1882.304084
 30
0.0
 40
2.0
 50
0.0
 51
90.0
  0
ARC
  8
0
 10
-7.884841
 20
-1882.304084
 30
0.0
 40
2.0
 50
270.0
 51
0.0
  0
LINE
  8
0
 10
-203.312339
 20
-1801.373664
 30
0.0
 11
-195.722809
 21
-1793.784135
 31
0.0
  0
LINE
  8
0
 10
-203.312339
 20
-1815.5158
 30
0.0
 11
-181.580673
 21
-1793.784135
 31
0.0
  0
LINE
  8
0
 10
-203.312339
 20
-1829.657936
 30
0.0
 11
-167.438538
 21
-1793.784135
 31
0.0
  0
LINE
  8
0
 10
-203.312339
 20
-1843.800071
 30
0.0
 11
-153.296402
 21
-1793.784135
 31
0.0
  0
LINE
  8
0
 10
-169.154267
 20
-1823.784135
 30
0.0
 11
-139.154267
 21
-1793.784135
 31
0.0
  0
LINE
  8
0
 10
-203.312339
 20
-1857.942207
 30
0.0
 11
-173.312339
 21
-1827.942207
 31
0.0
  0
LINE
  8
0
 10
-155.012131
 20
-1823.784135
 30
0.0
 11
-125.012131
 21
-1793.784135
 31
0.0
  0
LINE
  8
0
 10
-203.312339
 20
-1872.084342
 30
0.0
 11
-173.312339
 21
-1842.084342
 31
0.0
  0
LINE
  8
0
 10
-140.869995
 20
-1823.784135
 30
0.0
 11
-110.869995
 21
-1793.784135
 31
0.0
  0
LINE
  8
0
 10
-203.312339
 20
-1886.226478
 30
0.0
 11
-173.312339
 21
-1856.226478
 31
0.0
  0
LINE
  8
0
 10
-126.72786
 20
-1823.784135
 30
0.0
 11
-96.72786
 21
-1793.784135
 31
0.0
  0
LINE
  8
0
 10
-203.312339
 20
-1900.368614
 30
0.0
 11
-173.312339
 21
-1870.368614
 31
0.0
  0
LINE
  8
0
 10
-112.585724
 20
-1823.784135
 30
0.0
 11
-82.585724
 21
-1793.784135
 31
0.0
  0
LINE
  8
0
 10
-203.312339
 20
-1914.510749
 30
0.0
 11
-173.312339
 21
-1884.510749
 31
0.0
  0
LINE
  8
0
 10
-98.443589
 20
-1823.784135
 30
0.0
 11
-68.443589
 21
-1793.784135
 31
0.0
  0
LINE
  8
0
 10
-192.443589
 20
-1917.784135
 30
0.0
 11
-162.443589
 21
-1887.784135
 31
0.0
  0
LINE
  8
0
 10
-84.301453
 20
-1823.784135
 30
0.0
 11
-54.301453
 21
-1793.784135
 31
0.0
  0
LINE
  8
0
 10
-178.301453
 20
-1917.784135
 30
0.0
 11
-148.301453
 21
-1887.784135
 31
0.0
  0
LINE
  8
0
 10
-70.159317
 20
-1823.784135
 30
0.0
 11
-40.159317
 21
-1793.784135
 31
0.0
  0
LINE
  8
0
 10
-164.159317
 20
-1917.784135
 30
0.0
 11
-134.159317
 21
-1887.784135
 31
0.0
  0
LINE
  8
0
 10
-56.017182
 20
-1823.784135
 30
0.0
 11
-26.017182
 21
-1793.784135
 31
0.0
  0
LINE
  8
0
 10
-150.017182
 20
-1917.784135
 30
0.0
 11
-120.017182
 21
-1887.784135
 31
0.0
  0
LINE
  8
0
 10
-41.875046
 20
-1823.784135
 30
0.0
 11
-11.875046
 21
-1793.784135
 31
0.0
  0
LINE
  8
0
 10
-135.875046
 20
-1917.784135
 30
0.0
 11
-105.875046
 21
-1887.784135
 31
0.0
  0
LINE
  8
0
 10
-27.73291
 20
-1823.784135
 30
0.0
 11
2.26709
 21
-1793.784135
 31
0.0
  0
LINE
  8
0
 10
-121.73291
 20
-1917.784135
 30
0.0
 11
-91.73291
 21
-1887.784135
 31
0.0
  0
LINE
  8
0
 10
-13.590775
 20
-1823.784135
 30
0.0
 11
16.409225
 21
-1793.784135
 31
0.0
  0
LINE
  8
0
 10
-107.590775
 20
-1917.784135
 30
0.0
 11
-77.590775
 21
-1887.784135
 31
0.0
  0
LINE
  8
0
 10
0.551361
 20
-1823.784135
 30
0.0
 11
30.551361
 21
-1793.784135
 31
0.0
  0
LINE
  8
0
 10
-93.448639
 20
-1917.784135
 30
0.0
 11
-63.448639
 21
-1887.784135
 31
0.0
  0
LINE
  8
0
 10
14.693496
 20
-1823.784135
 30
0.0
 11
44.693496
 21
-1793.784135
 31
0.0
  0
LINE
  8
0
 10
-79.306504
 20
-1917.784135
 30
0.0
 11
-49.306504
 21
-1887.784135
 31
0.0
  0
LINE
  8
0
 10
28.835632
 20
-1823.784135
 30
0.0
 11
58.835632
 21
-1793.784135
 31
0.0
  0
LINE
  8
0
 10
-65.164368
 20
-1917.784135
 30
0.0
 11
-35.164368
 21
-1887.784135
 31
0.0
  0
LINE
  8
0
 10
42.977768
 20
-1823.784135
 30
0.0
 11
72.977768
 21
-1793.784135
 31
0.0
  0
LINE
  8
0
 10
-51.022232
 20
-1917.784135
 30
0.0
 11
-21.022232
 21
-1887.784135
 31
0.0
  0
LINE
  8
0
 10
57.119903
 20
-1823.784135
 30
0.0
 11
87.119903
 21
-1793.784135
 31
0.0
  0
LINE
  8
0
 10
-36.880097
 20
-1917.784135
 30
0.0
 11
-6.880097
 21
-1887.784135
 31
0.0
  0
LINE
  8
0
 10
71.262039
 20
-1823.784135
 30
0.0
 11
101.262039
 21
-1793.784135
 31
0.0
  0
LINE
  8
0
 10
-22.737961
 20
-1917.784135
 30
0.0
 11
7.262039
 21
-1887.784135
 31
0.0
  0
LINE
  8
0
 10
85.404175
 20
-1823.784135
 30
0.0
 11
115.404175
 21
-1793.784135
 31
0.0
  0
LINE
  8
0
 10
-8.595825
 20
-1917.784135
 30
0.0
 11
21.404175
 21
-1887.784135
 31
0.0
  0
LINE
  8
0
 10
99.54631
 20
-1823.784135
 30
0.0
 11
129.54631
 21
-1793.784135
 31
0.0
  0
LINE
  8
0
 10
5.54631
 20
-1917.784135
 30
0.0
 11
35.54631
 21
-1887.784135
 31
0.0
  0
LINE
  8
0
 10
113.688446
 20
-1823.784135
 30
0.0
 11
143.688446
 21
-1793.784135
 31
0.0
  0
LINE
  8
0
 10
19.688446
 20
-1917.784135
 30
0.0
 11
49.688446
 21
-1887.784135
 31
0.0
  0
LINE
  8
0
 10
126.687661
 20
-1824.927055
 30
0.0
 11
156.687661
 21
-1794.927055
 31
0.0
  0
LINE
  8
0
 10
33.830581
 20
-1917.784135
 30
0.0
 11
63.830581
 21
-1887.784135
 31
0.0
  0
LINE
  8
0
 10
126.687661
 20
-1839.06919
 30
0.0
 11
156.687661
 21
-1809.06919
 31
0.0
  0
LINE
  8
0
 10
47.972717
 20
-1917.784135
 30
0.0
 11
77.972717
 21
-1887.784135
 31
0.0
  0
LINE
  8
0
 10
126.687661
 20
-1853.211326
 30
0.0
 11
156.687661
 21
-1823.211326
 31
0.0
  0
LINE
  8
0
 10
62.114853
 20
-1917.784135
 30
0.0
 11
92.114853
 21
-1887.784135
 31
0.0
  0
LINE
  8
0
 10
126.687661
 20
-1867.353462
 30
0.0
 11
156.687661
 21
-1837.353462
 31
0.0
  0
LINE
  8
0
 10
76.256988
 20
-1917.784135
 30
0.0
 11
106.256988
 21
-1887.784135
 31
0.0
  0
LINE
  8
0
 10
126.687661
 20
-1881.495597
 30
0.0
 11
156.687661
 21
-1851.495597
 31
0.0
  0
LINE
  8
0
 10
90.399124
 20
-1917.784135
 30
0.0
 11
120.399124
 21
-1887.784135
 31
0.0
  0
LINE
  8
0
 10
134.54126
 20
-1887.784135
 30
0.0
 11
156.687661
 21
-1865.637733
 31
0.0
  0
LINE
  8
0
 10
104.54126
 20
-1917.784135
 30
0.0
 11
134.54126
 21
-1887.784135
 31
0.0
  0
LINE
  8
0
 10
148.683395
 20
-1887.784135
 30
0.0
 11
156.687661
 21
-1879.779869
 31
0.0
  0
LINE
  8
0
 10
118.683395
 20
-1917.784135
 30
0.0
 11
148.683395
 21
-1887.784135
 31
0.0
  0
LINE
  8
0
 10
132.825531
 20
-1917.784135
 30
0.0
 11
156.687661
 21
-1893.922004
 31
0.0
  0
LINE
  8
0
 10
146.967666
 20
-1917.784135
 30
0.0
 11
156.687661
 21
-1908.06414
 31
0.0
  0
ENDSEC
  0
EOF
