  0
SECTION
  2
HEADER
  9
$ACADVER
  1
AC1009
  9
$INSBASE
 10
0.0
 20
0.0
 30
0.0
  9
$EXTMIN
 10
-857.25044
 20
-1917.784135
 30
0.0
  9
$EXTMAX
 10
-497.25044
 20
-1793.784135
 30
0.0
  9
$LIMMIN
 10
-857.25044
 20
-1917.784135
  9
$LIMMAX
 10
-497.25044
 20
-1793.784135
  9
$ORTHOMODE
 70
     0
  9
$REGENMODE
 70
     1
  9
$FILLMODE
 70
     1
  9
$QTEXTMODE
 70
     0
  9
$MIRRTEXT
 70
     1
  9
$DRAGMODE
 70
     2
  9
$LTSCALE
 40
1.0
  9
$OSMODE
 70
     0
  9
$ATTMODE
 70
     1
  9
$TEXTSIZE
 40
3.5
  9
$TRACEWID
 40
0.5
  9
$TEXTSTYLE
  7
STANDARD
  9
$CLAYER
  8
0
  9
$CELTYPE
  6
BYLAYER
  9
$CECOLOR
 62
   256
  9
$DIMSCALE
 40
1.0
  9
$DIMASZ
 40
0.18
  9
$DIMEXO
 40
0.0625
  9
$DIMDLI
 40
0.38
  9
$DIMRND
 40
0.0
  9
$DIMDLE
 40
0.0
  9
$DIMEXE
 40
0.18
  9
$DIMTP
 40
0.0
  9
$DIMTM
 40
0.0
  9
$DIMTXT
 40
0.18
  9
$DIMCEN
 40
0.09
  9
$DIMTSZ
 40
0.0
  9
$DIMTOL
 70
     0
  9
$DIMLIM
 70
     0
  9
$DIMTIH
 70
     1
  9
$DIMTOH
 70
     1
  9
$DIMSE1
 70
     0
  9
$DIMSE2
 70
     0
  9
$DIMTAD
 70
     0
  9
$DIMZIN
 70
     0
  9
$DIMBLK
  1

  9
$DIMASO
 70
     1
  9
$DIMSHO
 70
     1
  9
$DIMPOST
  1

  9
$DIMAPOST
  1

  9
$DIMALT
 70
     0
  9
$DIMALTD
 70
     2
  9
$DIMALTF
 40
25.4
  9
$DIMLFAC
 40
1.0
  9
$DIMTOFL
 70
     0
  9
$DIMTVP
 40
0.0
  9
$DIMTIX
 70
     0
  9
$DIMSOXD
 70
     0
  9
$DIMSAH
 70
     0
  9
$DIMBLK1
  1

  9
$DIMBLK2
  1

  9
$DIMSTYLE
  2
*UNNAMED
  9
$DIMCLRD
 70
     0
  9
$DIMCLRE
 70
     0
  9
$DIMCLRT
 70
     0
  9
$DIMTFAC
 40
1.0
  9
$DIMGAP
 40
0.09
  9
$LUNITS
 70
     2
  9
$LUPREC
 70
     4
  9
$SKETCHINC
 40
0.1
  9
$FILLETRAD
 40
2.0
  9
$AUNITS
 70
     0
  9
$AUPREC
 70
     0
  9
$MENU
  1
ACAD
  9
$ELEVATION
 40
0.0
  9
$PELEVATION
 40
0.0
  9
$THICKNESS
 40
0.0
  9
$LIMCHECK
 70
     0
  9
$BLIPMODE
 70
     1
  9
$CHAMFERA
 40
0.0
  9
$CHAMFERB
 40
0.0
  9
$SKPOLY
 70
     0
  9
$TDCREATE
 40
2450948.542420948
  9
$TDUPDATE
 40
2450948.542881250
  9
$TDINDWG
 40
0.0002569444
  9
$TDUSRTIMER
 40
0.0002569444
  9
$USRTIMER
 70
     1
  9
$ANGBASE
 50
0.0
  9
$ANGDIR
 70
     0
  9
$PDMODE
 70
     0
  9
$PDSIZE
 40
0.0
  9
$PLINEWID
 40
0.0
  9
$COORDS
 70
     2
  9
$SPLFRAME
 70
     0
  9
$SPLINETYPE
 70
     6
  9
$SPLINESEGS
 70
     8
  9
$ATTDIA
 70
     0
  9
$ATTREQ
 70
     1
  9
$HANDLING
 70
     0
  9
$HANDSEED
  5
0
  9
$SURFTAB1
 70
     6
  9
$SURFTAB2
 70
     6
  9
$SURFTYPE
 70
     6
  9
$SURFU
 70
     6
  9
$SURFV
 70
     6
  9
$UCSNAME
  2

  9
$UCSORG
 10
0.0
 20
0.0
 30
0.0
  9
$UCSXDIR
 10
1.0
 20
0.0
 30
0.0
  9
$UCSYDIR
 10
0.0
 20
1.0
 30
0.0
  9
$PUCSNAME
  2

  9
$PUCSORG
 10
0.0
 20
0.0
 30
0.0
  9
$PUCSXDIR
 10
1.0
 20
0.0
 30
0.0
  9
$PUCSYDIR
 10
0.0
 20
1.0
 30
0.0
  9
$USERI1
 70
     0
  9
$USERI2
 70
     0
  9
$USERI3
 70
     0
  9
$USERI4
 70
     0
  9
$USERI5
 70
     0
  9
$USERR1
 40
0.0
  9
$USERR2
 40
0.0
  9
$USERR3
 40
0.0
  9
$USERR4
 40
0.0
  9
$USERR5
 40
0.0
  9
$WORLDVIEW
 70
     1
  9
$SHADEDGE
 70
     3
  9
$SHADEDIF
 70
    70
  9
$TILEMODE
 70
     1
  9
$MAXACTVP
 70
    16
  9
$PINSBASE
 10
0.0
 20
0.0
 30
0.0
  9
$PLIMCHECK
 70
     0
  9
$PEXTMIN
 10
1.000000E+20
 20
1.000000E+20
 30
1.000000E+20
  9
$PEXTMAX
 10
-1.000000E+20
 20
-1.000000E+20
 30
-1.000000E+20
  9
$PLIMMIN
 10
0.0
 20
0.0
  9
$PLIMMAX
 10
420.0
 20
297.0
  9
$UNITMODE
 70
     0
  9
$VISRETAIN
 70
     0
  9
$PLINEGEN
 70
     0
  9
$PSLTSCALE
 70
     1
  9
$TREEDEPTH
 70
  3020
  9
$DWGCODEPAGE
  3
iso8859-1
  0
ENDSEC
  0
SECTION
  2
TABLES
  0
TABLE
  2
VPORT
 70
     2
  0
VPORT
  2
*ACTIVE
 70
     0
 10
0.0
 20
0.0
 11
1.0
 21
1.0
 12
-677.680875
 22
-1829.103728
 13
0.0
 23
0.0
 14
1.0
 24
1.0
 15
0.0
 25
0.0
 16
0.0
 26
0.0
 36
1.0
 17
0.0
 27
0.0
 37
0.0
 40
219.112314
 41
1.748359
 42
50.0
 43
0.0
 44
0.0
 50
0.0
 51
0.0
 71
     0
 72
   100
 73
     1
 74
     0
 75
     0
 76
     0
 77
     0
 78
     0
  0
ENDTAB
  0
TABLE
  2
LTYPE
 70
     1
  0
LTYPE
  2
CONTINUOUS
 70
    64
  3
Solid line
 72
    65
 73
     0
 40
0.0
  0
ENDTAB
  0
TABLE
  2
LAYER
 70
     1
  0
LAYER
  2
0
 70
    64
 62
     7
  6
CONTINUOUS
  0
ENDTAB
  0
TABLE
  2
STYLE
 70
     1
  0
STYLE
  2
STANDARD
 70
     0
 40
0.0
 41
1.0
 50
0.0
 71
     0
 42
3.5
  3
txt
  4

  0
ENDTAB
  0
TABLE
  2
VIEW
 70
     0
  0
ENDTAB
  0
TABLE
  2
UCS
 70
     0
  0
ENDTAB
  0
TABLE
  2
APPID
 70
     1
  0
APPID
  2
ACAD
 70
    64
  0
ENDTAB
  0
TABLE
  2
DIMSTYLE
 70
     0
  0
ENDTAB
  0
ENDSEC
  0
SECTION
  2
BLOCKS
  0
ENDSEC
  0
SECTION
  2
ENTITIES
  0
LINE
  8
0
 10
-824.25044
 20
-1887.804084
 30
0.0
 11
-530.25044
 21
-1887.804084
 31
0.0
  0
LINE
  8
0
 10
-821.75044
 20
-1884.304084
 30
0.0
 11
-532.75044
 21
-1884.304084
 31
0.0
  0
LINE
  8
0
 10
-805.75044
 20
-1833.889871
 30
0.0
 11
-805.75044
 21
-1830.804084
 31
0.0
  0
LINE
  8
0
 10
-805.75044
 20
-1833.889871
 30
0.0
 11
-803.8111
 21
-1831.950531
 31
0.0
  0
LINE
  8
0
 10
-803.457547
 20
-1831.804084
 30
0.0
 11
-771.75044
 21
-1831.804084
 31
0.0
  0
LINE
  8
0
 10
-807.75044
 20
-1831.804084
 30
0.0
 11
-807.75044
 21
-1830.804084
 31
0.0
  0
LINE
  8
0
 10
-771.75044
 20
-1831.804084
 30
0.0
 11
-771.75044
 21
-1829.804084
 31
0.0
  0
LINE
  8
0
 10
-821.422013
 20
-1829.804084
 30
0.0
 11
-771.75044
 21
-1829.804084
 31
0.0
  0
LINE
  8
0
 10
-822.75044
 20
-1831.804084
 30
0.0
 11
-807.75044
 21
-1831.804084
 31
0.0
  0
LINE
  8
0
 10
-822.75044
 20
-1831.132511
 30
0.0
 11
-822.75044
 21
-1831.804084
 31
0.0
  0
LINE
  8
0
 10
-821.422013
 20
-1829.804084
 30
0.0
 11
-822.75044
 21
-1831.132511
 31
0.0
  0
LINE
  8
0
 10
-770.75044
 20
-1827.804084
 30
0.0
 11
-821.836227
 21
-1827.804084
 31
0.0
  0
LINE
  8
0
 10
-801.593586
 20
-1833.804084
 30
0.0
 11
-770.75044
 21
-1833.804084
 31
0.0
  0
LINE
  8
0
 10
-806.043333
 20
-1837.011191
 30
0.0
 11
-803.714906
 21
-1834.682764
 31
0.0
  0
LINE
  8
0
 10
-807.75044
 20
-1834.304084
 30
0.0
 11
-807.75044
 21
-1836.304084
 31
0.0
  0
LINE
  8
0
 10
-769.75044
 20
-1828.804084
 30
0.0
 11
-769.75044
 21
-1832.804084
 31
0.0
  0
LINE
  8
0
 10
-813.47735
 20
-1833.804084
 30
0.0
 11
-808.25044
 21
-1833.804084
 31
0.0
  0
LINE
  8
0
 10
-822.543333
 20
-1828.096977
 30
0.0
 11
-824.457547
 21
-1830.011191
 31
0.0
  0
LINE
  8
0
 10
-823.75044
 20
-1833.804084
 30
0.0
 11
-820.664654
 21
-1833.804084
 31
0.0
  0
LINE
  8
0
 10
-824.75044
 20
-1830.718298
 30
0.0
 11
-824.75044
 21
-1832.804084
 31
0.0
  0
LINE
  8
0
 10
-823.754004
 20
-1844.082011
 30
0.0
 11
-823.75044
 21
-1882.304084
 31
0.0
  0
LINE
  8
0
 10
-823.168217
 20
-1842.667798
 30
0.0
 11
-814.891564
 21
-1834.389871
 31
0.0
  0
LINE
  8
0
 10
-826.37176
 20
-1841.925405
 30
0.0
 11
-819.957547
 21
-1835.511191
 31
0.0
  0
LINE
  8
0
 10
-827.25044
 20
-1884.804084
 30
0.0
 11
-827.25044
 21
-1844.046725
 31
0.0
  0
LINE
  8
0
 10
-548.75044
 20
-1830.804084
 30
0.0
 11
-548.75044
 21
-1833.889871
 31
0.0
  0
LINE
  8
0
 10
-550.68978
 20
-1831.950531
 30
0.0
 11
-548.75044
 21
-1833.889871
 31
0.0
  0
LINE
  8
0
 10
-582.75044
 20
-1831.804084
 30
0.0
 11
-551.043333
 21
-1831.804084
 31
0.0
  0
LINE
  8
0
 10
-546.75044
 20
-1830.804084
 30
0.0
 11
-546.75044
 21
-1831.804084
 31
0.0
  0
LINE
  8
0
 10
-582.75044
 20
-1829.804084
 30
0.0
 11
-582.75044
 21
-1831.804084
 31
0.0
  0
LINE
  8
0
 10
-582.75044
 20
-1829.804084
 30
0.0
 11
-533.078867
 21
-1829.804084
 31
0.0
  0
LINE
  8
0
 10
-546.75044
 20
-1831.804084
 30
0.0
 11
-531.75044
 21
-1831.804084
 31
0.0
  0
LINE
  8
0
 10
-531.75044
 20
-1831.804084
 30
0.0
 11
-531.75044
 21
-1831.132511
 31
0.0
  0
LINE
  8
0
 10
-531.75044
 20
-1831.132511
 30
0.0
 11
-533.078867
 21
-1829.804084
 31
0.0
  0
LINE
  8
0
 10
-532.664654
 20
-1827.804084
 30
0.0
 11
-583.75044
 21
-1827.804084
 31
0.0
  0
LINE
  8
0
 10
-583.75044
 20
-1833.804084
 30
0.0
 11
-552.907294
 21
-1833.804084
 31
0.0
  0
LINE
  8
0
 10
-550.785974
 20
-1834.682764
 30
0.0
 11
-548.457547
 21
-1837.011191
 31
0.0
  0
LINE
  8
0
 10
-546.75044
 20
-1836.304084
 30
0.0
 11
-546.75044
 21
-1834.304084
 31
0.0
  0
LINE
  8
0
 10
-584.75044
 20
-1832.804084
 30
0.0
 11
-584.75044
 21
-1828.804084
 31
0.0
  0
LINE
  8
0
 10
-546.25044
 20
-1833.804084
 30
0.0
 11
-541.02353
 21
-1833.804084
 31
0.0
  0
LINE
  8
0
 10
-530.043333
 20
-1830.011191
 30
0.0
 11
-531.957547
 21
-1828.096977
 31
0.0
  0
LINE
  8
0
 10
-533.836227
 20
-1833.804084
 30
0.0
 11
-530.75044
 21
-1833.804084
 31
0.0
  0
LINE
  8
0
 10
-529.75044
 20
-1832.804084
 30
0.0
 11
-529.75044
 21
-1830.718298
 31
0.0
  0
LINE
  8
0
 10
-539.609316
 20
-1834.389871
 30
0.0
 11
-531.332663
 21
-1842.667798
 31
0.0
  0
LINE
  8
0
 10
-534.543333
 20
-1835.511191
 30
0.0
 11
-528.12912
 21
-1841.925405
 31
0.0
  0
LINE
  8
0
 10
-527.25044
 20
-1844.046725
 30
0.0
 11
-527.25044
 21
-1884.804084
 31
0.0
  0
LINE
  8
0
 10
-530.75044
 20
-1882.304084
 30
0.0
 11
-530.746876
 21
-1844.082011
 31
0.0
  0
ARC
  8
0
 10
-806.75044
 20
-1836.304084
 30
0.0
 40
1.0
 50
180.0
 51
315.0
  0
ARC
  8
0
 10
-806.75044
 20
-1830.804084
 30
0.0
 40
1.0
 50
0.0
 51
180.0
  0
ARC
  8
0
 10
-547.75044
 20
-1836.304084
 30
0.0
 40
1.0
 50
225.0
 51
0.0
  0
ARC
  8
0
 10
-547.75044
 20
-1830.804084
 30
0.0
 40
1.0
 50
0.0
 51
180.0
  0
ARC
  8
0
 10
-824.25044
 20
-1844.046725
 30
0.0
 40
3.0
 50
135.0
 51
180.0
  0
ARC
  8
0
 10
-821.75044
 20
-1882.304084
 30
0.0
 40
2.0
 50
180.0
 51
270.0
  0
ARC
  8
0
 10
-824.25044
 20
-1884.804084
 30
0.0
 40
3.0
 50
180.0
 51
270.0
  0
ARC
  8
0
 10
-821.754004
 20
-1844.082011
 30
0.0
 40
2.0
 50
135.0
 51
180.0
  0
ARC
  8
0
 10
-801.593586
 20
-1836.804084
 30
0.0
 40
3.0
 50
90.0
 51
135.0
  0
ARC
  8
0
 10
-808.25044
 20
-1834.304084
 30
0.0
 40
0.5
 50
0.0
 51
90.0
  0
ARC
  8
0
 10
-813.47735
 20
-1835.804084
 30
0.0
 40
2.0
 50
90.0
 51
135.0
  0
ARC
  8
0
 10
-823.75044
 20
-1830.718298
 30
0.0
 40
1.0
 50
135.0
 51
180.0
  0
ARC
  8
0
 10
-821.836227
 20
-1828.804084
 30
0.0
 40
1.0
 50
90.0
 51
135.0
  0
ARC
  8
0
 10
-803.457547
 20
-1832.304084
 30
0.0
 40
0.5
 50
90.0
 51
135.0
  0
ARC
  8
0
 10
-770.75044
 20
-1832.804084
 30
0.0
 40
1.0
 50
270.0
 51
0.0
  0
ARC
  8
0
 10
-770.75044
 20
-1828.804084
 30
0.0
 40
1.0
 50
0.0
 51
90.0
  0
ARC
  8
0
 10
-823.75044
 20
-1832.804084
 30
0.0
 40
1.0
 50
180.0
 51
270.0
  0
ARC
  8
0
 10
-820.664654
 20
-1834.804084
 30
0.0
 40
1.0
 50
315.0
 51
90.0
  0
ARC
  8
0
 10
-530.25044
 20
-1844.046725
 30
0.0
 40
3.0
 50
0.0
 51
45.0
  0
ARC
  8
0
 10
-532.746876
 20
-1844.082011
 30
0.0
 40
2.0
 50
0.0
 51
45.0
  0
ARC
  8
0
 10
-552.907294
 20
-1836.804084
 30
0.0
 40
3.0
 50
45.0
 51
90.0
  0
ARC
  8
0
 10
-546.25044
 20
-1834.304084
 30
0.0
 40
0.5
 50
90.0
 51
180.0
  0
ARC
  8
0
 10
-541.02353
 20
-1835.804084
 30
0.0
 40
2.0
 50
45.0
 51
90.0
  0
ARC
  8
0
 10
-530.75044
 20
-1830.718298
 30
0.0
 40
1.0
 50
0.0
 51
45.0
  0
ARC
  8
0
 10
-532.664654
 20
-1828.804084
 30
0.0
 40
1.0
 50
45.0
 51
90.0
  0
ARC
  8
0
 10
-551.043333
 20
-1832.304084
 30
0.0
 40
0.5
 50
45.0
 51
90.0
  0
ARC
  8
0
 10
-583.75044
 20
-1832.804084
 30
0.0
 40
1.0
 50
180.0
 51
270.0
  0
ARC
  8
0
 10
-583.75044
 20
-1828.804084
 30
0.0
 40
1.0
 50
90.0
 51
180.0
  0
ARC
  8
0
 10
-530.75044
 20
-1832.804084
 30
0.0
 40
1.0
 50
270.0
 51
0.0
  0
ARC
  8
0
 10
-533.836227
 20
-1834.804084
 30
0.0
 40
1.0
 50
90.0
 51
225.0
  0
ARC
  8
0
 10
-532.75044
 20
-1882.304084
 30
0.0
 40
2.0
 50
270.0
 51
0.0
  0
ARC
  8
0
 10
-530.25044
 20
-1884.804084
 30
0.0
 40
3.0
 50
270.0
 51
0.0
  0
LINE
  8
0
 10
-527.25044
 20
-1826.304084
 30
0.0
 11
-527.25044
 21
-1837.804084
 31
0.0
  0
LINE
  8
0
 10
-824.9122
 20
-1823.804084
 30
0.0
 11
-529.75044
 21
-1823.804084
 31
0.0
  0
LINE
  8
0
 10
-531.25044
 20
-1826.304084
 30
0.0
 11
-823.4122
 21
-1826.304084
 31
0.0
  0
LINE
  8
0
 10
-530.664654
 20
-1839.218298
 30
0.0
 11
-534.475314
 21
-1835.407638
 31
0.0
  0
LINE
  8
0
 10
-533.8111
 20
-1833.804084
 30
0.0
 11
-530.35044
 21
-1833.804084
 31
0.0
  0
LINE
  8
0
 10
-529.926176
 20
-1834.828348
 30
0.0
 11
-531.076176
 21
-1835.978348
 31
0.0
  0
LINE
  8
0
 10
-531.076176
 20
-1835.978348
 30
0.0
 11
-529.75044
 21
-1837.304084
 31
0.0
  0
LINE
  8
0
 10
-529.75044
 20
-1837.304084
 30
0.0
 11
-529.75044
 21
-1827.804084
 31
0.0
  0
LINE
  8
0
 10
-820.187327
 20
-1835.407638
 30
0.0
 11
-823.997987
 21
-1839.218298
 31
0.0
  0
LINE
  8
0
 10
-824.3122
 20
-1833.804084
 30
0.0
 11
-820.85154
 21
-1833.804084
 31
0.0
  0
LINE
  8
0
 10
-823.586465
 20
-1835.978348
 30
0.0
 11
-824.736465
 21
-1834.828348
 31
0.0
  0
LINE
  8
0
 10
-824.9122
 20
-1837.304084
 30
0.0
 11
-823.586465
 21
-1835.978348
 31
0.0
  0
LINE
  8
0
 10
-824.9122
 20
-1827.804084
 30
0.0
 11
-824.9122
 21
-1837.304084
 31
0.0
  0
LINE
  8
0
 10
-827.4122
 20
-1837.804084
 30
0.0
 11
-827.4122
 21
-1826.304084
 31
0.0
  0
ARC
  8
0
 10
-533.8111
 20
-1834.743424
 30
0.0
 40
0.93934
 50
180.866301
 51
225.0
  0
ARC
  8
0
 10
-530.35044
 20
-1834.404084
 30
0.0
 40
0.6
 50
315.0
 51
90.0
  0
ARC
  8
0
 10
-529.25044
 20
-1837.804084
 30
0.0
 40
2.0
 50
225.0
 51
0.0
  0
ARC
  8
0
 10
-820.85154
 20
-1834.743424
 30
0.0
 40
0.93934
 50
359.820102
 51
90.0
  0
ARC
  8
0
 10
-824.3122
 20
-1834.404084
 30
0.0
 40
0.6
 50
90.0
 51
225.0
  0
ARC
  8
0
 10
-825.4122
 20
-1837.804084
 30
0.0
 40
2.0
 50
180.0
 51
315.0
  0
ARC
  8
0
 10
-820.85154
 20
-1834.743424
 30
0.0
 40
0.93934
 50
315.0
 51
359.820102
  0
ARC
  8
0
 10
-533.8111
 20
-1834.743424
 30
0.0
 40
0.93934
 50
90.0
 51
180.866301
  0
ARC
  8
0
 10
-529.75044
 20
-1826.304084
 30
0.0
 40
2.5
 50
0.0
 51
90.0
  0
ARC
  8
0
 10
-824.9122
 20
-1826.304084
 30
0.0
 40
2.5
 50
90.0
 51
180.0
  0
ARC
  8
0
 10
-531.25044
 20
-1827.804084
 30
0.0
 40
1.5
 50
0.0
 51
90.0
  0
ARC
  8
0
 10
-823.4122
 20
-1827.804084
 30
0.0
 40
1.5
 50
90.0
 51
180.0
  0
LINE
  8
0
 10
-857.25044
 20
-1804.773527
 30
0.0
 11
-846.261048
 21
-1793.784135
 31
0.0
  0
LINE
  8
0
 10
-857.25044
 20
-1818.915662
 30
0.0
 11
-832.118912
 21
-1793.784135
 31
0.0
  0
LINE
  8
0
 10
-857.25044
 20
-1833.057798
 30
0.0
 11
-817.976777
 21
-1793.784135
 31
0.0
  0
LINE
  8
0
 10
-857.25044
 20
-1847.199934
 30
0.0
 11
-803.834641
 21
-1793.784135
 31
0.0
  0
LINE
  8
0
 10
-819.692505
 20
-1823.784135
 30
0.0
 11
-789.692505
 21
-1793.784135
 31
0.0
  0
LINE
  8
0
 10
-857.25044
 20
-1861.342069
 30
0.0
 11
-827.25044
 21
-1831.342069
 31
0.0
  0
LINE
  8
0
 10
-805.55037
 20
-1823.784135
 30
0.0
 11
-775.55037
 21
-1793.784135
 31
0.0
  0
LINE
  8
0
 10
-857.25044
 20
-1875.484205
 30
0.0
 11
-827.25044
 21
-1845.484205
 31
0.0
  0
LINE
  8
0
 10
-791.408234
 20
-1823.784135
 30
0.0
 11
-761.408234
 21
-1793.784135
 31
0.0
  0
LINE
  8
0
 10
-857.25044
 20
-1889.626341
 30
0.0
 11
-827.25044
 21
-1859.626341
 31
0.0
  0
LINE
  8
0
 10
-777.266098
 20
-1823.784135
 30
0.0
 11
-747.266098
 21
-1793.784135
 31
0.0
  0
LINE
  8
0
 10
-857.25044
 20
-1903.768476
 30
0.0
 11
-827.25044
 21
-1873.768476
 31
0.0
  0
LINE
  8
0
 10
-763.123963
 20
-1823.784135
 30
0.0
 11
-733.123963
 21
-1793.784135
 31
0.0
  0
LINE
  8
0
 10
-857.123963
 20
-1917.784135
 30
0.0
 11
-827.123963
 21
-1887.784135
 31
0.0
  0
LINE
  8
0
 10
-748.981827
 20
-1823.784135
 30
0.0
 11
-718.981827
 21
-1793.784135
 31
0.0
  0
LINE
  8
0
 10
-842.981827
 20
-1917.784135
 30
0.0
 11
-812.981827
 21
-1887.784135
 31
0.0
  0
LINE
  8
0
 10
-734.839692
 20
-1823.784135
 30
0.0
 11
-704.839692
 21
-1793.784135
 31
0.0
  0
LINE
  8
0
 10
-828.839692
 20
-1917.784135
 30
0.0
 11
-798.839692
 21
-1887.784135
 31
0.0
  0
LINE
  8
0
 10
-720.697556
 20
-1823.784135
 30
0.0
 11
-690.697556
 21
-1793.784135
 31
0.0
  0
LINE
  8
0
 10
-814.697556
 20
-1917.784135
 30
0.0
 11
-784.697556
 21
-1887.784135
 31
0.0
  0
LINE
  8
0
 10
-706.55542
 20
-1823.784135
 30
0.0
 11
-676.55542
 21
-1793.784135
 31
0.0
  0
LINE
  8
0
 10
-800.55542
 20
-1917.784135
 30
0.0
 11
-770.55542
 21
-1887.784135
 31
0.0
  0
LINE
  8
0
 10
-692.413285
 20
-1823.784135
 30
0.0
 11
-662.413285
 21
-1793.784135
 31
0.0
  0
LINE
  8
0
 10
-786.413285
 20
-1917.784135
 30
0.0
 11
-756.413285
 21
-1887.784135
 31
0.0
  0
LINE
  8
0
 10
-678.271149
 20
-1823.784135
 30
0.0
 11
-648.271149
 21
-1793.784135
 31
0.0
  0
LINE
  8
0
 10
-772.271149
 20
-1917.784135
 30
0.0
 11
-742.271149
 21
-1887.784135
 31
0.0
  0
LINE
  8
0
 10
-664.129013
 20
-1823.784135
 30
0.0
 11
-634.129013
 21
-1793.784135
 31
0.0
  0
LINE
  8
0
 10
-758.129013
 20
-1917.784135
 30
0.0
 11
-728.129013
 21
-1887.784135
 31
0.0
  0
LINE
  8
0
 10
-649.986878
 20
-1823.784135
 30
0.0
 11
-619.986878
 21
-1793.784135
 31
0.0
  0
LINE
  8
0
 10
-743.986878
 20
-1917.784135
 30
0.0
 11
-713.986878
 21
-1887.784135
 31
0.0
  0
LINE
  8
0
 10
-635.844742
 20
-1823.784135
 30
0.0
 11
-605.844742
 21
-1793.784135
 31
0.0
  0
LINE
  8
0
 10
-729.844742
 20
-1917.784135
 30
0.0
 11
-699.844742
 21
-1887.784135
 31
0.0
  0
LINE
  8
0
 10
-621.702607
 20
-1823.784135
 30
0.0
 11
-591.702607
 21
-1793.784135
 31
0.0
  0
LINE
  8
0
 10
-715.702607
 20
-1917.784135
 30
0.0
 11
-685.702607
 21
-1887.784135
 31
0.0
  0
LINE
  8
0
 10
-607.560471
 20
-1823.784135
 30
0.0
 11
-577.560471
 21
-1793.784135
 31
0.0
  0
LINE
  8
0
 10
-701.560471
 20
-1917.784135
 30
0.0
 11
-671.560471
 21
-1887.784135
 31
0.0
  0
LINE
  8
0
 10
-593.418335
 20
-1823.784135
 30
0.0
 11
-563.418335
 21
-1793.784135
 31
0.0
  0
LINE
  8
0
 10
-687.418335
 20
-1917.784135
 30
0.0
 11
-657.418335
 21
-1887.784135
 31
0.0
  0
LINE
  8
0
 10
-579.2762
 20
-1823.784135
 30
0.0
 11
-549.2762
 21
-1793.784135
 31
0.0
  0
LINE
  8
0
 10
-673.2762
 20
-1917.784135
 30
0.0
 11
-643.2762
 21
-1887.784135
 31
0.0
  0
LINE
  8
0
 10
-565.134064
 20
-1823.784135
 30
0.0
 11
-535.134064
 21
-1793.784135
 31
0.0
  0
LINE
  8
0
 10
-659.134064
 20
-1917.784135
 30
0.0
 11
-629.134064
 21
-1887.784135
 31
0.0
  0
LINE
  8
0
 10
-550.991928
 20
-1823.784135
 30
0.0
 11
-520.991928
 21
-1793.784135
 31
0.0
  0
LINE
  8
0
 10
-644.991928
 20
-1917.784135
 30
0.0
 11
-614.991928
 21
-1887.784135
 31
0.0
  0
LINE
  8
0
 10
-536.849793
 20
-1823.784135
 30
0.0
 11
-506.849793
 21
-1793.784135
 31
0.0
  0
LINE
  8
0
 10
-630.849793
 20
-1917.784135
 30
0.0
 11
-600.849793
 21
-1887.784135
 31
0.0
  0
LINE
  8
0
 10
-527.25044
 20
-1828.326917
 30
0.0
 11
-497.25044
 21
-1798.326917
 31
0.0
  0
LINE
  8
0
 10
-616.707657
 20
-1917.784135
 30
0.0
 11
-586.707657
 21
-1887.784135
 31
0.0
  0
LINE
  8
0
 10
-527.25044
 20
-1842.469053
 30
0.0
 11
-497.25044
 21
-1812.469053
 31
0.0
  0
LINE
  8
0
 10
-602.565522
 20
-1917.784135
 30
0.0
 11
-572.565522
 21
-1887.784135
 31
0.0
  0
LINE
  8
0
 10
-527.25044
 20
-1856.611189
 30
0.0
 11
-497.25044
 21
-1826.611189
 31
0.0
  0
LINE
  8
0
 10
-588.423386
 20
-1917.784135
 30
0.0
 11
-558.423386
 21
-1887.784135
 31
0.0
  0
LINE
  8
0
 10
-527.25044
 20
-1870.753324
 30
0.0
 11
-497.25044
 21
-1840.753324
 31
0.0
  0
LINE
  8
0
 10
-574.28125
 20
-1917.784135
 30
0.0
 11
-544.28125
 21
-1887.784135
 31
0.0
  0
LINE
  8
0
 10
-527.25044
 20
-1884.89546
 30
0.0
 11
-497.25044
 21
-1854.89546
 31
0.0
  0
LINE
  8
0
 10
-560.139115
 20
-1917.784135
 30
0.0
 11
-530.139115
 21
-1887.784135
 31
0.0
  0
LINE
  8
0
 10
-515.996979
 20
-1887.784135
 30
0.0
 11
-497.25044
 21
-1869.037596
 31
0.0
  0
LINE
  8
0
 10
-545.996979
 20
-1917.784135
 30
0.0
 11
-515.996979
 21
-1887.784135
 31
0.0
  0
LINE
  8
0
 10
-501.854843
 20
-1887.784135
 30
0.0
 11
-497.25044
 21
-1883.179731
 31
0.0
  0
LINE
  8
0
 10
-531.854843
 20
-1917.784135
 30
0.0
 11
-501.854843
 21
-1887.784135
 31
0.0
  0
LINE
  8
0
 10
-517.712708
 20
-1917.784135
 30
0.0
 11
-497.25044
 21
-1897.321867
 31
0.0
  0
LINE
  8
0
 10
-503.570572
 20
-1917.784135
 30
0.0
 11
-497.25044
 21
-1911.464002
 31
0.0
  0
ENDSEC
  0
EOF
