  0
SECTION
  2
HEADER
  9
$ACADVER
  1
AC1009
  9
$INSBASE
 10
0.0
 20
0.0
 30
0.0
  9
$EXTMIN
 10
428.975592
 20
-1187.830198
 30
0.0
  9
$EXTMAX
 10
844.704804
 20
-740.549662
 30
0.0
  9
$LIMMIN
 10
428.975592
 20
-1187.830198
  9
$LIMMAX
 10
843.975592
 20
-740.549662
  9
$ORTHOMODE
 70
     0
  9
$REGENMODE
 70
     1
  9
$FILLMODE
 70
     1
  9
$QTEXTMODE
 70
     0
  9
$MIRRTEXT
 70
     1
  9
$DRAGMODE
 70
     2
  9
$LTSCALE
 40
1.0
  9
$OSMODE
 70
     0
  9
$ATTMODE
 70
     1
  9
$TEXTSIZE
 40
3.5
  9
$TRACEWID
 40
0.5
  9
$TEXTSTYLE
  7
STANDARD
  9
$CLAYER
  8
0
  9
$CELTYPE
  6
BYLAYER
  9
$CECOLOR
 62
   256
  9
$DIMSCALE
 40
1.0
  9
$DIMASZ
 40
0.18
  9
$DIMEXO
 40
0.0625
  9
$DIMDLI
 40
0.38
  9
$DIMRND
 40
0.0
  9
$DIMDLE
 40
0.0
  9
$DIMEXE
 40
0.18
  9
$DIMTP
 40
0.0
  9
$DIMTM
 40
0.0
  9
$DIMTXT
 40
0.18
  9
$DIMCEN
 40
0.09
  9
$DIMTSZ
 40
0.0
  9
$DIMTOL
 70
     0
  9
$DIMLIM
 70
     0
  9
$DIMTIH
 70
     1
  9
$DIMTOH
 70
     1
  9
$DIMSE1
 70
     0
  9
$DIMSE2
 70
     0
  9
$DIMTAD
 70
     0
  9
$DIMZIN
 70
     0
  9
$DIMBLK
  1

  9
$DIMASO
 70
     1
  9
$DIMSHO
 70
     1
  9
$DIMPOST
  1

  9
$DIMAPOST
  1

  9
$DIMALT
 70
     0
  9
$DIMALTD
 70
     2
  9
$DIMALTF
 40
25.4
  9
$DIMLFAC
 40
1.0
  9
$DIMTOFL
 70
     0
  9
$DIMTVP
 40
0.0
  9
$DIMTIX
 70
     0
  9
$DIMSOXD
 70
     0
  9
$DIMSAH
 70
     0
  9
$DIMBLK1
  1

  9
$DIMBLK2
  1

  9
$DIMSTYLE
  2
*UNNAMED
  9
$DIMCLRD
 70
     0
  9
$DIMCLRE
 70
     0
  9
$DIMCLRT
 70
     0
  9
$DIMTFAC
 40
1.0
  9
$DIMGAP
 40
0.09
  9
$LUNITS
 70
     2
  9
$LUPREC
 70
     4
  9
$SKETCHINC
 40
0.1
  9
$FILLETRAD
 40
2.0
  9
$AUNITS
 70
     0
  9
$AUPREC
 70
     0
  9
$MENU
  1
ACAD
  9
$ELEVATION
 40
0.0
  9
$PELEVATION
 40
0.0
  9
$THICKNESS
 40
0.0
  9
$LIMCHECK
 70
     0
  9
$BLIPMODE
 70
     1
  9
$CHAMFERA
 40
0.0
  9
$CHAMFERB
 40
0.0
  9
$SKPOLY
 70
     0
  9
$TDCREATE
 40
2450948.539334606
  9
$TDUPDATE
 40
2450948.540023032
  9
$TDINDWG
 40
0.0004068287
  9
$TDUSRTIMER
 40
0.0004068287
  9
$USRTIMER
 70
     1
  9
$ANGBASE
 50
0.0
  9
$ANGDIR
 70
     0
  9
$PDMODE
 70
     0
  9
$PDSIZE
 40
0.0
  9
$PLINEWID
 40
0.0
  9
$COORDS
 70
     2
  9
$SPLFRAME
 70
     0
  9
$SPLINETYPE
 70
     6
  9
$SPLINESEGS
 70
     8
  9
$ATTDIA
 70
     0
  9
$ATTREQ
 70
     1
  9
$HANDLING
 70
     0
  9
$HANDSEED
  5
0
  9
$SURFTAB1
 70
     6
  9
$SURFTAB2
 70
     6
  9
$SURFTYPE
 70
     6
  9
$SURFU
 70
     6
  9
$SURFV
 70
     6
  9
$UCSNAME
  2

  9
$UCSORG
 10
0.0
 20
0.0
 30
0.0
  9
$UCSXDIR
 10
1.0
 20
0.0
 30
0.0
  9
$UCSYDIR
 10
0.0
 20
1.0
 30
0.0
  9
$PUCSNAME
  2

  9
$PUCSORG
 10
0.0
 20
0.0
 30
0.0
  9
$PUCSXDIR
 10
1.0
 20
0.0
 30
0.0
  9
$PUCSYDIR
 10
0.0
 20
1.0
 30
0.0
  9
$USERI1
 70
     0
  9
$USERI2
 70
     0
  9
$USERI3
 70
     0
  9
$USERI4
 70
     0
  9
$USERI5
 70
     0
  9
$USERR1
 40
0.0
  9
$USERR2
 40
0.0
  9
$USERR3
 40
0.0
  9
$USERR4
 40
0.0
  9
$USERR5
 40
0.0
  9
$WORLDVIEW
 70
     1
  9
$SHADEDGE
 70
     3
  9
$SHADEDIF
 70
    70
  9
$TILEMODE
 70
     1
  9
$MAXACTVP
 70
    16
  9
$PINSBASE
 10
0.0
 20
0.0
 30
0.0
  9
$PLIMCHECK
 70
     0
  9
$PEXTMIN
 10
1.000000E+20
 20
1.000000E+20
 30
1.000000E+20
  9
$PEXTMAX
 10
-1.000000E+20
 20
-1.000000E+20
 30
-1.000000E+20
  9
$PLIMMIN
 10
0.0
 20
0.0
  9
$PLIMMAX
 10
420.0
 20
297.0
  9
$UNITMODE
 70
     0
  9
$VISRETAIN
 70
     0
  9
$PLINEGEN
 70
     0
  9
$PSLTSCALE
 70
     1
  9
$TREEDEPTH
 70
  3020
  9
$DWGCODEPAGE
  3
iso8859-1
  0
ENDSEC
  0
SECTION
  2
TABLES
  0
TABLE
  2
VPORT
 70
     2
  0
VPORT
  2
*ACTIVE
 70
     0
 10
0.0
 20
0.0
 11
1.0
 21
1.0
 12
935.334314
 22
-973.007862
 13
0.0
 23
0.0
 14
1.0
 24
1.0
 15
0.0
 25
0.0
 16
0.0
 26
0.0
 36
1.0
 17
0.0
 27
0.0
 37
0.0
 40
701.253618
 41
1.748359
 42
50.0
 43
0.0
 44
0.0
 50
0.0
 51
0.0
 71
     0
 72
   100
 73
     1
 74
     0
 75
     0
 76
     0
 77
     0
 78
     0
  0
ENDTAB
  0
TABLE
  2
LTYPE
 70
     2
  0
LTYPE
  2
CONTINUOUS
 70
    64
  3
Solid line
 72
    65
 73
     0
 40
0.0
  0
ENDTAB
  0
TABLE
  2
LAYER
 70
     2
  0
LAYER
  2
0
 70
    64
 62
     7
  6
CONTINUOUS
  0
ENDTAB
  0
TABLE
  2
STYLE
 70
     1
  0
STYLE
  2
STANDARD
 70
     0
 40
0.0
 41
1.0
 50
0.0
 71
     0
 42
3.5
  3
txt
  4

  0
ENDTAB
  0
TABLE
  2
VIEW
 70
     0
  0
ENDTAB
  0
TABLE
  2
UCS
 70
     0
  0
ENDTAB
  0
TABLE
  2
APPID
 70
     1
  0
APPID
  2
ACAD
 70
    64
  0
ENDTAB
  0
TABLE
  2
DIMSTYLE
 70
     0
  0
ENDTAB
  0
ENDSEC
  0
SECTION
  2
BLOCKS
  0
ENDSEC
  0
SECTION
  2
ENTITIES
  0
LINE
  8
0
 10
542.386244
 20
-1045.543746
 30
0.0
 11
836.386244
 21
-1045.543746
 31
0.0
  0
LINE
  8
0
 10
544.886244
 20
-1042.043746
 30
0.0
 11
833.886244
 21
-1042.043746
 31
0.0
  0
LINE
  8
0
 10
560.886244
 20
-991.629533
 30
0.0
 11
560.886244
 21
-988.543746
 31
0.0
  0
LINE
  8
0
 10
560.886244
 20
-991.629533
 30
0.0
 11
562.825584
 21
-989.690193
 31
0.0
  0
LINE
  8
0
 10
563.179138
 20
-989.543746
 30
0.0
 11
594.886244
 21
-989.543746
 31
0.0
  0
LINE
  8
0
 10
558.886244
 20
-989.543746
 30
0.0
 11
558.886244
 21
-988.543746
 31
0.0
  0
LINE
  8
0
 10
594.886244
 20
-989.543746
 30
0.0
 11
594.886244
 21
-987.543746
 31
0.0
  0
LINE
  8
0
 10
545.214672
 20
-987.543746
 30
0.0
 11
594.886244
 21
-987.543746
 31
0.0
  0
LINE
  8
0
 10
543.886244
 20
-989.543746
 30
0.0
 11
558.886244
 21
-989.543746
 31
0.0
  0
LINE
  8
0
 10
543.886244
 20
-988.872173
 30
0.0
 11
543.886244
 21
-989.543746
 31
0.0
  0
LINE
  8
0
 10
545.214672
 20
-987.543746
 30
0.0
 11
543.886244
 21
-988.872173
 31
0.0
  0
LINE
  8
0
 10
595.886244
 20
-985.543746
 30
0.0
 11
544.800458
 21
-985.543746
 31
0.0
  0
LINE
  8
0
 10
565.043099
 20
-991.543746
 30
0.0
 11
595.886244
 21
-991.543746
 31
0.0
  0
LINE
  8
0
 10
560.593351
 20
-994.750853
 30
0.0
 11
562.921778
 21
-992.422426
 31
0.0
  0
LINE
  8
0
 10
558.886244
 20
-992.043746
 30
0.0
 11
558.886244
 21
-994.043746
 31
0.0
  0
LINE
  8
0
 10
596.886244
 20
-986.543746
 30
0.0
 11
596.886244
 21
-990.543746
 31
0.0
  0
LINE
  8
0
 10
553.159334
 20
-991.543746
 30
0.0
 11
558.386244
 21
-991.543746
 31
0.0
  0
LINE
  8
0
 10
544.093351
 20
-985.836639
 30
0.0
 11
542.179138
 21
-987.750853
 31
0.0
  0
LINE
  8
0
 10
542.886244
 20
-991.543746
 30
0.0
 11
545.972031
 21
-991.543746
 31
0.0
  0
LINE
  8
0
 10
541.886244
 20
-988.45796
 30
0.0
 11
541.886244
 21
-990.543746
 31
0.0
  0
LINE
  8
0
 10
542.882681
 20
-1001.821673
 30
0.0
 11
542.886244
 21
-1040.043746
 31
0.0
  0
LINE
  8
0
 10
543.468467
 20
-1000.40746
 30
0.0
 11
551.74512
 21
-992.129533
 31
0.0
  0
LINE
  8
0
 10
540.264924
 20
-999.665067
 30
0.0
 11
546.679138
 21
-993.250853
 31
0.0
  0
LINE
  8
0
 10
539.386244
 20
-1042.543746
 30
0.0
 11
539.386244
 21
-1001.786387
 31
0.0
  0
LINE
  8
0
 10
817.886244
 20
-988.543746
 30
0.0
 11
817.886244
 21
-991.629533
 31
0.0
  0
LINE
  8
0
 10
815.946905
 20
-989.690193
 30
0.0
 11
817.886244
 21
-991.629533
 31
0.0
  0
LINE
  8
0
 10
783.886244
 20
-989.543746
 30
0.0
 11
815.593351
 21
-989.543746
 31
0.0
  0
LINE
  8
0
 10
819.886244
 20
-988.543746
 30
0.0
 11
819.886244
 21
-989.543746
 31
0.0
  0
LINE
  8
0
 10
783.886244
 20
-987.543746
 30
0.0
 11
783.886244
 21
-989.543746
 31
0.0
  0
LINE
  8
0
 10
783.886244
 20
-987.543746
 30
0.0
 11
833.557817
 21
-987.543746
 31
0.0
  0
LINE
  8
0
 10
819.886244
 20
-989.543746
 30
0.0
 11
834.886244
 21
-989.543746
 31
0.0
  0
LINE
  8
0
 10
834.886244
 20
-989.543746
 30
0.0
 11
834.886244
 21
-988.872173
 31
0.0
  0
LINE
  8
0
 10
834.886244
 20
-988.872173
 30
0.0
 11
833.557817
 21
-987.543746
 31
0.0
  0
LINE
  8
0
 10
833.972031
 20
-985.543746
 30
0.0
 11
782.886244
 21
-985.543746
 31
0.0
  0
LINE
  8
0
 10
782.886244
 20
-991.543746
 30
0.0
 11
813.72939
 21
-991.543746
 31
0.0
  0
LINE
  8
0
 10
815.850711
 20
-992.422426
 30
0.0
 11
818.179138
 21
-994.750853
 31
0.0
  0
LINE
  8
0
 10
819.886244
 20
-994.043746
 30
0.0
 11
819.886244
 21
-992.043746
 31
0.0
  0
LINE
  8
0
 10
781.886244
 20
-990.543746
 30
0.0
 11
781.886244
 21
-986.543746
 31
0.0
  0
LINE
  8
0
 10
820.386244
 20
-991.543746
 30
0.0
 11
825.613155
 21
-991.543746
 31
0.0
  0
LINE
  8
0
 10
836.593351
 20
-987.750853
 30
0.0
 11
834.679138
 21
-985.836639
 31
0.0
  0
LINE
  8
0
 10
832.800458
 20
-991.543746
 30
0.0
 11
835.886244
 21
-991.543746
 31
0.0
  0
LINE
  8
0
 10
836.886244
 20
-990.543746
 30
0.0
 11
836.886244
 21
-988.45796
 31
0.0
  0
LINE
  8
0
 10
827.027368
 20
-992.129533
 30
0.0
 11
835.304022
 21
-1000.40746
 31
0.0
  0
LINE
  8
0
 10
832.093351
 20
-993.250853
 30
0.0
 11
838.507565
 21
-999.665067
 31
0.0
  0
LINE
  8
0
 10
839.386244
 20
-1001.786387
 30
0.0
 11
839.386244
 21
-1042.543746
 31
0.0
  0
LINE
  8
0
 10
835.886244
 20
-1040.043746
 30
0.0
 11
835.889808
 21
-1001.821673
 31
0.0
  0
LINE
  8
0
 10
539.975592
 20
-765.543746
 30
0.0
 11
708.975592
 21
-765.549662
 31
0.0
  0
LINE
  8
0
 10
459.975592
 20
-765.543746
 30
0.0
 11
428.975592
 21
-765.549662
 31
0.0
  0
LINE
  8
0
 10
485.957362
 20
-765.543746
 30
0.0
 11
511.439693
 21
-765.543746
 31
0.0
  0
ARC
  8
0
 10
559.886244
 20
-994.043746
 30
0.0
 40
1.0
 50
180.0
 51
315.0
  0
ARC
  8
0
 10
559.886244
 20
-988.543746
 30
0.0
 40
1.0
 50
0.0
 51
180.0
  0
ARC
  8
0
 10
818.886244
 20
-994.043746
 30
0.0
 40
1.0
 50
225.0
 51
0.0
  0
ARC
  8
0
 10
818.886244
 20
-988.543746
 30
0.0
 40
1.0
 50
0.0
 51
180.0
  0
ARC
  8
0
 10
542.386244
 20
-1001.786387
 30
0.0
 40
3.0
 50
135.0
 51
180.0
  0
ARC
  8
0
 10
544.886244
 20
-1040.043746
 30
0.0
 40
2.0
 50
180.0
 51
270.0
  0
ARC
  8
0
 10
542.386244
 20
-1042.543746
 30
0.0
 40
3.0
 50
180.0
 51
270.0
  0
ARC
  8
0
 10
544.882681
 20
-1001.821673
 30
0.0
 40
2.0
 50
135.0
 51
180.0
  0
ARC
  8
0
 10
565.043099
 20
-994.543746
 30
0.0
 40
3.0
 50
90.0
 51
135.0
  0
ARC
  8
0
 10
558.386244
 20
-992.043746
 30
0.0
 40
0.5
 50
0.0
 51
90.0
  0
ARC
  8
0
 10
553.159334
 20
-993.543746
 30
0.0
 40
2.0
 50
90.0
 51
135.0
  0
ARC
  8
0
 10
542.886244
 20
-988.45796
 30
0.0
 40
1.0
 50
135.0
 51
180.0
  0
ARC
  8
0
 10
544.800458
 20
-986.543746
 30
0.0
 40
1.0
 50
90.0
 51
135.0
  0
ARC
  8
0
 10
563.179138
 20
-990.043746
 30
0.0
 40
0.5
 50
90.0
 51
135.0
  0
ARC
  8
0
 10
595.886244
 20
-990.543746
 30
0.0
 40
1.0
 50
270.0
 51
0.0
  0
ARC
  8
0
 10
595.886244
 20
-986.543746
 30
0.0
 40
1.0
 50
0.0
 51
90.0
  0
ARC
  8
0
 10
542.886244
 20
-990.543746
 30
0.0
 40
1.0
 50
180.0
 51
270.0
  0
ARC
  8
0
 10
545.972031
 20
-992.543746
 30
0.0
 40
1.0
 50
315.0
 51
90.0
  0
ARC
  8
0
 10
836.386244
 20
-1001.786387
 30
0.0
 40
3.0
 50
0.0
 51
45.0
  0
ARC
  8
0
 10
833.889808
 20
-1001.821673
 30
0.0
 40
2.0
 50
0.0
 51
45.0
  0
ARC
  8
0
 10
813.72939
 20
-994.543746
 30
0.0
 40
3.0
 50
45.0
 51
90.0
  0
ARC
  8
0
 10
820.386244
 20
-992.043746
 30
0.0
 40
0.5
 50
90.0
 51
180.0
  0
ARC
  8
0
 10
825.613155
 20
-993.543746
 30
0.0
 40
2.0
 50
45.0
 51
90.0
  0
ARC
  8
0
 10
835.886244
 20
-988.45796
 30
0.0
 40
1.0
 50
0.0
 51
45.0
  0
ARC
  8
0
 10
833.972031
 20
-986.543746
 30
0.0
 40
1.0
 50
45.0
 51
90.0
  0
ARC
  8
0
 10
815.593351
 20
-990.043746
 30
0.0
 40
0.5
 50
45.0
 51
90.0
  0
ARC
  8
0
 10
782.886244
 20
-990.543746
 30
0.0
 40
1.0
 50
180.0
 51
270.0
  0
ARC
  8
0
 10
782.886244
 20
-986.543746
 30
0.0
 40
1.0
 50
90.0
 51
180.0
  0
ARC
  8
0
 10
835.886244
 20
-990.543746
 30
0.0
 40
1.0
 50
270.0
 51
0.0
  0
ARC
  8
0
 10
832.800458
 20
-992.543746
 30
0.0
 40
1.0
 50
90.0
 51
225.0
  0
ARC
  8
0
 10
833.886244
 20
-1040.043746
 30
0.0
 40
2.0
 50
270.0
 51
0.0
  0
ARC
  8
0
 10
836.386244
 20
-1042.543746
 30
0.0
 40
3.0
 50
270.0
 51
0.0
  0
LINE
  8
0
 10
839.386244
 20
-984.043746
 30
0.0
 11
839.386244
 21
-995.543746
 31
0.0
  0
LINE
  8
0
 10
541.724484
 20
-981.543746
 30
0.0
 11
836.886244
 21
-981.543746
 31
0.0
  0
LINE
  8
0
 10
835.386244
 20
-984.043746
 30
0.0
 11
543.224484
 21
-984.043746
 31
0.0
  0
LINE
  8
0
 10
835.972031
 20
-996.95796
 30
0.0
 11
832.161371
 21
-993.1473
 31
0.0
  0
LINE
  8
0
 10
832.825584
 20
-991.543746
 30
0.0
 11
836.286244
 21
-991.543746
 31
0.0
  0
LINE
  8
0
 10
836.710509
 20
-992.56801
 30
0.0
 11
835.560509
 21
-993.71801
 31
0.0
  0
LINE
  8
0
 10
835.560509
 20
-993.71801
 30
0.0
 11
836.886244
 21
-995.043746
 31
0.0
  0
LINE
  8
0
 10
836.886244
 20
-995.043746
 30
0.0
 11
836.886244
 21
-985.543746
 31
0.0
  0
LINE
  8
0
 10
546.449358
 20
-993.1473
 30
0.0
 11
542.638698
 21
-996.95796
 31
0.0
  0
LINE
  8
0
 10
542.324484
 20
-991.543746
 30
0.0
 11
545.785144
 21
-991.543746
 31
0.0
  0
LINE
  8
0
 10
543.05022
 20
-993.71801
 30
0.0
 11
541.90022
 21
-992.56801
 31
0.0
  0
LINE
  8
0
 10
541.724484
 20
-995.043746
 30
0.0
 11
543.05022
 21
-993.71801
 31
0.0
  0
LINE
  8
0
 10
541.724484
 20
-985.543746
 30
0.0
 11
541.724484
 21
-995.043746
 31
0.0
  0
LINE
  8
0
 10
539.224484
 20
-995.543746
 30
0.0
 11
539.224484
 21
-984.043746
 31
0.0
  0
ARC
  8
0
 10
832.825584
 20
-992.483086
 30
0.0
 40
0.93934
 50
180.866301
 51
225.0
  0
ARC
  8
0
 10
836.286244
 20
-992.143746
 30
0.0
 40
0.6
 50
315.0
 51
90.0
  0
ARC
  8
0
 10
837.386244
 20
-995.543746
 30
0.0
 40
2.0
 50
225.0
 51
0.0
  0
ARC
  8
0
 10
545.785144
 20
-992.483086
 30
0.0
 40
0.93934
 50
359.820102
 51
90.0
  0
ARC
  8
0
 10
542.324484
 20
-992.143746
 30
0.0
 40
0.6
 50
90.0
 51
225.0
  0
ARC
  8
0
 10
541.224484
 20
-995.543746
 30
0.0
 40
2.0
 50
180.0
 51
315.0
  0
ARC
  8
0
 10
545.785144
 20
-992.483086
 30
0.0
 40
0.93934
 50
315.0
 51
359.820102
  0
ARC
  8
0
 10
832.825584
 20
-992.483086
 30
0.0
 40
0.93934
 50
90.0
 51
180.866301
  0
ARC
  8
0
 10
836.886244
 20
-984.043746
 30
0.0
 40
2.5
 50
0.0
 51
90.0
  0
ARC
  8
0
 10
541.724484
 20
-984.043746
 30
0.0
 40
2.5
 50
90.0
 51
180.0
  0
ARC
  8
0
 10
835.386244
 20
-985.543746
 30
0.0
 40
1.5
 50
0.0
 51
90.0
  0
ARC
  8
0
 10
543.224484
 20
-985.543746
 30
0.0
 40
1.5
 50
90.0
 51
180.0
  0
LINE
  8
0
 10
529.475592
 20
-1045.543746
 30
0.0
 11
843.975592
 21
-1045.543746
 31
0.0
  0
LINE
  8
0
 10
530.975592
 20
-1045.543746
 30
0.0
 11
530.975592
 21
-1039.043746
 31
0.0
  0
LINE
  8
0
 10
843.975592
 20
-1045.543746
 30
0.0
 11
843.975592
 21
-1055.543746
 31
0.0
  0
LINE
  8
0
 10
840.744516
 20
-1060.22038
 30
0.0
 11
529.475592
 21
-1121.65558
 31
0.0
  0
ARC
  8
0
 10
529.475592
 20
-1039.043746
 30
0.0
 40
1.5
 50
0.0
 51
90.0
  0
ARC
  8
0
 10
838.975592
 20
-1055.543746
 30
0.0
 40
5.0
 50
290.718978
 51
0.0
  0
LINE
  8
0
 10
638.084341
 20
-1038.043746
 30
0.0
 11
663.084341
 21
-1038.043746
 31
0.0
  0
LINE
  8
0
 10
634.084341
 20
-1003.529028
 30
0.0
 11
634.084341
 21
-1034.043746
 31
0.0
  0
LINE
  8
0
 10
641.241195
 20
-995.543746
 30
0.0
 11
634.670127
 21
-1002.114814
 31
0.0
  0
LINE
  8
0
 10
642.084341
 20
-995.543746
 30
0.0
 11
641.241195
 21
-995.543746
 31
0.0
  0
LINE
  8
0
 10
646.084341
 20
-992.543746
 30
0.0
 11
646.084341
 21
-995.543746
 31
0.0
  0
LINE
  8
0
 10
640.412768
 20
-991.543746
 30
0.0
 11
645.084341
 21
-991.543746
 31
0.0
  0
LINE
  8
0
 10
631.8417
 20
-999.286387
 30
0.0
 11
638.998554
 21
-992.129533
 31
0.0
  0
LINE
  8
0
 10
630.084341
 20
-1034.043746
 30
0.0
 11
630.084341
 21
-1003.529028
 31
0.0
  0
LINE
  8
0
 10
663.084341
 20
-1042.043746
 30
0.0
 11
638.084341
 21
-1042.043746
 31
0.0
  0
ARC
  8
0
 10
636.084341
 20
-1003.529028
 30
0.0
 40
2.0
 50
135.0
 51
180.0
  0
ARC
  8
0
 10
638.084341
 20
-1034.043746
 30
0.0
 40
4.0
 50
180.0
 51
270.0
  0
ARC
  8
0
 10
638.084341
 20
-1034.043746
 30
0.0
 40
8.0
 50
180.0
 51
270.0
  0
ARC
  8
0
 10
636.084341
 20
-1003.529028
 30
0.0
 40
6.0
 50
135.0
 51
180.0
  0
ARC
  8
0
 10
645.084341
 20
-992.543746
 30
0.0
 40
1.0
 50
0.0
 51
90.0
  0
ARC
  8
0
 10
640.412768
 20
-993.543746
 30
0.0
 40
2.0
 50
90.0
 51
135.0
  0
ARC
  8
0
 10
644.084341
 20
-995.543746
 30
0.0
 40
2.0
 50
180.0
 51
0.0
  0
ARC
  8
0
 10
663.084341
 20
-1040.043746
 30
0.0
 40
2.0
 50
0.0
 51
90.0
  0
ARC
  8
0
 10
663.084341
 20
-1040.043746
 30
0.0
 40
2.0
 50
270.0
 51
0.0
  0
LINE
  8
0
 10
428.975592
 20
-744.821665
 30
0.0
 11
433.247594
 21
-740.549662
 31
0.0
  0
LINE
  8
0
 10
428.975592
 20
-758.963801
 30
0.0
 11
447.38973
 21
-740.549662
 31
0.0
  0
LINE
  8
0
 10
436.531866
 20
-765.549662
 30
0.0
 11
461.531866
 21
-740.549662
 31
0.0
  0
LINE
  8
0
 10
450.674001
 20
-765.549662
 30
0.0
 11
475.674001
 21
-740.549662
 31
0.0
  0
LINE
  8
0
 10
464.816137
 20
-765.549662
 30
0.0
 11
489.816137
 21
-740.549662
 31
0.0
  0
LINE
  8
0
 10
478.958272
 20
-765.549662
 30
0.0
 11
503.958272
 21
-740.549662
 31
0.0
  0
LINE
  8
0
 10
493.100408
 20
-765.549662
 30
0.0
 11
518.100408
 21
-740.549662
 31
0.0
  0
LINE
  8
0
 10
507.242544
 20
-765.549662
 30
0.0
 11
532.242544
 21
-740.549662
 31
0.0
  0
LINE
  8
0
 10
521.384679
 20
-765.549662
 30
0.0
 11
546.384679
 21
-740.549662
 31
0.0
  0
LINE
  8
0
 10
535.526815
 20
-765.549662
 30
0.0
 11
560.526815
 21
-740.549662
 31
0.0
  0
LINE
  8
0
 10
549.668951
 20
-765.549662
 30
0.0
 11
574.668951
 21
-740.549662
 31
0.0
  0
LINE
  8
0
 10
563.811086
 20
-765.549662
 30
0.0
 11
588.811086
 21
-740.549662
 31
0.0
  0
LINE
  8
0
 10
577.953222
 20
-765.549662
 30
0.0
 11
602.953222
 21
-740.549662
 31
0.0
  0
LINE
  8
0
 10
592.095357
 20
-765.549662
 30
0.0
 11
617.095357
 21
-740.549662
 31
0.0
  0
LINE
  8
0
 10
606.237493
 20
-765.549662
 30
0.0
 11
631.237493
 21
-740.549662
 31
0.0
  0
LINE
  8
0
 10
620.379629
 20
-765.549662
 30
0.0
 11
645.379629
 21
-740.549662
 31
0.0
  0
LINE
  8
0
 10
634.521764
 20
-765.549662
 30
0.0
 11
659.521764
 21
-740.549662
 31
0.0
  0
LINE
  8
0
 10
648.6639
 20
-765.549662
 30
0.0
 11
673.6639
 21
-740.549662
 31
0.0
  0
LINE
  8
0
 10
662.806036
 20
-765.549662
 30
0.0
 11
687.806036
 21
-740.549662
 31
0.0
  0
LINE
  8
0
 10
676.948171
 20
-765.549662
 30
0.0
 11
701.948171
 21
-740.549662
 31
0.0
  0
LINE
  8
0
 10
691.090307
 20
-765.549662
 30
0.0
 11
708.975592
 21
-747.664378
 31
0.0
  0
LINE
  8
0
 10
705.232442
 20
-765.549662
 30
0.0
 11
708.975592
 21
-761.806513
 31
0.0
  0
LINE
  8
0
 10
529.475592
 20
-848.407383
 30
0.0
 11
529.475592
 21
-1187.830198
 31
0.0
  0
LINE
  8
0
 10
479.475592
 20
-1187.830198
 30
0.0
 11
479.475592
 21
-868.850225
 31
0.0
  0
LINE
  8
0
 10
479.475592
 20
-1187.830198
 30
0.0
 11
480.975592
 21
-1187.830198
 31
0.0
  0
LINE
  8
0
 10
480.975592
 20
-1187.830198
 30
0.0
 11
480.975592
 21
-871.12944
 31
0.0
  0
LINE
  8
0
 10
480.975592
 20
-1187.830198
 30
0.0
 11
529.475592
 21
-1187.830198
 31
0.0
  0
CIRCLE
  8
0
 10
499.975592
 20
-862.543746
 30
0.0
 40
5.25
  0
CIRCLE
  8
0
 10
499.975592
 20
-912.543746
 30
0.0
 40
5.25
  0
CIRCLE
  8
0
 10
499.975592
 20
-962.543746
 30
0.0
 40
5.25
  0
CIRCLE
  8
0
 10
499.975592
 20
-1012.543746
 30
0.0
 40
5.25
  0
CIRCLE
  8
0
 10
499.975592
 20
-1062.543746
 30
0.0
 40
5.25
  0
CIRCLE
  8
0
 10
499.975592
 20
-1112.543746
 30
0.0
 40
5.25
  0
CIRCLE
  8
0
 10
499.975592
 20
-1162.543746
 30
0.0
 40
5.25
  0
LINE
  8
0
 10
491.439693
 20
-767.543746
 30
0.0
 11
507.975592
 21
-767.543746
 31
0.0
  0
LINE
  8
0
 10
487.975592
 20
-765.543746
 30
0.0
 11
459.975592
 21
-765.543746
 31
0.0
  0
LINE
  8
0
 10
459.975592
 20
-824.543746
 30
0.0
 11
479.347642
 21
-868.571132
 31
0.0
  0
LINE
  8
0
 10
459.975592
 20
-765.543746
 30
0.0
 11
459.975592
 21
-824.543746
 31
0.0
  0
LINE
  8
0
 10
539.975592
 20
-765.543746
 30
0.0
 11
511.439693
 21
-765.543746
 31
0.0
  0
LINE
  8
0
 10
539.975592
 20
-824.543746
 30
0.0
 11
539.975592
 21
-765.543746
 31
0.0
  0
LINE
  8
0
 10
520.603542
 20
-868.571132
 30
0.0
 11
539.975592
 21
-824.543746
 31
0.0
  0
LINE
  8
0
 10
488.500792
 20
-874.543746
 30
0.0
 11
511.450391
 21
-874.543746
 31
0.0
  0
ARC
  8
0
 10
499.975592
 20
-862.543746
 30
0.0
 40
54.25
 50
90.0
 51
110.0
  0
ARC
  8
0
 10
482.874584
 20
-815.559115
 30
0.0
 40
4.25
 50
110.0
 51
290.0
  0
ARC
  8
0
 10
499.975592
 20
-862.543746
 30
0.0
 40
45.75
 50
90.0
 51
110.0
  0
ARC
  8
0
 10
499.975592
 20
-812.543746
 30
0.0
 40
4.25
 50
270.0
 51
90.0
  0
CIRCLE
  8
0
 10
499.975592
 20
-862.543746
 30
0.0
 40
4.25
  0
ARC
  8
0
 10
511.439693
 20
-767.543746
 30
0.0
 40
2.0
 50
90.0
 51
150.0
  0
ARC
  8
0
 10
507.975592
 20
-765.543746
 30
0.0
 40
2.0
 50
270.0
 51
330.0
  0
ARC
  8
0
 10
491.439693
 20
-765.543746
 30
0.0
 40
2.0
 50
210.0
 51
270.0
  0
ARC
  8
0
 10
487.975592
 20
-767.543746
 30
0.0
 40
2.0
 50
30.0
 51
90.0
  0
ARC
  8
0
 10
488.500792
 20
-864.543746
 30
0.0
 40
10.0
 50
203.749494
 51
270.0
  0
ARC
  8
0
 10
511.450391
 20
-864.543746
 30
0.0
 40
10.0
 50
270.0
 51
336.250506
  0
LINE
  8
0
 10
750.284583
 20
-1042.043746
 30
0.0
 11
725.284583
 21
-1042.043746
 31
0.0
  0
LINE
  8
0
 10
717.284583
 20
-1034.043746
 30
0.0
 11
717.284583
 21
-1003.529028
 31
0.0
  0
LINE
  8
0
 10
719.041943
 20
-999.286387
 30
0.0
 11
726.198797
 21
-992.129533
 31
0.0
  0
LINE
  8
0
 10
727.61301
 20
-991.543746
 30
0.0
 11
732.284583
 21
-991.543746
 31
0.0
  0
LINE
  8
0
 10
733.284583
 20
-992.543746
 30
0.0
 11
733.284583
 21
-995.543746
 31
0.0
  0
LINE
  8
0
 10
729.284583
 20
-995.543746
 30
0.0
 11
728.441437
 21
-995.543746
 31
0.0
  0
LINE
  8
0
 10
728.441437
 20
-995.543746
 30
0.0
 11
721.87037
 21
-1002.114814
 31
0.0
  0
LINE
  8
0
 10
721.284583
 20
-1003.529028
 30
0.0
 11
721.284583
 21
-1034.043746
 31
0.0
  0
LINE
  8
0
 10
725.284583
 20
-1038.043746
 30
0.0
 11
750.284583
 21
-1038.043746
 31
0.0
  0
ARC
  8
0
 10
750.284583
 20
-1040.043746
 30
0.0
 40
2.0
 50
270.0
 51
0.0
  0
ARC
  8
0
 10
750.284583
 20
-1040.043746
 30
0.0
 40
2.0
 50
0.0
 51
90.0
  0
ARC
  8
0
 10
731.284583
 20
-995.543746
 30
0.0
 40
2.0
 50
180.0
 51
0.0
  0
ARC
  8
0
 10
727.61301
 20
-993.543746
 30
0.0
 40
2.0
 50
90.0
 51
135.0
  0
ARC
  8
0
 10
732.284583
 20
-992.543746
 30
0.0
 40
1.0
 50
0.0
 51
90.0
  0
ARC
  8
0
 10
723.284583
 20
-1003.529028
 30
0.0
 40
6.0
 50
135.0
 51
180.0
  0
ARC
  8
0
 10
725.284583
 20
-1034.043746
 30
0.0
 40
8.0
 50
180.0
 51
270.0
  0
ARC
  8
0
 10
725.284583
 20
-1034.043746
 30
0.0
 40
4.0
 50
180.0
 51
270.0
  0
ARC
  8
0
 10
723.284583
 20
-1003.529028
 30
0.0
 40
2.0
 50
135.0
 51
180.0
  0
ENDSEC
  0
EOF
