  0
SECTION
  2
HEADER
  9
$ACADVER
  1
AC1009
  9
$INSBASE
 10
0.0
 20
0.0
 30
0.0
  9
$EXTMIN
 10
-862.34746
 20
-1647.710524
 30
0.0
  9
$EXTMAX
 10
-464.352121
 20
-1308.549662
 30
0.0
  9
$LIMMIN
 10
-862.34746
 20
-1637.976505
  9
$LIMMAX
 10
-464.352121
 20
-1308.549662
  9
$ORTHOMODE
 70
     0
  9
$REGENMODE
 70
     1
  9
$FILLMODE
 70
     1
  9
$QTEXTMODE
 70
     0
  9
$MIRRTEXT
 70
     1
  9
$DRAGMODE
 70
     2
  9
$LTSCALE
 40
1.0
  9
$OSMODE
 70
     0
  9
$ATTMODE
 70
     1
  9
$TEXTSIZE
 40
3.5
  9
$TRACEWID
 40
0.5
  9
$TEXTSTYLE
  7
STANDARD
  9
$CLAYER
  8
0
  9
$CELTYPE
  6
BYLAYER
  9
$CECOLOR
 62
   256
  9
$DIMSCALE
 40
1.0
  9
$DIMASZ
 40
0.18
  9
$DIMEXO
 40
0.0625
  9
$DIMDLI
 40
0.38
  9
$DIMRND
 40
0.0
  9
$DIMDLE
 40
0.0
  9
$DIMEXE
 40
0.18
  9
$DIMTP
 40
0.0
  9
$DIMTM
 40
0.0
  9
$DIMTXT
 40
0.18
  9
$DIMCEN
 40
0.09
  9
$DIMTSZ
 40
0.0
  9
$DIMTOL
 70
     0
  9
$DIMLIM
 70
     0
  9
$DIMTIH
 70
     1
  9
$DIMTOH
 70
     1
  9
$DIMSE1
 70
     0
  9
$DIMSE2
 70
     0
  9
$DIMTAD
 70
     0
  9
$DIMZIN
 70
     0
  9
$DIMBLK
  1

  9
$DIMASO
 70
     1
  9
$DIMSHO
 70
     1
  9
$DIMPOST
  1

  9
$DIMAPOST
  1

  9
$DIMALT
 70
     0
  9
$DIMALTD
 70
     2
  9
$DIMALTF
 40
25.4
  9
$DIMLFAC
 40
1.0
  9
$DIMTOFL
 70
     0
  9
$DIMTVP
 40
0.0
  9
$DIMTIX
 70
     0
  9
$DIMSOXD
 70
     0
  9
$DIMSAH
 70
     0
  9
$DIMBLK1
  1

  9
$DIMBLK2
  1

  9
$DIMSTYLE
  2
*UNNAMED
  9
$DIMCLRD
 70
     0
  9
$DIMCLRE
 70
     0
  9
$DIMCLRT
 70
     0
  9
$DIMTFAC
 40
1.0
  9
$DIMGAP
 40
0.09
  9
$LUNITS
 70
     2
  9
$LUPREC
 70
     4
  9
$SKETCHINC
 40
0.1
  9
$FILLETRAD
 40
2.0
  9
$AUNITS
 70
     0
  9
$AUPREC
 70
     0
  9
$MENU
  1
ACAD
  9
$ELEVATION
 40
0.0
  9
$PELEVATION
 40
0.0
  9
$THICKNESS
 40
0.0
  9
$LIMCHECK
 70
     0
  9
$BLIPMODE
 70
     1
  9
$CHAMFERA
 40
0.0
  9
$CHAMFERB
 40
0.0
  9
$SKPOLY
 70
     0
  9
$TDCREATE
 40
2450948.530035995
  9
$TDUPDATE
 40
2450948.530503241
  9
$TDINDWG
 40
0.0002859954
  9
$TDUSRTIMER
 40
0.0002859954
  9
$USRTIMER
 70
     1
  9
$ANGBASE
 50
0.0
  9
$ANGDIR
 70
     0
  9
$PDMODE
 70
     0
  9
$PDSIZE
 40
0.0
  9
$PLINEWID
 40
0.0
  9
$COORDS
 70
     2
  9
$SPLFRAME
 70
     0
  9
$SPLINETYPE
 70
     6
  9
$SPLINESEGS
 70
     8
  9
$ATTDIA
 70
     0
  9
$ATTREQ
 70
     1
  9
$HANDLING
 70
     0
  9
$HANDSEED
  5
0
  9
$SURFTAB1
 70
     6
  9
$SURFTAB2
 70
     6
  9
$SURFTYPE
 70
     6
  9
$SURFU
 70
     6
  9
$SURFV
 70
     6
  9
$UCSNAME
  2

  9
$UCSORG
 10
0.0
 20
0.0
 30
0.0
  9
$UCSXDIR
 10
1.0
 20
0.0
 30
0.0
  9
$UCSYDIR
 10
0.0
 20
1.0
 30
0.0
  9
$PUCSNAME
  2

  9
$PUCSORG
 10
0.0
 20
0.0
 30
0.0
  9
$PUCSXDIR
 10
1.0
 20
0.0
 30
0.0
  9
$PUCSYDIR
 10
0.0
 20
1.0
 30
0.0
  9
$USERI1
 70
     0
  9
$USERI2
 70
     0
  9
$USERI3
 70
     0
  9
$USERI4
 70
     0
  9
$USERI5
 70
     0
  9
$USERR1
 40
0.0
  9
$USERR2
 40
0.0
  9
$USERR3
 40
0.0
  9
$USERR4
 40
0.0
  9
$USERR5
 40
0.0
  9
$WORLDVIEW
 70
     1
  9
$SHADEDGE
 70
     3
  9
$SHADEDIF
 70
    70
  9
$TILEMODE
 70
     1
  9
$MAXACTVP
 70
    16
  9
$PINSBASE
 10
0.0
 20
0.0
 30
0.0
  9
$PLIMCHECK
 70
     0
  9
$PEXTMIN
 10
1.000000E+20
 20
1.000000E+20
 30
1.000000E+20
  9
$PEXTMAX
 10
-1.000000E+20
 20
-1.000000E+20
 30
-1.000000E+20
  9
$PLIMMIN
 10
0.0
 20
0.0
  9
$PLIMMAX
 10
420.0
 20
297.0
  9
$UNITMODE
 70
     0
  9
$VISRETAIN
 70
     0
  9
$PLINEGEN
 70
     0
  9
$PSLTSCALE
 70
     1
  9
$TREEDEPTH
 70
  3020
  9
$DWGCODEPAGE
  3
iso8859-1
  0
ENDSEC
  0
SECTION
  2
TABLES
  0
TABLE
  2
VPORT
 70
     2
  0
VPORT
  2
*ACTIVE
 70
     0
 10
0.0
 20
0.0
 11
1.0
 21
1.0
 12
-586.559451
 22
-1461.694603
 13
0.0
 23
0.0
 14
1.0
 24
1.0
 15
0.0
 25
0.0
 16
0.0
 26
0.0
 36
1.0
 17
0.0
 27
0.0
 37
0.0
 40
447.061254
 41
1.748359
 42
50.0
 43
0.0
 44
0.0
 50
0.0
 51
0.0
 71
     0
 72
   100
 73
     1
 74
     0
 75
     0
 76
     0
 77
     0
 78
     0
  0
ENDTAB
  0
TABLE
  2
LTYPE
 70
     1
  0
LTYPE
  2
CONTINUOUS
 70
    64
  3
Solid line
 72
    65
 73
     0
 40
0.0
  0
ENDTAB
  0
TABLE
  2
LAYER
 70
     1
  0
LAYER
  2
0
 70
    64
 62
     7
  6
CONTINUOUS
  0
ENDTAB
  0
TABLE
  2
STYLE
 70
     1
  0
STYLE
  2
STANDARD
 70
     0
 40
0.0
 41
1.0
 50
0.0
 71
     0
 42
3.5
  3
txt
  4

  0
ENDTAB
  0
TABLE
  2
VIEW
 70
     0
  0
ENDTAB
  0
TABLE
  2
UCS
 70
     0
  0
ENDTAB
  0
TABLE
  2
APPID
 70
     1
  0
APPID
  2
ACAD
 70
    64
  0
ENDTAB
  0
TABLE
  2
DIMSTYLE
 70
     0
  0
ENDTAB
  0
ENDSEC
  0
SECTION
  2
BLOCKS
  0
ENDSEC
  0
SECTION
  2
ENTITIES
  0
LINE
  8
0
 10
-764.852121
 20
-1615.976505
 30
0.0
 11
-470.852121
 21
-1615.976505
 31
0.0
  0
LINE
  8
0
 10
-762.352121
 20
-1612.476505
 30
0.0
 11
-473.352121
 21
-1612.476505
 31
0.0
  0
LINE
  8
0
 10
-746.352121
 20
-1562.062291
 30
0.0
 11
-746.352121
 21
-1558.976505
 31
0.0
  0
LINE
  8
0
 10
-746.352121
 20
-1562.062291
 30
0.0
 11
-744.412781
 21
-1560.122951
 31
0.0
  0
LINE
  8
0
 10
-744.059228
 20
-1559.976505
 30
0.0
 11
-712.352121
 21
-1559.976505
 31
0.0
  0
LINE
  8
0
 10
-748.352121
 20
-1559.976505
 30
0.0
 11
-748.352121
 21
-1558.976505
 31
0.0
  0
LINE
  8
0
 10
-712.352121
 20
-1559.976505
 30
0.0
 11
-712.352121
 21
-1557.976505
 31
0.0
  0
LINE
  8
0
 10
-762.023694
 20
-1557.976505
 30
0.0
 11
-712.352121
 21
-1557.976505
 31
0.0
  0
LINE
  8
0
 10
-763.352121
 20
-1559.976505
 30
0.0
 11
-748.352121
 21
-1559.976505
 31
0.0
  0
LINE
  8
0
 10
-763.352121
 20
-1559.304932
 30
0.0
 11
-763.352121
 21
-1559.976505
 31
0.0
  0
LINE
  8
0
 10
-762.023694
 20
-1557.976505
 30
0.0
 11
-763.352121
 21
-1559.304932
 31
0.0
  0
LINE
  8
0
 10
-711.352121
 20
-1555.976505
 30
0.0
 11
-762.437907
 21
-1555.976505
 31
0.0
  0
LINE
  8
0
 10
-742.195267
 20
-1561.976505
 30
0.0
 11
-711.352121
 21
-1561.976505
 31
0.0
  0
LINE
  8
0
 10
-746.645014
 20
-1565.183612
 30
0.0
 11
-744.316587
 21
-1562.855184
 31
0.0
  0
LINE
  8
0
 10
-748.352121
 20
-1562.476505
 30
0.0
 11
-748.352121
 21
-1564.476505
 31
0.0
  0
LINE
  8
0
 10
-710.352121
 20
-1556.976505
 30
0.0
 11
-710.352121
 21
-1560.976505
 31
0.0
  0
LINE
  8
0
 10
-754.079031
 20
-1561.976505
 30
0.0
 11
-748.852121
 21
-1561.976505
 31
0.0
  0
LINE
  8
0
 10
-763.145014
 20
-1556.269398
 30
0.0
 11
-765.059228
 21
-1558.183612
 31
0.0
  0
LINE
  8
0
 10
-764.352121
 20
-1561.976505
 30
0.0
 11
-761.266334
 21
-1561.976505
 31
0.0
  0
LINE
  8
0
 10
-765.352121
 20
-1558.890718
 30
0.0
 11
-765.352121
 21
-1560.976505
 31
0.0
  0
LINE
  8
0
 10
-764.355684
 20
-1572.254432
 30
0.0
 11
-764.352121
 21
-1610.476505
 31
0.0
  0
LINE
  8
0
 10
-763.769898
 20
-1570.840218
 30
0.0
 11
-755.493245
 21
-1562.562291
 31
0.0
  0
LINE
  8
0
 10
-766.973441
 20
-1570.097825
 30
0.0
 11
-760.559228
 21
-1563.683612
 31
0.0
  0
LINE
  8
0
 10
-767.852121
 20
-1612.976505
 30
0.0
 11
-767.852121
 21
-1572.219145
 31
0.0
  0
LINE
  8
0
 10
-489.352121
 20
-1558.976505
 30
0.0
 11
-489.352121
 21
-1562.062291
 31
0.0
  0
LINE
  8
0
 10
-491.291461
 20
-1560.122951
 30
0.0
 11
-489.352121
 21
-1562.062291
 31
0.0
  0
LINE
  8
0
 10
-523.352121
 20
-1559.976505
 30
0.0
 11
-491.645014
 21
-1559.976505
 31
0.0
  0
LINE
  8
0
 10
-487.352121
 20
-1558.976505
 30
0.0
 11
-487.352121
 21
-1559.976505
 31
0.0
  0
LINE
  8
0
 10
-523.352121
 20
-1557.976505
 30
0.0
 11
-523.352121
 21
-1559.976505
 31
0.0
  0
LINE
  8
0
 10
-523.352121
 20
-1557.976505
 30
0.0
 11
-473.680548
 21
-1557.976505
 31
0.0
  0
LINE
  8
0
 10
-487.352121
 20
-1559.976505
 30
0.0
 11
-472.352121
 21
-1559.976505
 31
0.0
  0
LINE
  8
0
 10
-472.352121
 20
-1559.976505
 30
0.0
 11
-472.352121
 21
-1559.304932
 31
0.0
  0
LINE
  8
0
 10
-472.352121
 20
-1559.304932
 30
0.0
 11
-473.680548
 21
-1557.976505
 31
0.0
  0
LINE
  8
0
 10
-473.266334
 20
-1555.976505
 30
0.0
 11
-524.352121
 21
-1555.976505
 31
0.0
  0
LINE
  8
0
 10
-524.352121
 20
-1561.976505
 30
0.0
 11
-493.508975
 21
-1561.976505
 31
0.0
  0
LINE
  8
0
 10
-491.387655
 20
-1562.855184
 30
0.0
 11
-489.059228
 21
-1565.183612
 31
0.0
  0
LINE
  8
0
 10
-487.352121
 20
-1564.476505
 30
0.0
 11
-487.352121
 21
-1562.476505
 31
0.0
  0
LINE
  8
0
 10
-525.352121
 20
-1560.976505
 30
0.0
 11
-525.352121
 21
-1556.976505
 31
0.0
  0
LINE
  8
0
 10
-486.852121
 20
-1561.976505
 30
0.0
 11
-481.62521
 21
-1561.976505
 31
0.0
  0
LINE
  8
0
 10
-470.645014
 20
-1558.183612
 30
0.0
 11
-472.559228
 21
-1556.269398
 31
0.0
  0
LINE
  8
0
 10
-474.437907
 20
-1561.976505
 30
0.0
 11
-471.352121
 21
-1561.976505
 31
0.0
  0
LINE
  8
0
 10
-470.352121
 20
-1560.976505
 30
0.0
 11
-470.352121
 21
-1558.890718
 31
0.0
  0
LINE
  8
0
 10
-480.210997
 20
-1562.562291
 30
0.0
 11
-471.934344
 21
-1570.840218
 31
0.0
  0
LINE
  8
0
 10
-475.145014
 20
-1563.683612
 30
0.0
 11
-468.7308
 21
-1570.097825
 31
0.0
  0
LINE
  8
0
 10
-467.852121
 20
-1572.219145
 30
0.0
 11
-467.852121
 21
-1612.976505
 31
0.0
  0
LINE
  8
0
 10
-471.352121
 20
-1610.476505
 30
0.0
 11
-471.348557
 21
-1572.254432
 31
0.0
  0
LINE
  8
0
 10
-689.34746
 20
-1333.498047
 30
0.0
 11
-581.34746
 21
-1333.498047
 31
0.0
  0
LINE
  8
0
 10
-778.34746
 20
-1333.498047
 30
0.0
 11
-862.34746
 21
-1333.498047
 31
0.0
  0
ARC
  8
0
 10
-747.352121
 20
-1564.476505
 30
0.0
 40
1.0
 50
180.0
 51
315.0
  0
ARC
  8
0
 10
-747.352121
 20
-1558.976505
 30
0.0
 40
1.0
 50
0.0
 51
180.0
  0
ARC
  8
0
 10
-488.352121
 20
-1564.476505
 30
0.0
 40
1.0
 50
225.0
 51
0.0
  0
ARC
  8
0
 10
-488.352121
 20
-1558.976505
 30
0.0
 40
1.0
 50
0.0
 51
180.0
  0
ARC
  8
0
 10
-764.852121
 20
-1572.219145
 30
0.0
 40
3.0
 50
135.0
 51
180.0
  0
ARC
  8
0
 10
-762.352121
 20
-1610.476505
 30
0.0
 40
2.0
 50
180.0
 51
270.0
  0
ARC
  8
0
 10
-764.852121
 20
-1612.976505
 30
0.0
 40
3.0
 50
180.0
 51
270.0
  0
ARC
  8
0
 10
-762.355684
 20
-1572.254432
 30
0.0
 40
2.0
 50
135.0
 51
180.0
  0
ARC
  8
0
 10
-742.195267
 20
-1564.976505
 30
0.0
 40
3.0
 50
90.0
 51
135.0
  0
ARC
  8
0
 10
-748.852121
 20
-1562.476505
 30
0.0
 40
0.5
 50
0.0
 51
90.0
  0
ARC
  8
0
 10
-754.079031
 20
-1563.976505
 30
0.0
 40
2.0
 50
90.0
 51
135.0
  0
ARC
  8
0
 10
-764.352121
 20
-1558.890718
 30
0.0
 40
1.0
 50
135.0
 51
180.0
  0
ARC
  8
0
 10
-762.437907
 20
-1556.976505
 30
0.0
 40
1.0
 50
90.0
 51
135.0
  0
ARC
  8
0
 10
-744.059228
 20
-1560.476505
 30
0.0
 40
0.5
 50
90.0
 51
135.0
  0
ARC
  8
0
 10
-711.352121
 20
-1560.976505
 30
0.0
 40
1.0
 50
270.0
 51
0.0
  0
ARC
  8
0
 10
-711.352121
 20
-1556.976505
 30
0.0
 40
1.0
 50
0.0
 51
90.0
  0
ARC
  8
0
 10
-764.352121
 20
-1560.976505
 30
0.0
 40
1.0
 50
180.0
 51
270.0
  0
ARC
  8
0
 10
-761.266334
 20
-1562.976505
 30
0.0
 40
1.0
 50
315.0
 51
90.0
  0
ARC
  8
0
 10
-470.852121
 20
-1572.219145
 30
0.0
 40
3.0
 50
0.0
 51
45.0
  0
ARC
  8
0
 10
-473.348557
 20
-1572.254432
 30
0.0
 40
2.0
 50
0.0
 51
45.0
  0
ARC
  8
0
 10
-493.508975
 20
-1564.976505
 30
0.0
 40
3.0
 50
45.0
 51
90.0
  0
ARC
  8
0
 10
-486.852121
 20
-1562.476505
 30
0.0
 40
0.5
 50
90.0
 51
180.0
  0
ARC
  8
0
 10
-481.62521
 20
-1563.976505
 30
0.0
 40
2.0
 50
45.0
 51
90.0
  0
ARC
  8
0
 10
-471.352121
 20
-1558.890718
 30
0.0
 40
1.0
 50
0.0
 51
45.0
  0
ARC
  8
0
 10
-473.266334
 20
-1556.976505
 30
0.0
 40
1.0
 50
45.0
 51
90.0
  0
ARC
  8
0
 10
-491.645014
 20
-1560.476505
 30
0.0
 40
0.5
 50
45.0
 51
90.0
  0
ARC
  8
0
 10
-524.352121
 20
-1560.976505
 30
0.0
 40
1.0
 50
180.0
 51
270.0
  0
ARC
  8
0
 10
-524.352121
 20
-1556.976505
 30
0.0
 40
1.0
 50
90.0
 51
180.0
  0
ARC
  8
0
 10
-471.352121
 20
-1560.976505
 30
0.0
 40
1.0
 50
270.0
 51
0.0
  0
ARC
  8
0
 10
-474.437907
 20
-1562.976505
 30
0.0
 40
1.0
 50
90.0
 51
225.0
  0
ARC
  8
0
 10
-473.352121
 20
-1610.476505
 30
0.0
 40
2.0
 50
270.0
 51
0.0
  0
ARC
  8
0
 10
-470.852121
 20
-1612.976505
 30
0.0
 40
3.0
 50
270.0
 51
0.0
  0
LINE
  8
0
 10
-467.852121
 20
-1554.476505
 30
0.0
 11
-467.852121
 21
-1565.976505
 31
0.0
  0
LINE
  8
0
 10
-765.513881
 20
-1551.976505
 30
0.0
 11
-470.352121
 21
-1551.976505
 31
0.0
  0
LINE
  8
0
 10
-471.852121
 20
-1554.476505
 30
0.0
 11
-764.013881
 21
-1554.476505
 31
0.0
  0
LINE
  8
0
 10
-471.266334
 20
-1567.390718
 30
0.0
 11
-475.076995
 21
-1563.580058
 31
0.0
  0
LINE
  8
0
 10
-474.412781
 20
-1561.976505
 30
0.0
 11
-470.952121
 21
-1561.976505
 31
0.0
  0
LINE
  8
0
 10
-470.527857
 20
-1563.000769
 30
0.0
 11
-471.677857
 21
-1564.150769
 31
0.0
  0
LINE
  8
0
 10
-471.677857
 20
-1564.150769
 30
0.0
 11
-470.352121
 21
-1565.476505
 31
0.0
  0
LINE
  8
0
 10
-470.352121
 20
-1565.476505
 30
0.0
 11
-470.352121
 21
-1555.976505
 31
0.0
  0
LINE
  8
0
 10
-760.789007
 20
-1563.580058
 30
0.0
 11
-764.599668
 21
-1567.390718
 31
0.0
  0
LINE
  8
0
 10
-764.913881
 20
-1561.976505
 30
0.0
 11
-761.453221
 21
-1561.976505
 31
0.0
  0
LINE
  8
0
 10
-764.188145
 20
-1564.150769
 30
0.0
 11
-765.338145
 21
-1563.000769
 31
0.0
  0
LINE
  8
0
 10
-765.513881
 20
-1565.476505
 30
0.0
 11
-764.188145
 21
-1564.150769
 31
0.0
  0
LINE
  8
0
 10
-765.513881
 20
-1555.976505
 30
0.0
 11
-765.513881
 21
-1565.476505
 31
0.0
  0
LINE
  8
0
 10
-768.013881
 20
-1565.976505
 30
0.0
 11
-768.013881
 21
-1554.476505
 31
0.0
  0
ARC
  8
0
 10
-474.412781
 20
-1562.915845
 30
0.0
 40
0.93934
 50
180.866301
 51
225.0
  0
ARC
  8
0
 10
-470.952121
 20
-1562.576505
 30
0.0
 40
0.6
 50
315.0
 51
90.0
  0
ARC
  8
0
 10
-469.852121
 20
-1565.976505
 30
0.0
 40
2.0
 50
225.0
 51
0.0
  0
ARC
  8
0
 10
-761.453221
 20
-1562.915845
 30
0.0
 40
0.93934
 50
359.820102
 51
90.0
  0
ARC
  8
0
 10
-764.913881
 20
-1562.576505
 30
0.0
 40
0.6
 50
90.0
 51
225.0
  0
ARC
  8
0
 10
-766.013881
 20
-1565.976505
 30
0.0
 40
2.0
 50
180.0
 51
315.0
  0
ARC
  8
0
 10
-761.453221
 20
-1562.915845
 30
0.0
 40
0.93934
 50
315.0
 51
359.820102
  0
ARC
  8
0
 10
-474.412781
 20
-1562.915845
 30
0.0
 40
0.93934
 50
90.0
 51
180.866301
  0
ARC
  8
0
 10
-470.352121
 20
-1554.476505
 30
0.0
 40
2.5
 50
0.0
 51
90.0
  0
ARC
  8
0
 10
-765.513881
 20
-1554.476505
 30
0.0
 40
2.5
 50
90.0
 51
180.0
  0
ARC
  8
0
 10
-471.852121
 20
-1555.976505
 30
0.0
 40
1.5
 50
0.0
 51
90.0
  0
ARC
  8
0
 10
-764.013881
 20
-1555.976505
 30
0.0
 40
1.5
 50
90.0
 51
180.0
  0
LINE
  8
0
 10
-769.34746
 20
-1628.976505
 30
0.0
 11
-467.627853
 21
-1628.976505
 31
0.0
  0
LINE
  8
0
 10
-464.352121
 20
-1637.976505
 30
0.0
 11
-464.352121
 21
-1615.976505
 31
0.0
  0
LINE
  8
0
 10
-794.34746
 20
-1501.976505
 30
0.0
 11
-816.34746
 21
-1501.976505
 31
0.0
  0
LINE
  8
0
 10
-794.34746
 20
-1590.976505
 30
0.0
 11
-794.34746
 21
-1501.976505
 31
0.0
  0
LINE
  8
0
 10
-769.34746
 20
-1615.976505
 30
0.0
 11
-464.352121
 21
-1615.976505
 31
0.0
  0
LINE
  8
0
 10
-464.352121
 20
-1637.976505
 30
0.0
 11
-769.34746
 21
-1637.976505
 31
0.0
  0
LINE
  8
0
 10
-816.34746
 20
-1590.976505
 30
0.0
 11
-816.34746
 21
-1501.976505
 31
0.0
  0
LINE
  8
0
 10
-816.34746
 20
-1501.976505
 30
0.0
 11
-807.34746
 21
-1505.252237
 31
0.0
  0
LINE
  8
0
 10
-807.34746
 20
-1505.252237
 30
0.0
 11
-807.34746
 21
-1590.976505
 31
0.0
  0
LINE
  8
0
 10
-467.627853
 20
-1628.976505
 30
0.0
 11
-464.352121
 21
-1637.976505
 31
0.0
  0
ARC
  8
0
 10
-769.34746
 20
-1590.976505
 30
0.0
 40
25.0
 50
180.0
 51
270.0
  0
ARC
  8
0
 10
-769.34746
 20
-1590.976505
 30
0.0
 40
38.0
 50
180.0
 51
270.0
  0
ARC
  8
0
 10
-769.34746
 20
-1590.976505
 30
0.0
 40
47.0
 50
180.0
 51
270.0
  0
LINE
  8
0
 10
-856.34746
 20
-1308.8958
 30
0.0
 11
-856.001322
 21
-1308.549662
 31
0.0
  0
LINE
  8
0
 10
-856.34746
 20
-1323.037936
 30
0.0
 11
-841.859187
 21
-1308.549662
 31
0.0
  0
LINE
  8
0
 10
-852.717051
 20
-1333.549662
 30
0.0
 11
-827.717051
 21
-1308.549662
 31
0.0
  0
LINE
  8
0
 10
-838.574916
 20
-1333.549662
 30
0.0
 11
-813.574916
 21
-1308.549662
 31
0.0
  0
LINE
  8
0
 10
-824.43278
 20
-1333.549662
 30
0.0
 11
-799.43278
 21
-1308.549662
 31
0.0
  0
LINE
  8
0
 10
-810.290644
 20
-1333.549662
 30
0.0
 11
-785.290644
 21
-1308.549662
 31
0.0
  0
LINE
  8
0
 10
-796.148509
 20
-1333.549662
 30
0.0
 11
-771.148509
 21
-1308.549662
 31
0.0
  0
LINE
  8
0
 10
-782.006373
 20
-1333.549662
 30
0.0
 11
-757.006373
 21
-1308.549662
 31
0.0
  0
LINE
  8
0
 10
-767.864237
 20
-1333.549662
 30
0.0
 11
-742.864237
 21
-1308.549662
 31
0.0
  0
LINE
  8
0
 10
-753.722102
 20
-1333.549662
 30
0.0
 11
-728.722102
 21
-1308.549662
 31
0.0
  0
LINE
  8
0
 10
-739.579966
 20
-1333.549662
 30
0.0
 11
-714.579966
 21
-1308.549662
 31
0.0
  0
LINE
  8
0
 10
-725.437831
 20
-1333.549662
 30
0.0
 11
-700.437831
 21
-1308.549662
 31
0.0
  0
LINE
  8
0
 10
-711.295695
 20
-1333.549662
 30
0.0
 11
-686.295695
 21
-1308.549662
 31
0.0
  0
LINE
  8
0
 10
-697.153559
 20
-1333.549662
 30
0.0
 11
-672.153559
 21
-1308.549662
 31
0.0
  0
LINE
  8
0
 10
-683.011424
 20
-1333.549662
 30
0.0
 11
-658.011424
 21
-1308.549662
 31
0.0
  0
LINE
  8
0
 10
-668.869288
 20
-1333.549662
 30
0.0
 11
-643.869288
 21
-1308.549662
 31
0.0
  0
LINE
  8
0
 10
-654.727152
 20
-1333.549662
 30
0.0
 11
-629.727152
 21
-1308.549662
 31
0.0
  0
LINE
  8
0
 10
-640.585017
 20
-1333.549662
 30
0.0
 11
-615.585017
 21
-1308.549662
 31
0.0
  0
LINE
  8
0
 10
-626.442881
 20
-1333.549662
 30
0.0
 11
-601.442881
 21
-1308.549662
 31
0.0
  0
LINE
  8
0
 10
-612.300746
 20
-1333.549662
 30
0.0
 11
-587.300746
 21
-1308.549662
 31
0.0
  0
LINE
  8
0
 10
-598.15861
 20
-1333.549662
 30
0.0
 11
-576.34746
 21
-1311.738513
 31
0.0
  0
LINE
  8
0
 10
-584.016474
 20
-1333.549662
 30
0.0
 11
-576.34746
 21
-1325.880649
 31
0.0
  0
LINE
  8
0
 10
-816.34746
 20
-1380.498047
 30
0.0
 11
-816.34746
 21
-1582.217654
 31
0.0
  0
LINE
  8
0
 10
-825.34746
 20
-1585.493386
 30
0.0
 11
-816.34746
 21
-1585.493386
 31
0.0
  0
LINE
  8
0
 10
-689.34746
 20
-1355.498047
 30
0.0
 11
-689.34746
 21
-1333.498047
 31
0.0
  0
LINE
  8
0
 10
-778.34746
 20
-1355.498047
 30
0.0
 11
-689.34746
 21
-1355.498047
 31
0.0
  0
LINE
  8
0
 10
-803.34746
 20
-1380.498047
 30
0.0
 11
-803.34746
 21
-1501.976505
 31
0.0
  0
LINE
  8
0
 10
-825.34746
 20
-1585.493386
 30
0.0
 11
-825.34746
 21
-1380.498047
 31
0.0
  0
LINE
  8
0
 10
-778.34746
 20
-1333.498047
 30
0.0
 11
-689.34746
 21
-1333.498047
 31
0.0
  0
LINE
  8
0
 10
-689.34746
 20
-1333.498047
 30
0.0
 11
-692.623193
 21
-1342.498047
 31
0.0
  0
LINE
  8
0
 10
-692.623193
 20
-1342.498047
 30
0.0
 11
-778.34746
 21
-1342.498047
 31
0.0
  0
LINE
  8
0
 10
-816.34746
 20
-1582.217654
 30
0.0
 11
-825.34746
 21
-1585.493386
 31
0.0
  0
ARC
  8
0
 10
-778.34746
 20
-1380.498047
 30
0.0
 40
25.0
 50
90.0
 51
180.0
  0
ARC
  8
0
 10
-778.34746
 20
-1380.498047
 30
0.0
 40
38.0
 50
90.0
 51
180.0
  0
ARC
  8
0
 10
-778.34746
 20
-1380.498047
 30
0.0
 40
47.0
 50
90.0
 51
180.0
  0
ENDSEC
  0
EOF
