  0
SECTION
  2
HEADER
  9
$ACADVER
  1
AC1009
  9
$INSBASE
 10
0.0
 20
0.0
 30
0.0
  9
$EXTMIN
 10
-842.84746
 20
-1187.830198
 30
0.0
  9
$EXTMAX
 10
-427.118248
 20
-740.549662
 30
0.0
  9
$LIMMIN
 10
-842.84746
 20
-1187.830198
  9
$LIMMAX
 10
-427.84746
 20
-740.549662
  9
$ORTHOMODE
 70
     0
  9
$REGENMODE
 70
     1
  9
$FILLMODE
 70
     1
  9
$QTEXTMODE
 70
     0
  9
$MIRRTEXT
 70
     1
  9
$DRAGMODE
 70
     2
  9
$LTSCALE
 40
1.0
  9
$OSMODE
 70
     0
  9
$ATTMODE
 70
     1
  9
$TEXTSIZE
 40
3.5
  9
$TRACEWID
 40
0.5
  9
$TEXTSTYLE
  7
STANDARD
  9
$CLAYER
  8
0
  9
$CELTYPE
  6
BYLAYER
  9
$CECOLOR
 62
   256
  9
$DIMSCALE
 40
1.0
  9
$DIMASZ
 40
0.18
  9
$DIMEXO
 40
0.0625
  9
$DIMDLI
 40
0.38
  9
$DIMRND
 40
0.0
  9
$DIMDLE
 40
0.0
  9
$DIMEXE
 40
0.18
  9
$DIMTP
 40
0.0
  9
$DIMTM
 40
0.0
  9
$DIMTXT
 40
0.18
  9
$DIMCEN
 40
0.09
  9
$DIMTSZ
 40
0.0
  9
$DIMTOL
 70
     0
  9
$DIMLIM
 70
     0
  9
$DIMTIH
 70
     1
  9
$DIMTOH
 70
     1
  9
$DIMSE1
 70
     0
  9
$DIMSE2
 70
     0
  9
$DIMTAD
 70
     0
  9
$DIMZIN
 70
     0
  9
$DIMBLK
  1

  9
$DIMASO
 70
     1
  9
$DIMSHO
 70
     1
  9
$DIMPOST
  1

  9
$DIMAPOST
  1

  9
$DIMALT
 70
     0
  9
$DIMALTD
 70
     2
  9
$DIMALTF
 40
25.4
  9
$DIMLFAC
 40
1.0
  9
$DIMTOFL
 70
     0
  9
$DIMTVP
 40
0.0
  9
$DIMTIX
 70
     0
  9
$DIMSOXD
 70
     0
  9
$DIMSAH
 70
     0
  9
$DIMBLK1
  1

  9
$DIMBLK2
  1

  9
$DIMSTYLE
  2
*UNNAMED
  9
$DIMCLRD
 70
     0
  9
$DIMCLRE
 70
     0
  9
$DIMCLRT
 70
     0
  9
$DIMTFAC
 40
1.0
  9
$DIMGAP
 40
0.09
  9
$LUNITS
 70
     2
  9
$LUPREC
 70
     4
  9
$SKETCHINC
 40
0.1
  9
$FILLETRAD
 40
2.0
  9
$AUNITS
 70
     0
  9
$AUPREC
 70
     0
  9
$MENU
  1
ACAD
  9
$ELEVATION
 40
0.0
  9
$PELEVATION
 40
0.0
  9
$THICKNESS
 40
0.0
  9
$LIMCHECK
 70
     0
  9
$BLIPMODE
 70
     1
  9
$CHAMFERA
 40
0.0
  9
$CHAMFERB
 40
0.0
  9
$SKPOLY
 70
     0
  9
$TDCREATE
 40
2450948.528228703
  9
$TDUPDATE
 40
2450948.528661574
  9
$TDINDWG
 40
0.0002581019
  9
$TDUSRTIMER
 40
0.0002581019
  9
$USRTIMER
 70
     1
  9
$ANGBASE
 50
0.0
  9
$ANGDIR
 70
     0
  9
$PDMODE
 70
     0
  9
$PDSIZE
 40
0.0
  9
$PLINEWID
 40
0.0
  9
$COORDS
 70
     2
  9
$SPLFRAME
 70
     0
  9
$SPLINETYPE
 70
     6
  9
$SPLINESEGS
 70
     8
  9
$ATTDIA
 70
     0
  9
$ATTREQ
 70
     1
  9
$HANDLING
 70
     0
  9
$HANDSEED
  5
0
  9
$SURFTAB1
 70
     6
  9
$SURFTAB2
 70
     6
  9
$SURFTYPE
 70
     6
  9
$SURFU
 70
     6
  9
$SURFV
 70
     6
  9
$UCSNAME
  2

  9
$UCSORG
 10
0.0
 20
0.0
 30
0.0
  9
$UCSXDIR
 10
1.0
 20
0.0
 30
0.0
  9
$UCSYDIR
 10
0.0
 20
1.0
 30
0.0
  9
$PUCSNAME
  2

  9
$PUCSORG
 10
0.0
 20
0.0
 30
0.0
  9
$PUCSXDIR
 10
1.0
 20
0.0
 30
0.0
  9
$PUCSYDIR
 10
0.0
 20
1.0
 30
0.0
  9
$USERI1
 70
     0
  9
$USERI2
 70
     0
  9
$USERI3
 70
     0
  9
$USERI4
 70
     0
  9
$USERI5
 70
     0
  9
$USERR1
 40
0.0
  9
$USERR2
 40
0.0
  9
$USERR3
 40
0.0
  9
$USERR4
 40
0.0
  9
$USERR5
 40
0.0
  9
$WORLDVIEW
 70
     1
  9
$SHADEDGE
 70
     3
  9
$SHADEDIF
 70
    70
  9
$TILEMODE
 70
     1
  9
$MAXACTVP
 70
    16
  9
$PINSBASE
 10
0.0
 20
0.0
 30
0.0
  9
$PLIMCHECK
 70
     0
  9
$PEXTMIN
 10
1.000000E+20
 20
1.000000E+20
 30
1.000000E+20
  9
$PEXTMAX
 10
-1.000000E+20
 20
-1.000000E+20
 30
-1.000000E+20
  9
$PLIMMIN
 10
0.0
 20
0.0
  9
$PLIMMAX
 10
420.0
 20
297.0
  9
$UNITMODE
 70
     0
  9
$VISRETAIN
 70
     0
  9
$PLINEGEN
 70
     0
  9
$PSLTSCALE
 70
     1
  9
$TREEDEPTH
 70
  3020
  9
$DWGCODEPAGE
  3
iso8859-1
  0
ENDSEC
  0
SECTION
  2
TABLES
  0
TABLE
  2
VPORT
 70
     2
  0
VPORT
  2
*ACTIVE
 70
     0
 10
0.0
 20
0.0
 11
1.0
 21
1.0
 12
-340.672991
 22
-1001.284218
 13
0.0
 23
0.0
 14
1.0
 24
1.0
 15
0.0
 25
0.0
 16
0.0
 26
0.0
 36
1.0
 17
0.0
 27
0.0
 37
0.0
 40
705.023799
 41
1.748359
 42
50.0
 43
0.0
 44
0.0
 50
0.0
 51
0.0
 71
     0
 72
   100
 73
     1
 74
     0
 75
     0
 76
     0
 77
     0
 78
     0
  0
ENDTAB
  0
TABLE
  2
LTYPE
 70
     2
  0
LTYPE
  2
CONTINUOUS
 70
    64
  3
Solid line
 72
    65
 73
     0
 40
0.0
  0
ENDTAB
  0
TABLE
  2
LAYER
 70
     1
  0
LAYER
  2
0
 70
    64
 62
     7
  6
CONTINUOUS
  0
ENDTAB
  0
TABLE
  2
STYLE
 70
     1
  0
STYLE
  2
STANDARD
 70
     0
 40
0.0
 41
1.0
 50
0.0
 71
     0
 42
3.5
  3
txt
  4

  0
ENDTAB
  0
TABLE
  2
VIEW
 70
     0
  0
ENDTAB
  0
TABLE
  2
UCS
 70
     0
  0
ENDTAB
  0
TABLE
  2
APPID
 70
     1
  0
APPID
  2
ACAD
 70
    64
  0
ENDTAB
  0
TABLE
  2
DIMSTYLE
 70
     0
  0
ENDTAB
  0
ENDSEC
  0
SECTION
  2
BLOCKS
  0
ENDSEC
  0
SECTION
  2
ENTITIES
  0
LINE
  8
0
 10
-729.436808
 20
-1045.543746
 30
0.0
 11
-435.436808
 21
-1045.543746
 31
0.0
  0
LINE
  8
0
 10
-726.936808
 20
-1042.043746
 30
0.0
 11
-437.936808
 21
-1042.043746
 31
0.0
  0
LINE
  8
0
 10
-710.936808
 20
-991.629533
 30
0.0
 11
-710.936808
 21
-988.543746
 31
0.0
  0
LINE
  8
0
 10
-710.936808
 20
-991.629533
 30
0.0
 11
-708.997468
 21
-989.690193
 31
0.0
  0
LINE
  8
0
 10
-708.643914
 20
-989.543746
 30
0.0
 11
-676.936808
 21
-989.543746
 31
0.0
  0
LINE
  8
0
 10
-712.936808
 20
-989.543746
 30
0.0
 11
-712.936808
 21
-988.543746
 31
0.0
  0
LINE
  8
0
 10
-676.936808
 20
-989.543746
 30
0.0
 11
-676.936808
 21
-987.543746
 31
0.0
  0
LINE
  8
0
 10
-726.608381
 20
-987.543746
 30
0.0
 11
-676.936808
 21
-987.543746
 31
0.0
  0
LINE
  8
0
 10
-727.936808
 20
-989.543746
 30
0.0
 11
-712.936808
 21
-989.543746
 31
0.0
  0
LINE
  8
0
 10
-727.936808
 20
-988.872173
 30
0.0
 11
-727.936808
 21
-989.543746
 31
0.0
  0
LINE
  8
0
 10
-726.608381
 20
-987.543746
 30
0.0
 11
-727.936808
 21
-988.872173
 31
0.0
  0
LINE
  8
0
 10
-675.936808
 20
-985.543746
 30
0.0
 11
-727.022594
 21
-985.543746
 31
0.0
  0
LINE
  8
0
 10
-706.779953
 20
-991.543746
 30
0.0
 11
-675.936808
 21
-991.543746
 31
0.0
  0
LINE
  8
0
 10
-711.229701
 20
-994.750853
 30
0.0
 11
-708.901274
 21
-992.422426
 31
0.0
  0
LINE
  8
0
 10
-712.936808
 20
-992.043746
 30
0.0
 11
-712.936808
 21
-994.043746
 31
0.0
  0
LINE
  8
0
 10
-674.936808
 20
-986.543746
 30
0.0
 11
-674.936808
 21
-990.543746
 31
0.0
  0
LINE
  8
0
 10
-718.663718
 20
-991.543746
 30
0.0
 11
-713.436808
 21
-991.543746
 31
0.0
  0
LINE
  8
0
 10
-727.729701
 20
-985.836639
 30
0.0
 11
-729.643914
 21
-987.750853
 31
0.0
  0
LINE
  8
0
 10
-728.936808
 20
-991.543746
 30
0.0
 11
-725.851021
 21
-991.543746
 31
0.0
  0
LINE
  8
0
 10
-729.936808
 20
-988.45796
 30
0.0
 11
-729.936808
 21
-990.543746
 31
0.0
  0
LINE
  8
0
 10
-728.940371
 20
-1001.821673
 30
0.0
 11
-728.936808
 21
-1040.043746
 31
0.0
  0
LINE
  8
0
 10
-728.354585
 20
-1000.40746
 30
0.0
 11
-720.077932
 21
-992.129533
 31
0.0
  0
LINE
  8
0
 10
-731.558128
 20
-999.665067
 30
0.0
 11
-725.143914
 21
-993.250853
 31
0.0
  0
LINE
  8
0
 10
-732.436808
 20
-1042.543746
 30
0.0
 11
-732.436808
 21
-1001.786387
 31
0.0
  0
LINE
  8
0
 10
-453.936808
 20
-988.543746
 30
0.0
 11
-453.936808
 21
-991.629533
 31
0.0
  0
LINE
  8
0
 10
-455.876148
 20
-989.690193
 30
0.0
 11
-453.936808
 21
-991.629533
 31
0.0
  0
LINE
  8
0
 10
-487.936808
 20
-989.543746
 30
0.0
 11
-456.229701
 21
-989.543746
 31
0.0
  0
LINE
  8
0
 10
-451.936808
 20
-988.543746
 30
0.0
 11
-451.936808
 21
-989.543746
 31
0.0
  0
LINE
  8
0
 10
-487.936808
 20
-987.543746
 30
0.0
 11
-487.936808
 21
-989.543746
 31
0.0
  0
LINE
  8
0
 10
-487.936808
 20
-987.543746
 30
0.0
 11
-438.265235
 21
-987.543746
 31
0.0
  0
LINE
  8
0
 10
-451.936808
 20
-989.543746
 30
0.0
 11
-436.936808
 21
-989.543746
 31
0.0
  0
LINE
  8
0
 10
-436.936808
 20
-989.543746
 30
0.0
 11
-436.936808
 21
-988.872173
 31
0.0
  0
LINE
  8
0
 10
-436.936808
 20
-988.872173
 30
0.0
 11
-438.265235
 21
-987.543746
 31
0.0
  0
LINE
  8
0
 10
-437.851021
 20
-985.543746
 30
0.0
 11
-488.936808
 21
-985.543746
 31
0.0
  0
LINE
  8
0
 10
-488.936808
 20
-991.543746
 30
0.0
 11
-458.093662
 21
-991.543746
 31
0.0
  0
LINE
  8
0
 10
-455.972342
 20
-992.422426
 30
0.0
 11
-453.643914
 21
-994.750853
 31
0.0
  0
LINE
  8
0
 10
-451.936808
 20
-994.043746
 30
0.0
 11
-451.936808
 21
-992.043746
 31
0.0
  0
LINE
  8
0
 10
-489.936808
 20
-990.543746
 30
0.0
 11
-489.936808
 21
-986.543746
 31
0.0
  0
LINE
  8
0
 10
-451.436808
 20
-991.543746
 30
0.0
 11
-446.209897
 21
-991.543746
 31
0.0
  0
LINE
  8
0
 10
-435.229701
 20
-987.750853
 30
0.0
 11
-437.143914
 21
-985.836639
 31
0.0
  0
LINE
  8
0
 10
-439.022594
 20
-991.543746
 30
0.0
 11
-435.936808
 21
-991.543746
 31
0.0
  0
LINE
  8
0
 10
-434.936808
 20
-990.543746
 30
0.0
 11
-434.936808
 21
-988.45796
 31
0.0
  0
LINE
  8
0
 10
-444.795684
 20
-992.129533
 30
0.0
 11
-436.51903
 21
-1000.40746
 31
0.0
  0
LINE
  8
0
 10
-439.729701
 20
-993.250853
 30
0.0
 11
-433.315487
 21
-999.665067
 31
0.0
  0
LINE
  8
0
 10
-432.436808
 20
-1001.786387
 30
0.0
 11
-432.436808
 21
-1042.543746
 31
0.0
  0
LINE
  8
0
 10
-435.936808
 20
-1040.043746
 30
0.0
 11
-435.933244
 21
-1001.821673
 31
0.0
  0
LINE
  8
0
 10
-677.34746
 20
-765.543746
 30
0.0
 11
-731.84746
 21
-765.549662
 31
0.0
  0
LINE
  8
0
 10
-677.34746
 20
-765.543746
 30
0.0
 11
-562.84746
 21
-765.549662
 31
0.0
  0
LINE
  8
0
 10
-811.84746
 20
-765.543746
 30
0.0
 11
-842.84746
 21
-765.549662
 31
0.0
  0
LINE
  8
0
 10
-784.699325
 20
-765.543746
 30
0.0
 11
-760.383359
 21
-765.543746
 31
0.0
  0
ARC
  8
0
 10
-711.936808
 20
-994.043746
 30
0.0
 40
1.0
 50
180.0
 51
315.0
  0
ARC
  8
0
 10
-711.936808
 20
-988.543746
 30
0.0
 40
1.0
 50
0.0
 51
180.0
  0
ARC
  8
0
 10
-452.936808
 20
-994.043746
 30
0.0
 40
1.0
 50
225.0
 51
0.0
  0
ARC
  8
0
 10
-452.936808
 20
-988.543746
 30
0.0
 40
1.0
 50
0.0
 51
180.0
  0
ARC
  8
0
 10
-729.436808
 20
-1001.786387
 30
0.0
 40
3.0
 50
135.0
 51
180.0
  0
ARC
  8
0
 10
-726.936808
 20
-1040.043746
 30
0.0
 40
2.0
 50
180.0
 51
270.0
  0
ARC
  8
0
 10
-729.436808
 20
-1042.543746
 30
0.0
 40
3.0
 50
180.0
 51
270.0
  0
ARC
  8
0
 10
-726.940371
 20
-1001.821673
 30
0.0
 40
2.0
 50
135.0
 51
180.0
  0
ARC
  8
0
 10
-706.779953
 20
-994.543746
 30
0.0
 40
3.0
 50
90.0
 51
135.0
  0
ARC
  8
0
 10
-713.436808
 20
-992.043746
 30
0.0
 40
0.5
 50
0.0
 51
90.0
  0
ARC
  8
0
 10
-718.663718
 20
-993.543746
 30
0.0
 40
2.0
 50
90.0
 51
135.0
  0
ARC
  8
0
 10
-728.936808
 20
-988.45796
 30
0.0
 40
1.0
 50
135.0
 51
180.0
  0
ARC
  8
0
 10
-727.022594
 20
-986.543746
 30
0.0
 40
1.0
 50
90.0
 51
135.0
  0
ARC
  8
0
 10
-708.643914
 20
-990.043746
 30
0.0
 40
0.5
 50
90.0
 51
135.0
  0
ARC
  8
0
 10
-675.936808
 20
-990.543746
 30
0.0
 40
1.0
 50
270.0
 51
0.0
  0
ARC
  8
0
 10
-675.936808
 20
-986.543746
 30
0.0
 40
1.0
 50
0.0
 51
90.0
  0
ARC
  8
0
 10
-728.936808
 20
-990.543746
 30
0.0
 40
1.0
 50
180.0
 51
270.0
  0
ARC
  8
0
 10
-725.851021
 20
-992.543746
 30
0.0
 40
1.0
 50
315.0
 51
90.0
  0
ARC
  8
0
 10
-435.436808
 20
-1001.786387
 30
0.0
 40
3.0
 50
0.0
 51
45.0
  0
ARC
  8
0
 10
-437.933244
 20
-1001.821673
 30
0.0
 40
2.0
 50
0.0
 51
45.0
  0
ARC
  8
0
 10
-458.093662
 20
-994.543746
 30
0.0
 40
3.0
 50
45.0
 51
90.0
  0
ARC
  8
0
 10
-451.436808
 20
-992.043746
 30
0.0
 40
0.5
 50
90.0
 51
180.0
  0
ARC
  8
0
 10
-446.209897
 20
-993.543746
 30
0.0
 40
2.0
 50
45.0
 51
90.0
  0
ARC
  8
0
 10
-435.936808
 20
-988.45796
 30
0.0
 40
1.0
 50
0.0
 51
45.0
  0
ARC
  8
0
 10
-437.851021
 20
-986.543746
 30
0.0
 40
1.0
 50
45.0
 51
90.0
  0
ARC
  8
0
 10
-456.229701
 20
-990.043746
 30
0.0
 40
0.5
 50
45.0
 51
90.0
  0
ARC
  8
0
 10
-488.936808
 20
-990.543746
 30
0.0
 40
1.0
 50
180.0
 51
270.0
  0
ARC
  8
0
 10
-488.936808
 20
-986.543746
 30
0.0
 40
1.0
 50
90.0
 51
180.0
  0
ARC
  8
0
 10
-435.936808
 20
-990.543746
 30
0.0
 40
1.0
 50
270.0
 51
0.0
  0
ARC
  8
0
 10
-439.022594
 20
-992.543746
 30
0.0
 40
1.0
 50
90.0
 51
225.0
  0
ARC
  8
0
 10
-437.936808
 20
-1040.043746
 30
0.0
 40
2.0
 50
270.0
 51
0.0
  0
ARC
  8
0
 10
-435.436808
 20
-1042.543746
 30
0.0
 40
3.0
 50
270.0
 51
0.0
  0
LINE
  8
0
 10
-432.436808
 20
-984.043746
 30
0.0
 11
-432.436808
 21
-995.543746
 31
0.0
  0
LINE
  8
0
 10
-730.098568
 20
-981.543746
 30
0.0
 11
-434.936808
 21
-981.543746
 31
0.0
  0
LINE
  8
0
 10
-436.436808
 20
-984.043746
 30
0.0
 11
-728.598568
 21
-984.043746
 31
0.0
  0
LINE
  8
0
 10
-435.851021
 20
-996.95796
 30
0.0
 11
-439.661681
 21
-993.1473
 31
0.0
  0
LINE
  8
0
 10
-438.997468
 20
-991.543746
 30
0.0
 11
-435.536808
 21
-991.543746
 31
0.0
  0
LINE
  8
0
 10
-435.112544
 20
-992.56801
 30
0.0
 11
-436.262544
 21
-993.71801
 31
0.0
  0
LINE
  8
0
 10
-436.262544
 20
-993.71801
 30
0.0
 11
-434.936808
 21
-995.043746
 31
0.0
  0
LINE
  8
0
 10
-434.936808
 20
-995.043746
 30
0.0
 11
-434.936808
 21
-985.543746
 31
0.0
  0
LINE
  8
0
 10
-725.373694
 20
-993.1473
 30
0.0
 11
-729.184355
 21
-996.95796
 31
0.0
  0
LINE
  8
0
 10
-729.498568
 20
-991.543746
 30
0.0
 11
-726.037908
 21
-991.543746
 31
0.0
  0
LINE
  8
0
 10
-728.772832
 20
-993.71801
 30
0.0
 11
-729.922832
 21
-992.56801
 31
0.0
  0
LINE
  8
0
 10
-730.098568
 20
-995.043746
 30
0.0
 11
-728.772832
 21
-993.71801
 31
0.0
  0
LINE
  8
0
 10
-730.098568
 20
-985.543746
 30
0.0
 11
-730.098568
 21
-995.043746
 31
0.0
  0
LINE
  8
0
 10
-732.598568
 20
-995.543746
 30
0.0
 11
-732.598568
 21
-984.043746
 31
0.0
  0
ARC
  8
0
 10
-438.997468
 20
-992.483086
 30
0.0
 40
0.93934
 50
180.866301
 51
225.0
  0
ARC
  8
0
 10
-435.536808
 20
-992.143746
 30
0.0
 40
0.6
 50
315.0
 51
90.0
  0
ARC
  8
0
 10
-434.436808
 20
-995.543746
 30
0.0
 40
2.0
 50
225.0
 51
0.0
  0
ARC
  8
0
 10
-726.037908
 20
-992.483086
 30
0.0
 40
0.93934
 50
359.820102
 51
90.0
  0
ARC
  8
0
 10
-729.498568
 20
-992.143746
 30
0.0
 40
0.6
 50
90.0
 51
225.0
  0
ARC
  8
0
 10
-730.598568
 20
-995.543746
 30
0.0
 40
2.0
 50
180.0
 51
315.0
  0
ARC
  8
0
 10
-726.037908
 20
-992.483086
 30
0.0
 40
0.93934
 50
315.0
 51
359.820102
  0
ARC
  8
0
 10
-438.997468
 20
-992.483086
 30
0.0
 40
0.93934
 50
90.0
 51
180.866301
  0
ARC
  8
0
 10
-434.936808
 20
-984.043746
 30
0.0
 40
2.5
 50
0.0
 51
90.0
  0
ARC
  8
0
 10
-730.098568
 20
-984.043746
 30
0.0
 40
2.5
 50
90.0
 51
180.0
  0
ARC
  8
0
 10
-436.436808
 20
-985.543746
 30
0.0
 40
1.5
 50
0.0
 51
90.0
  0
ARC
  8
0
 10
-728.598568
 20
-985.543746
 30
0.0
 40
1.5
 50
90.0
 51
180.0
  0
LINE
  8
0
 10
-742.34746
 20
-1045.543746
 30
0.0
 11
-427.84746
 21
-1045.543746
 31
0.0
  0
LINE
  8
0
 10
-740.84746
 20
-1045.543746
 30
0.0
 11
-740.84746
 21
-1039.043746
 31
0.0
  0
LINE
  8
0
 10
-427.84746
 20
-1045.543746
 30
0.0
 11
-427.84746
 21
-1055.543746
 31
0.0
  0
LINE
  8
0
 10
-431.078536
 20
-1060.22038
 30
0.0
 11
-742.34746
 21
-1121.65558
 31
0.0
  0
ARC
  8
0
 10
-742.34746
 20
-1039.043746
 30
0.0
 40
1.5
 50
0.0
 51
90.0
  0
ARC
  8
0
 10
-432.84746
 20
-1055.543746
 30
0.0
 40
5.0
 50
290.718978
 51
0.0
  0
LINE
  8
0
 10
-842.84746
 20
-743.852511
 30
0.0
 11
-839.544612
 21
-740.549662
 31
0.0
  0
LINE
  8
0
 10
-842.84746
 20
-757.994647
 30
0.0
 11
-825.402476
 21
-740.549662
 31
0.0
  0
LINE
  8
0
 10
-836.260341
 20
-765.549662
 30
0.0
 11
-811.260341
 21
-740.549662
 31
0.0
  0
LINE
  8
0
 10
-822.118205
 20
-765.549662
 30
0.0
 11
-797.118205
 21
-740.549662
 31
0.0
  0
LINE
  8
0
 10
-807.976069
 20
-765.549662
 30
0.0
 11
-782.976069
 21
-740.549662
 31
0.0
  0
LINE
  8
0
 10
-793.833934
 20
-765.549662
 30
0.0
 11
-768.833934
 21
-740.549662
 31
0.0
  0
LINE
  8
0
 10
-779.691798
 20
-765.549662
 30
0.0
 11
-754.691798
 21
-740.549662
 31
0.0
  0
LINE
  8
0
 10
-765.549662
 20
-765.549662
 30
0.0
 11
-740.549662
 21
-740.549662
 31
0.0
  0
LINE
  8
0
 10
-751.407527
 20
-765.549662
 30
0.0
 11
-726.407527
 21
-740.549662
 31
0.0
  0
LINE
  8
0
 10
-737.265391
 20
-765.549662
 30
0.0
 11
-712.265391
 21
-740.549662
 31
0.0
  0
LINE
  8
0
 10
-723.123256
 20
-765.549662
 30
0.0
 11
-698.123256
 21
-740.549662
 31
0.0
  0
LINE
  8
0
 10
-708.98112
 20
-765.549662
 30
0.0
 11
-683.98112
 21
-740.549662
 31
0.0
  0
LINE
  8
0
 10
-694.838984
 20
-765.549662
 30
0.0
 11
-669.838984
 21
-740.549662
 31
0.0
  0
LINE
  8
0
 10
-680.696849
 20
-765.549662
 30
0.0
 11
-655.696849
 21
-740.549662
 31
0.0
  0
LINE
  8
0
 10
-666.554713
 20
-765.549662
 30
0.0
 11
-641.554713
 21
-740.549662
 31
0.0
  0
LINE
  8
0
 10
-652.412577
 20
-765.549662
 30
0.0
 11
-627.412577
 21
-740.549662
 31
0.0
  0
LINE
  8
0
 10
-638.270442
 20
-765.549662
 30
0.0
 11
-613.270442
 21
-740.549662
 31
0.0
  0
LINE
  8
0
 10
-624.128306
 20
-765.549662
 30
0.0
 11
-599.128306
 21
-740.549662
 31
0.0
  0
LINE
  8
0
 10
-609.986171
 20
-765.549662
 30
0.0
 11
-584.986171
 21
-740.549662
 31
0.0
  0
LINE
  8
0
 10
-595.844035
 20
-765.549662
 30
0.0
 11
-570.844035
 21
-740.549662
 31
0.0
  0
LINE
  8
0
 10
-581.701899
 20
-765.549662
 30
0.0
 11
-562.84746
 21
-746.695224
 31
0.0
  0
LINE
  8
0
 10
-567.559764
 20
-765.549662
 30
0.0
 11
-562.84746
 21
-760.837359
 31
0.0
  0
LINE
  8
0
 10
-742.34746
 20
-848.407383
 30
0.0
 11
-742.34746
 21
-1187.830198
 31
0.0
  0
LINE
  8
0
 10
-792.34746
 20
-1187.830198
 30
0.0
 11
-792.34746
 21
-868.850225
 31
0.0
  0
LINE
  8
0
 10
-792.34746
 20
-1187.830198
 30
0.0
 11
-790.84746
 21
-1187.830198
 31
0.0
  0
LINE
  8
0
 10
-790.84746
 20
-1187.830198
 30
0.0
 11
-790.84746
 21
-871.12944
 31
0.0
  0
LINE
  8
0
 10
-790.84746
 20
-1187.830198
 30
0.0
 11
-742.34746
 21
-1187.830198
 31
0.0
  0
CIRCLE
  8
0
 10
-771.84746
 20
-862.543746
 30
0.0
 40
5.25
  0
CIRCLE
  8
0
 10
-771.84746
 20
-912.543746
 30
0.0
 40
5.25
  0
CIRCLE
  8
0
 10
-771.84746
 20
-962.543746
 30
0.0
 40
5.25
  0
CIRCLE
  8
0
 10
-771.84746
 20
-1012.543746
 30
0.0
 40
5.25
  0
CIRCLE
  8
0
 10
-771.84746
 20
-1062.543746
 30
0.0
 40
5.25
  0
CIRCLE
  8
0
 10
-771.84746
 20
-1112.543746
 30
0.0
 40
5.25
  0
CIRCLE
  8
0
 10
-771.84746
 20
-1162.543746
 30
0.0
 40
5.25
  0
LINE
  8
0
 10
-780.383359
 20
-767.543746
 30
0.0
 11
-763.84746
 21
-767.543746
 31
0.0
  0
LINE
  8
0
 10
-783.84746
 20
-765.543746
 30
0.0
 11
-811.84746
 21
-765.543746
 31
0.0
  0
LINE
  8
0
 10
-811.84746
 20
-824.543746
 30
0.0
 11
-792.475411
 21
-868.571132
 31
0.0
  0
LINE
  8
0
 10
-811.84746
 20
-765.543746
 30
0.0
 11
-811.84746
 21
-824.543746
 31
0.0
  0
LINE
  8
0
 10
-731.84746
 20
-765.543746
 30
0.0
 11
-760.383359
 21
-765.543746
 31
0.0
  0
LINE
  8
0
 10
-731.84746
 20
-824.543746
 30
0.0
 11
-731.84746
 21
-765.543746
 31
0.0
  0
LINE
  8
0
 10
-751.21951
 20
-868.571132
 30
0.0
 11
-731.84746
 21
-824.543746
 31
0.0
  0
LINE
  8
0
 10
-783.32226
 20
-874.543746
 30
0.0
 11
-760.372661
 21
-874.543746
 31
0.0
  0
ARC
  8
0
 10
-771.84746
 20
-862.543746
 30
0.0
 40
54.25
 50
90.0
 51
110.0
  0
ARC
  8
0
 10
-788.948468
 20
-815.559115
 30
0.0
 40
4.25
 50
110.0
 51
290.0
  0
ARC
  8
0
 10
-771.84746
 20
-862.543746
 30
0.0
 40
45.75
 50
90.0
 51
110.0
  0
ARC
  8
0
 10
-771.84746
 20
-812.543746
 30
0.0
 40
4.25
 50
270.0
 51
90.0
  0
CIRCLE
  8
0
 10
-771.84746
 20
-862.543746
 30
0.0
 40
4.25
  0
ARC
  8
0
 10
-760.383359
 20
-767.543746
 30
0.0
 40
2.0
 50
90.0
 51
150.0
  0
ARC
  8
0
 10
-763.84746
 20
-765.543746
 30
0.0
 40
2.0
 50
270.0
 51
330.0
  0
ARC
  8
0
 10
-780.383359
 20
-765.543746
 30
0.0
 40
2.0
 50
210.0
 51
270.0
  0
ARC
  8
0
 10
-783.84746
 20
-767.543746
 30
0.0
 40
2.0
 50
30.0
 51
90.0
  0
ARC
  8
0
 10
-783.32226
 20
-864.543746
 30
0.0
 40
10.0
 50
203.749494
 51
270.0
  0
ARC
  8
0
 10
-760.372661
 20
-864.543746
 30
0.0
 40
10.0
 50
270.0
 51
336.250506
  0
ENDSEC
  0
EOF
