  0
SECTION
  2
HEADER
  9
$ACADVER
  1
AC1009
  9
$INSBASE
 10
0.0
 20
0.0
 30
0.0
  9
$EXTMIN
 10
-216.180825
 20
-562.5
 30
0.0
  9
$EXTMAX
 10
-51.668975
 20
-89.251596
 30
0.0
  9
$LIMMIN
 10
-216.180825
 20
-562.5
  9
$LIMMAX
 10
-52.186742
 20
-89.251596
  9
$ORTHOMODE
 70
     0
  9
$REGENMODE
 70
     1
  9
$FILLMODE
 70
     1
  9
$QTEXTMODE
 70
     0
  9
$MIRRTEXT
 70
     1
  9
$DRAGMODE
 70
     2
  9
$LTSCALE
 40
1.0
  9
$OSMODE
 70
     0
  9
$ATTMODE
 70
     1
  9
$TEXTSIZE
 40
3.5
  9
$TRACEWID
 40
0.5
  9
$TEXTSTYLE
  7
STANDARD
  9
$CLAYER
  8
0
  9
$CELTYPE
  6
BYLAYER
  9
$CECOLOR
 62
   256
  9
$DIMSCALE
 40
1.0
  9
$DIMASZ
 40
0.18
  9
$DIMEXO
 40
0.0625
  9
$DIMDLI
 40
0.38
  9
$DIMRND
 40
0.0
  9
$DIMDLE
 40
0.0
  9
$DIMEXE
 40
0.18
  9
$DIMTP
 40
0.0
  9
$DIMTM
 40
0.0
  9
$DIMTXT
 40
0.18
  9
$DIMCEN
 40
0.09
  9
$DIMTSZ
 40
0.0
  9
$DIMTOL
 70
     0
  9
$DIMLIM
 70
     0
  9
$DIMTIH
 70
     1
  9
$DIMTOH
 70
     1
  9
$DIMSE1
 70
     0
  9
$DIMSE2
 70
     0
  9
$DIMTAD
 70
     0
  9
$DIMZIN
 70
     0
  9
$DIMBLK
  1

  9
$DIMASO
 70
     1
  9
$DIMSHO
 70
     1
  9
$DIMPOST
  1

  9
$DIMAPOST
  1

  9
$DIMALT
 70
     0
  9
$DIMALTD
 70
     2
  9
$DIMALTF
 40
25.4
  9
$DIMLFAC
 40
1.0
  9
$DIMTOFL
 70
     0
  9
$DIMTVP
 40
0.0
  9
$DIMTIX
 70
     0
  9
$DIMSOXD
 70
     0
  9
$DIMSAH
 70
     0
  9
$DIMBLK1
  1

  9
$DIMBLK2
  1

  9
$DIMSTYLE
  2
*UNNAMED
  9
$DIMCLRD
 70
     0
  9
$DIMCLRE
 70
     0
  9
$DIMCLRT
 70
     0
  9
$DIMTFAC
 40
1.0
  9
$DIMGAP
 40
0.09
  9
$LUNITS
 70
     2
  9
$LUPREC
 70
     4
  9
$SKETCHINC
 40
0.1
  9
$FILLETRAD
 40
2.0
  9
$AUNITS
 70
     0
  9
$AUPREC
 70
     0
  9
$MENU
  1
ACAD
  9
$ELEVATION
 40
0.0
  9
$PELEVATION
 40
0.0
  9
$THICKNESS
 40
0.0
  9
$LIMCHECK
 70
     0
  9
$BLIPMODE
 70
     1
  9
$CHAMFERA
 40
0.0
  9
$CHAMFERB
 40
0.0
  9
$SKPOLY
 70
     0
  9
$TDCREATE
 40
2450948.503428356
  9
$TDUPDATE
 40
2450948.503880902
  9
$TDINDWG
 40
0.0003012731
  9
$TDUSRTIMER
 40
0.0003012731
  9
$USRTIMER
 70
     1
  9
$ANGBASE
 50
0.0
  9
$ANGDIR
 70
     0
  9
$PDMODE
 70
     0
  9
$PDSIZE
 40
0.0
  9
$PLINEWID
 40
0.0
  9
$COORDS
 70
     2
  9
$SPLFRAME
 70
     0
  9
$SPLINETYPE
 70
     6
  9
$SPLINESEGS
 70
     8
  9
$ATTDIA
 70
     0
  9
$ATTREQ
 70
     1
  9
$HANDLING
 70
     0
  9
$HANDSEED
  5
0
  9
$SURFTAB1
 70
     6
  9
$SURFTAB2
 70
     6
  9
$SURFTYPE
 70
     6
  9
$SURFU
 70
     6
  9
$SURFV
 70
     6
  9
$UCSNAME
  2

  9
$UCSORG
 10
0.0
 20
0.0
 30
0.0
  9
$UCSXDIR
 10
1.0
 20
0.0
 30
0.0
  9
$UCSYDIR
 10
0.0
 20
1.0
 30
0.0
  9
$PUCSNAME
  2

  9
$PUCSORG
 10
0.0
 20
0.0
 30
0.0
  9
$PUCSXDIR
 10
1.0
 20
0.0
 30
0.0
  9
$PUCSYDIR
 10
0.0
 20
1.0
 30
0.0
  9
$USERI1
 70
     0
  9
$USERI2
 70
     0
  9
$USERI3
 70
     0
  9
$USERI4
 70
     0
  9
$USERI5
 70
     0
  9
$USERR1
 40
0.0
  9
$USERR2
 40
0.0
  9
$USERR3
 40
0.0
  9
$USERR4
 40
0.0
  9
$USERR5
 40
0.0
  9
$WORLDVIEW
 70
     1
  9
$SHADEDGE
 70
     3
  9
$SHADEDIF
 70
    70
  9
$TILEMODE
 70
     1
  9
$MAXACTVP
 70
    16
  9
$PINSBASE
 10
0.0
 20
0.0
 30
0.0
  9
$PLIMCHECK
 70
     0
  9
$PEXTMIN
 10
1.000000E+20
 20
1.000000E+20
 30
1.000000E+20
  9
$PEXTMAX
 10
-1.000000E+20
 20
-1.000000E+20
 30
-1.000000E+20
  9
$PLIMMIN
 10
0.0
 20
0.0
  9
$PLIMMAX
 10
420.0
 20
297.0
  9
$UNITMODE
 70
     0
  9
$VISRETAIN
 70
     0
  9
$PLINEGEN
 70
     0
  9
$PSLTSCALE
 70
     1
  9
$TREEDEPTH
 70
  3020
  9
$DWGCODEPAGE
  3
iso8859-1
  0
ENDSEC
  0
SECTION
  2
TABLES
  0
TABLE
  2
VPORT
 70
     2
  0
VPORT
  2
*ACTIVE
 70
     0
 10
0.0
 20
0.0
 11
1.0
 21
1.0
 12
146.487133
 22
-352.048822
 13
0.0
 23
0.0
 14
1.0
 24
1.0
 15
0.0
 25
0.0
 16
0.0
 26
0.0
 36
1.0
 17
0.0
 27
0.0
 37
0.0
 40
674.152322
 41
1.748359
 42
50.0
 43
0.0
 44
0.0
 50
0.0
 51
0.0
 71
     0
 72
   100
 73
     1
 74
     0
 75
     0
 76
     0
 77
     0
 78
     0
  0
ENDTAB
  0
TABLE
  2
LTYPE
 70
     1
  0
LTYPE
  2
CONTINUOUS
 70
    64
  3
Solid line
 72
    65
 73
     0
 40
0.0
  0
ENDTAB
  0
TABLE
  2
LAYER
 70
     1
  0
LAYER
  2
0
 70
    64
 62
     7
  6
CONTINUOUS
  0
ENDTAB
  0
TABLE
  2
STYLE
 70
     1
  0
STYLE
  2
STANDARD
 70
     0
 40
0.0
 41
1.0
 50
0.0
 71
     0
 42
3.5
  3
txt
  4

  0
ENDTAB
  0
TABLE
  2
VIEW
 70
     0
  0
ENDTAB
  0
TABLE
  2
UCS
 70
     0
  0
ENDTAB
  0
TABLE
  2
APPID
 70
     1
  0
APPID
  2
ACAD
 70
    64
  0
ENDTAB
  0
TABLE
  2
DIMSTYLE
 70
     0
  0
ENDTAB
  0
ENDSEC
  0
SECTION
  2
BLOCKS
  0
ENDSEC
  0
SECTION
  2
ENTITIES
  0
LINE
  8
0
 10
-116.186742
 20
-180.0
 30
0.0
 11
-116.186742
 21
-474.0
 31
0.0
  0
LINE
  8
0
 10
-112.686742
 20
-182.5
 30
0.0
 11
-112.686742
 21
-471.5
 31
0.0
  0
LINE
  8
0
 10
-62.272528
 20
-198.5
 30
0.0
 11
-59.186742
 21
-198.5
 31
0.0
  0
LINE
  8
0
 10
-62.272528
 20
-198.5
 30
0.0
 11
-60.333188
 21
-200.43934
 31
0.0
  0
LINE
  8
0
 10
-60.186742
 20
-200.792893
 30
0.0
 11
-60.186742
 21
-232.5
 31
0.0
  0
LINE
  8
0
 10
-60.186742
 20
-196.5
 30
0.0
 11
-59.186742
 21
-196.5
 31
0.0
  0
LINE
  8
0
 10
-60.186742
 20
-232.5
 30
0.0
 11
-58.186742
 21
-232.5
 31
0.0
  0
LINE
  8
0
 10
-58.186742
 20
-182.828427
 30
0.0
 11
-58.186742
 21
-232.5
 31
0.0
  0
LINE
  8
0
 10
-60.186742
 20
-181.5
 30
0.0
 11
-60.186742
 21
-196.5
 31
0.0
  0
LINE
  8
0
 10
-59.515169
 20
-181.5
 30
0.0
 11
-60.186742
 21
-181.5
 31
0.0
  0
LINE
  8
0
 10
-58.186742
 20
-182.828427
 30
0.0
 11
-59.515169
 21
-181.5
 31
0.0
  0
LINE
  8
0
 10
-56.186742
 20
-233.5
 30
0.0
 11
-56.186742
 21
-182.414214
 31
0.0
  0
LINE
  8
0
 10
-62.186742
 20
-202.656854
 30
0.0
 11
-62.186742
 21
-233.5
 31
0.0
  0
LINE
  8
0
 10
-65.393848
 20
-198.207107
 30
0.0
 11
-63.065421
 21
-200.535534
 31
0.0
  0
LINE
  8
0
 10
-62.686742
 20
-196.5
 30
0.0
 11
-64.686742
 21
-196.5
 31
0.0
  0
LINE
  8
0
 10
-57.186742
 20
-234.5
 30
0.0
 11
-61.186742
 21
-234.5
 31
0.0
  0
LINE
  8
0
 10
-62.186742
 20
-190.77309
 30
0.0
 11
-62.186742
 21
-196.0
 31
0.0
  0
LINE
  8
0
 10
-56.479635
 20
-181.707107
 30
0.0
 11
-58.393848
 21
-179.792893
 31
0.0
  0
LINE
  8
0
 10
-62.186742
 20
-180.5
 30
0.0
 11
-62.186742
 21
-183.585786
 31
0.0
  0
LINE
  8
0
 10
-59.100955
 20
-179.5
 30
0.0
 11
-61.186742
 21
-179.5
 31
0.0
  0
LINE
  8
0
 10
-72.464669
 20
-180.496436
 30
0.0
 11
-110.686742
 21
-180.5
 31
0.0
  0
LINE
  8
0
 10
-71.050455
 20
-181.082223
 30
0.0
 11
-62.772528
 21
-189.358876
 31
0.0
  0
LINE
  8
0
 10
-70.308062
 20
-177.87868
 30
0.0
 11
-63.893848
 21
-184.292893
 31
0.0
  0
LINE
  8
0
 10
-113.186742
 20
-177.0
 30
0.0
 11
-72.429382
 21
-177.0
 31
0.0
  0
LINE
  8
0
 10
-59.186742
 20
-455.5
 30
0.0
 11
-62.272528
 21
-455.5
 31
0.0
  0
LINE
  8
0
 10
-60.333188
 20
-453.56066
 30
0.0
 11
-62.272528
 21
-455.5
 31
0.0
  0
LINE
  8
0
 10
-60.186742
 20
-421.5
 30
0.0
 11
-60.186742
 21
-453.207107
 31
0.0
  0
LINE
  8
0
 10
-59.186742
 20
-457.5
 30
0.0
 11
-60.186742
 21
-457.5
 31
0.0
  0
LINE
  8
0
 10
-58.186742
 20
-421.5
 30
0.0
 11
-60.186742
 21
-421.5
 31
0.0
  0
LINE
  8
0
 10
-58.186742
 20
-421.5
 30
0.0
 11
-58.186742
 21
-471.171573
 31
0.0
  0
LINE
  8
0
 10
-60.186742
 20
-457.5
 30
0.0
 11
-60.186742
 21
-472.5
 31
0.0
  0
LINE
  8
0
 10
-60.186742
 20
-472.5
 30
0.0
 11
-59.515169
 21
-472.5
 31
0.0
  0
LINE
  8
0
 10
-59.515169
 20
-472.5
 30
0.0
 11
-58.186742
 21
-471.171573
 31
0.0
  0
LINE
  8
0
 10
-56.186742
 20
-471.585786
 30
0.0
 11
-56.186742
 21
-420.5
 31
0.0
  0
LINE
  8
0
 10
-62.186742
 20
-420.5
 30
0.0
 11
-62.186742
 21
-451.343146
 31
0.0
  0
LINE
  8
0
 10
-63.065421
 20
-453.464466
 30
0.0
 11
-65.393848
 21
-455.792893
 31
0.0
  0
LINE
  8
0
 10
-64.686742
 20
-457.5
 30
0.0
 11
-62.686742
 21
-457.5
 31
0.0
  0
LINE
  8
0
 10
-61.186742
 20
-419.5
 30
0.0
 11
-57.186742
 21
-419.5
 31
0.0
  0
LINE
  8
0
 10
-62.186742
 20
-458.0
 30
0.0
 11
-62.186742
 21
-463.22691
 31
0.0
  0
LINE
  8
0
 10
-58.393848
 20
-474.207107
 30
0.0
 11
-56.479635
 21
-472.292893
 31
0.0
  0
LINE
  8
0
 10
-62.186742
 20
-470.414214
 30
0.0
 11
-62.186742
 21
-473.5
 31
0.0
  0
LINE
  8
0
 10
-61.186742
 20
-474.5
 30
0.0
 11
-59.100955
 21
-474.5
 31
0.0
  0
LINE
  8
0
 10
-62.772528
 20
-464.641124
 30
0.0
 11
-71.050455
 21
-472.917777
 31
0.0
  0
LINE
  8
0
 10
-63.893848
 20
-469.707107
 30
0.0
 11
-70.308062
 21
-476.12132
 31
0.0
  0
LINE
  8
0
 10
-72.429382
 20
-477.0
 30
0.0
 11
-113.186742
 21
-477.0
 31
0.0
  0
LINE
  8
0
 10
-110.686742
 20
-473.5
 30
0.0
 11
-72.464669
 21
-473.503564
 31
0.0
  0
LINE
  8
0
 10
-191.186742
 20
-177.0
 30
0.0
 11
-191.180825
 21
-91.5
 31
0.0
  0
LINE
  8
0
 10
-191.186742
 20
-477.0
 30
0.0
 11
-191.180825
 21
-562.5
 31
0.0
  0
LINE
  8
0
 10
-191.186742
 20
-237.0
 30
0.0
 11
-191.186742
 21
-417.0
 31
0.0
  0
LINE
  8
0
 10
-191.180825
 20
-560.251596
 30
0.0
 11
-191.186742
 21
-474.751596
 31
0.0
  0
LINE
  8
0
 10
-191.180825
 20
-89.251596
 30
0.0
 11
-191.186742
 21
-174.751596
 31
0.0
  0
LINE
  8
0
 10
-191.186742
 20
-234.751596
 30
0.0
 11
-191.186742
 21
-414.751596
 31
0.0
  0
ARC
  8
0
 10
-64.686742
 20
-197.5
 30
0.0
 40
1.0
 50
90.0
 51
225.0
  0
ARC
  8
0
 10
-59.186742
 20
-197.5
 30
0.0
 40
1.0
 50
270.0
 51
90.0
  0
ARC
  8
0
 10
-64.686742
 20
-456.5
 30
0.0
 40
1.0
 50
135.0
 51
270.0
  0
ARC
  8
0
 10
-59.186742
 20
-456.5
 30
0.0
 40
1.0
 50
270.0
 51
90.0
  0
ARC
  8
0
 10
-72.429382
 20
-180.0
 30
0.0
 40
3.0
 50
45.0
 51
90.0
  0
ARC
  8
0
 10
-110.686742
 20
-182.5
 30
0.0
 40
2.0
 50
90.0
 51
180.0
  0
ARC
  8
0
 10
-113.186742
 20
-180.0
 30
0.0
 40
3.0
 50
90.0
 51
180.0
  0
ARC
  8
0
 10
-72.464669
 20
-182.496436
 30
0.0
 40
2.0
 50
45.0
 51
90.0
  0
ARC
  8
0
 10
-65.186742
 20
-202.656854
 30
0.0
 40
3.0
 50
0.0
 51
45.0
  0
ARC
  8
0
 10
-62.686742
 20
-196.0
 30
0.0
 40
0.5
 50
270.0
 51
0.0
  0
ARC
  8
0
 10
-64.186742
 20
-190.77309
 30
0.0
 40
2.0
 50
0.0
 51
45.0
  0
ARC
  8
0
 10
-59.100955
 20
-180.5
 30
0.0
 40
1.0
 50
45.0
 51
90.0
  0
ARC
  8
0
 10
-57.186742
 20
-182.414214
 30
0.0
 40
1.0
 50
0.0
 51
45.0
  0
ARC
  8
0
 10
-60.686742
 20
-200.792893
 30
0.0
 40
0.5
 50
0.0
 51
45.0
  0
ARC
  8
0
 10
-61.186742
 20
-233.5
 30
0.0
 40
1.0
 50
180.0
 51
270.0
  0
ARC
  8
0
 10
-57.186742
 20
-233.5
 30
0.0
 40
1.0
 50
270.0
 51
0.0
  0
ARC
  8
0
 10
-61.186742
 20
-180.5
 30
0.0
 40
1.0
 50
90.0
 51
180.0
  0
ARC
  8
0
 10
-63.186742
 20
-183.585786
 30
0.0
 40
1.0
 50
225.0
 51
0.0
  0
ARC
  8
0
 10
-72.429382
 20
-474.0
 30
0.0
 40
3.0
 50
270.0
 51
315.0
  0
ARC
  8
0
 10
-72.464669
 20
-471.503564
 30
0.0
 40
2.0
 50
270.0
 51
315.0
  0
ARC
  8
0
 10
-65.186742
 20
-451.343146
 30
0.0
 40
3.0
 50
315.0
 51
0.0
  0
ARC
  8
0
 10
-62.686742
 20
-458.0
 30
0.0
 40
0.5
 50
0.0
 51
90.0
  0
ARC
  8
0
 10
-64.186742
 20
-463.22691
 30
0.0
 40
2.0
 50
315.0
 51
0.0
  0
ARC
  8
0
 10
-59.100955
 20
-473.5
 30
0.0
 40
1.0
 50
270.0
 51
315.0
  0
ARC
  8
0
 10
-57.186742
 20
-471.585786
 30
0.0
 40
1.0
 50
315.0
 51
0.0
  0
ARC
  8
0
 10
-60.686742
 20
-453.207107
 30
0.0
 40
0.5
 50
315.0
 51
0.0
  0
ARC
  8
0
 10
-61.186742
 20
-420.5
 30
0.0
 40
1.0
 50
90.0
 51
180.0
  0
ARC
  8
0
 10
-57.186742
 20
-420.5
 30
0.0
 40
1.0
 50
0.0
 51
90.0
  0
ARC
  8
0
 10
-61.186742
 20
-473.5
 30
0.0
 40
1.0
 50
180.0
 51
270.0
  0
ARC
  8
0
 10
-63.186742
 20
-470.414214
 30
0.0
 40
1.0
 50
0.0
 51
135.0
  0
ARC
  8
0
 10
-110.686742
 20
-471.5
 30
0.0
 40
2.0
 50
180.0
 51
270.0
  0
ARC
  8
0
 10
-113.186742
 20
-474.0
 30
0.0
 40
3.0
 50
180.0
 51
270.0
  0
LINE
  8
0
 10
-185.478822
 20
-177.0
 30
0.0
 11
-191.186742
 21
-177.0
 31
0.0
  0
LINE
  8
0
 10
-116.186742
 20
-446.5
 30
0.0
 11
-116.186742
 21
-207.5
 31
0.0
  0
LINE
  8
0
 10
-183.186742
 20
-237.0
 30
0.0
 11
-191.186742
 21
-237.0
 31
0.0
  0
LINE
  8
0
 10
-141.186742
 20
-327.0
 30
0.0
 11
-141.186742
 21
-264.983201
 31
0.0
  0
LINE
  8
0
 10
-183.186742
 20
-237.0
 30
0.0
 11
-147.926288
 21
-254.197673
 31
0.0
  0
LINE
  8
0
 10
-183.186742
 20
-417.0
 30
0.0
 11
-147.926288
 21
-399.802328
 31
0.0
  0
LINE
  8
0
 10
-141.186742
 20
-327.0
 30
0.0
 11
-141.186742
 21
-389.016799
 31
0.0
  0
LINE
  8
0
 10
-183.186742
 20
-417.0
 30
0.0
 11
-191.186742
 21
-417.0
 31
0.0
  0
LINE
  8
0
 10
-185.478822
 20
-477.0
 30
0.0
 11
-191.186742
 21
-477.0
 31
0.0
  0
LINE
  8
0
 10
-118.186742
 20
-448.5
 30
0.0
 11
-185.478822
 21
-477.0
 31
0.0
  0
LINE
  8
0
 10
-118.186742
 20
-205.5
 30
0.0
 11
-185.478822
 21
-177.0
 31
0.0
  0
LINE
  8
0
 10
-191.186742
 20
-237.0
 30
0.0
 11
-191.186742
 21
-177.0
 31
0.0
  0
LINE
  8
0
 10
-191.186742
 20
-417.0
 30
0.0
 11
-191.186742
 21
-477.0
 31
0.0
  0
ARC
  8
0
 10
-118.186742
 20
-207.5
 30
0.0
 40
2.0
 50
0.0
 51
90.0
  0
ARC
  8
0
 10
-153.186742
 20
-264.983201
 30
0.0
 40
12.0
 50
0.0
 51
64.0
  0
ARC
  8
0
 10
-153.186742
 20
-389.016799
 30
0.0
 40
12.0
 50
296.0
 51
0.0
  0
ARC
  8
0
 10
-118.186742
 20
-446.5
 30
0.0
 40
2.0
 50
270.0
 51
0.0
  0
LINE
  8
0
 10
-216.180825
 20
-103.04374
 30
0.0
 11
-202.388681
 21
-89.251596
 31
0.0
  0
LINE
  8
0
 10
-216.180825
 20
-117.185876
 30
0.0
 11
-191.180825
 21
-92.185876
 31
0.0
  0
LINE
  8
0
 10
-216.180825
 20
-131.328012
 30
0.0
 11
-191.180825
 21
-106.328012
 31
0.0
  0
LINE
  8
0
 10
-216.180825
 20
-145.470147
 30
0.0
 11
-191.180825
 21
-120.470147
 31
0.0
  0
LINE
  8
0
 10
-216.180825
 20
-159.612283
 30
0.0
 11
-191.180825
 21
-134.612283
 31
0.0
  0
LINE
  8
0
 10
-216.180825
 20
-173.754419
 30
0.0
 11
-191.180825
 21
-148.754419
 31
0.0
  0
LINE
  8
0
 10
-216.180825
 20
-187.896554
 30
0.0
 11
-191.180825
 21
-162.896554
 31
0.0
  0
LINE
  8
0
 10
-216.180825
 20
-202.03869
 30
0.0
 11
-191.180825
 21
-177.03869
 31
0.0
  0
LINE
  8
0
 10
-216.180825
 20
-216.180825
 30
0.0
 11
-191.180825
 21
-191.180825
 31
0.0
  0
LINE
  8
0
 10
-216.180825
 20
-230.322961
 30
0.0
 11
-191.180825
 21
-205.322961
 31
0.0
  0
LINE
  8
0
 10
-216.180825
 20
-244.465097
 30
0.0
 11
-191.180825
 21
-219.465097
 31
0.0
  0
LINE
  8
0
 10
-216.180825
 20
-258.607232
 30
0.0
 11
-191.180825
 21
-233.607232
 31
0.0
  0
LINE
  8
0
 10
-216.180825
 20
-272.749368
 30
0.0
 11
-191.180825
 21
-247.749368
 31
0.0
  0
LINE
  8
0
 10
-216.180825
 20
-286.891504
 30
0.0
 11
-191.180825
 21
-261.891504
 31
0.0
  0
LINE
  8
0
 10
-216.180825
 20
-301.033639
 30
0.0
 11
-191.180825
 21
-276.033639
 31
0.0
  0
LINE
  8
0
 10
-216.180825
 20
-315.175775
 30
0.0
 11
-191.180825
 21
-290.175775
 31
0.0
  0
LINE
  8
0
 10
-216.180825
 20
-329.31791
 30
0.0
 11
-191.180825
 21
-304.31791
 31
0.0
  0
LINE
  8
0
 10
-216.180825
 20
-343.460046
 30
0.0
 11
-191.180825
 21
-318.460046
 31
0.0
  0
LINE
  8
0
 10
-216.180825
 20
-357.602182
 30
0.0
 11
-191.180825
 21
-332.602182
 31
0.0
  0
LINE
  8
0
 10
-216.180825
 20
-371.744317
 30
0.0
 11
-191.180825
 21
-346.744317
 31
0.0
  0
LINE
  8
0
 10
-216.180825
 20
-385.886453
 30
0.0
 11
-191.180825
 21
-360.886453
 31
0.0
  0
LINE
  8
0
 10
-216.180825
 20
-400.028589
 30
0.0
 11
-191.180825
 21
-375.028589
 31
0.0
  0
LINE
  8
0
 10
-216.180825
 20
-414.170724
 30
0.0
 11
-191.180825
 21
-389.170724
 31
0.0
  0
LINE
  8
0
 10
-216.180825
 20
-428.31286
 30
0.0
 11
-191.180825
 21
-403.31286
 31
0.0
  0
LINE
  8
0
 10
-216.180825
 20
-442.454995
 30
0.0
 11
-191.180825
 21
-417.454995
 31
0.0
  0
LINE
  8
0
 10
-216.180825
 20
-456.597131
 30
0.0
 11
-191.180825
 21
-431.597131
 31
0.0
  0
LINE
  8
0
 10
-216.180825
 20
-470.739267
 30
0.0
 11
-191.180825
 21
-445.739267
 31
0.0
  0
LINE
  8
0
 10
-216.180825
 20
-484.881402
 30
0.0
 11
-191.180825
 21
-459.881402
 31
0.0
  0
LINE
  8
0
 10
-216.180825
 20
-499.023538
 30
0.0
 11
-191.180825
 21
-474.023538
 31
0.0
  0
LINE
  8
0
 10
-216.180825
 20
-513.165674
 30
0.0
 11
-191.180825
 21
-488.165674
 31
0.0
  0
LINE
  8
0
 10
-216.180825
 20
-527.307809
 30
0.0
 11
-191.180825
 21
-502.307809
 31
0.0
  0
LINE
  8
0
 10
-216.180825
 20
-541.449945
 30
0.0
 11
-191.180825
 21
-516.449945
 31
0.0
  0
LINE
  8
0
 10
-216.180825
 20
-555.59208
 30
0.0
 11
-191.180825
 21
-530.59208
 31
0.0
  0
LINE
  8
0
 10
-206.698205
 20
-560.251596
 30
0.0
 11
-191.180825
 21
-544.734216
 31
0.0
  0
LINE
  8
0
 10
-192.55607
 20
-560.251596
 30
0.0
 11
-191.180825
 21
-558.876352
 31
0.0
  0
LINE
  8
0
 10
-216.180825
 20
-103.04374
 30
0.0
 11
-204.637085
 21
-91.5
 31
0.0
  0
LINE
  8
0
 10
-216.180825
 20
-117.185876
 30
0.0
 11
-191.180825
 21
-92.185876
 31
0.0
  0
LINE
  8
0
 10
-216.180825
 20
-131.328012
 30
0.0
 11
-191.180825
 21
-106.328012
 31
0.0
  0
LINE
  8
0
 10
-216.180825
 20
-145.470147
 30
0.0
 11
-191.180825
 21
-120.470147
 31
0.0
  0
LINE
  8
0
 10
-216.180825
 20
-159.612283
 30
0.0
 11
-191.180825
 21
-134.612283
 31
0.0
  0
LINE
  8
0
 10
-216.180825
 20
-173.754419
 30
0.0
 11
-191.180825
 21
-148.754419
 31
0.0
  0
LINE
  8
0
 10
-216.180825
 20
-187.896554
 30
0.0
 11
-191.180825
 21
-162.896554
 31
0.0
  0
LINE
  8
0
 10
-216.180825
 20
-202.03869
 30
0.0
 11
-191.180825
 21
-177.03869
 31
0.0
  0
LINE
  8
0
 10
-216.180825
 20
-216.180825
 30
0.0
 11
-191.180825
 21
-191.180825
 31
0.0
  0
LINE
  8
0
 10
-216.180825
 20
-230.322961
 30
0.0
 11
-191.180825
 21
-205.322961
 31
0.0
  0
LINE
  8
0
 10
-216.180825
 20
-244.465097
 30
0.0
 11
-191.180825
 21
-219.465097
 31
0.0
  0
LINE
  8
0
 10
-216.180825
 20
-258.607232
 30
0.0
 11
-191.180825
 21
-233.607232
 31
0.0
  0
LINE
  8
0
 10
-216.180825
 20
-272.749368
 30
0.0
 11
-191.180825
 21
-247.749368
 31
0.0
  0
LINE
  8
0
 10
-216.180825
 20
-286.891504
 30
0.0
 11
-191.180825
 21
-261.891504
 31
0.0
  0
LINE
  8
0
 10
-216.180825
 20
-301.033639
 30
0.0
 11
-191.180825
 21
-276.033639
 31
0.0
  0
LINE
  8
0
 10
-216.180825
 20
-315.175775
 30
0.0
 11
-191.180825
 21
-290.175775
 31
0.0
  0
LINE
  8
0
 10
-216.180825
 20
-329.31791
 30
0.0
 11
-191.180825
 21
-304.31791
 31
0.0
  0
LINE
  8
0
 10
-216.180825
 20
-343.460046
 30
0.0
 11
-191.180825
 21
-318.460046
 31
0.0
  0
LINE
  8
0
 10
-216.180825
 20
-357.602182
 30
0.0
 11
-191.180825
 21
-332.602182
 31
0.0
  0
LINE
  8
0
 10
-216.180825
 20
-371.744317
 30
0.0
 11
-191.180825
 21
-346.744317
 31
0.0
  0
LINE
  8
0
 10
-216.180825
 20
-385.886453
 30
0.0
 11
-191.180825
 21
-360.886453
 31
0.0
  0
LINE
  8
0
 10
-216.180825
 20
-400.028589
 30
0.0
 11
-191.180825
 21
-375.028589
 31
0.0
  0
LINE
  8
0
 10
-216.180825
 20
-414.170724
 30
0.0
 11
-191.180825
 21
-389.170724
 31
0.0
  0
LINE
  8
0
 10
-216.180825
 20
-428.31286
 30
0.0
 11
-191.180825
 21
-403.31286
 31
0.0
  0
LINE
  8
0
 10
-216.180825
 20
-442.454995
 30
0.0
 11
-191.180825
 21
-417.454995
 31
0.0
  0
LINE
  8
0
 10
-216.180825
 20
-456.597131
 30
0.0
 11
-191.180825
 21
-431.597131
 31
0.0
  0
LINE
  8
0
 10
-216.180825
 20
-470.739267
 30
0.0
 11
-191.180825
 21
-445.739267
 31
0.0
  0
LINE
  8
0
 10
-216.180825
 20
-484.881402
 30
0.0
 11
-191.180825
 21
-459.881402
 31
0.0
  0
LINE
  8
0
 10
-216.180825
 20
-499.023538
 30
0.0
 11
-191.180825
 21
-474.023538
 31
0.0
  0
LINE
  8
0
 10
-216.180825
 20
-513.165674
 30
0.0
 11
-191.180825
 21
-488.165674
 31
0.0
  0
LINE
  8
0
 10
-216.180825
 20
-527.307809
 30
0.0
 11
-191.180825
 21
-502.307809
 31
0.0
  0
LINE
  8
0
 10
-216.180825
 20
-541.449945
 30
0.0
 11
-191.180825
 21
-516.449945
 31
0.0
  0
LINE
  8
0
 10
-216.180825
 20
-555.59208
 30
0.0
 11
-191.180825
 21
-530.59208
 31
0.0
  0
LINE
  8
0
 10
-208.946609
 20
-562.5
 30
0.0
 11
-191.180825
 21
-544.734216
 31
0.0
  0
LINE
  8
0
 10
-194.804474
 20
-562.5
 30
0.0
 11
-191.180825
 21
-558.876352
 31
0.0
  0
LINE
  8
0
 10
-112.686742
 20
-334.324098
 30
0.0
 11
-112.686742
 21
-309.324098
 31
0.0
  0
LINE
  8
0
 10
-74.172023
 20
-342.324098
 30
0.0
 11
-104.686742
 21
-342.324098
 31
0.0
  0
LINE
  8
0
 10
-62.772528
 20
-333.409885
 30
0.0
 11
-69.929382
 21
-340.566739
 31
0.0
  0
LINE
  8
0
 10
-62.186742
 20
-327.324098
 30
0.0
 11
-62.186742
 21
-331.995671
 31
0.0
  0
LINE
  8
0
 10
-66.186742
 20
-326.324098
 30
0.0
 11
-63.186742
 21
-326.324098
 31
0.0
  0
LINE
  8
0
 10
-66.186742
 20
-331.167244
 30
0.0
 11
-66.186742
 21
-330.324098
 31
0.0
  0
LINE
  8
0
 10
-72.757809
 20
-337.738312
 30
0.0
 11
-66.186742
 21
-331.167244
 31
0.0
  0
LINE
  8
0
 10
-104.686742
 20
-338.324098
 30
0.0
 11
-74.172023
 21
-338.324098
 31
0.0
  0
LINE
  8
0
 10
-108.686742
 20
-309.324098
 30
0.0
 11
-108.686742
 21
-334.324098
 31
0.0
  0
ARC
  8
0
 10
-110.686742
 20
-309.324098
 30
0.0
 40
2.0
 50
90.0
 51
180.0
  0
ARC
  8
0
 10
-110.686742
 20
-309.324098
 30
0.0
 40
2.0
 50
0.0
 51
90.0
  0
ARC
  8
0
 10
-66.186742
 20
-328.324098
 30
0.0
 40
2.0
 50
90.0
 51
270.0
  0
ARC
  8
0
 10
-64.186742
 20
-331.995671
 30
0.0
 40
2.0
 50
315.0
 51
0.0
  0
ARC
  8
0
 10
-63.186742
 20
-327.324098
 30
0.0
 40
1.0
 50
0.0
 51
90.0
  0
ARC
  8
0
 10
-74.172023
 20
-336.324098
 30
0.0
 40
6.0
 50
270.0
 51
315.0
  0
ARC
  8
0
 10
-104.686742
 20
-334.324098
 30
0.0
 40
8.0
 50
180.0
 51
270.0
  0
ARC
  8
0
 10
-104.686742
 20
-334.324098
 30
0.0
 40
4.0
 50
180.0
 51
270.0
  0
ARC
  8
0
 10
-74.172023
 20
-336.324098
 30
0.0
 40
2.0
 50
270.0
 51
315.0
  0
LINE
  8
0
 10
-54.686742
 20
-477.0
 30
0.0
 11
-66.186742
 21
-477.0
 31
0.0
  0
LINE
  8
0
 10
-52.186742
 20
-179.33824
 30
0.0
 11
-52.186742
 21
-474.5
 31
0.0
  0
LINE
  8
0
 10
-54.686742
 20
-473.0
 30
0.0
 11
-54.686742
 21
-180.83824
 31
0.0
  0
LINE
  8
0
 10
-67.600955
 20
-473.585786
 30
0.0
 11
-63.790295
 21
-469.775126
 31
0.0
  0
LINE
  8
0
 10
-62.186742
 20
-470.43934
 30
0.0
 11
-62.186742
 21
-473.9
 31
0.0
  0
LINE
  8
0
 10
-63.211006
 20
-474.324264
 30
0.0
 11
-64.361006
 21
-473.174264
 31
0.0
  0
LINE
  8
0
 10
-64.361006
 20
-473.174264
 30
0.0
 11
-65.686742
 21
-474.5
 31
0.0
  0
LINE
  8
0
 10
-65.686742
 20
-474.5
 30
0.0
 11
-56.186742
 21
-474.5
 31
0.0
  0
LINE
  8
0
 10
-63.790295
 20
-184.063113
 30
0.0
 11
-67.600955
 21
-180.252453
 31
0.0
  0
LINE
  8
0
 10
-62.186742
 20
-179.93824
 30
0.0
 11
-62.186742
 21
-183.3989
 31
0.0
  0
LINE
  8
0
 10
-64.361006
 20
-180.663976
 30
0.0
 11
-63.211006
 21
-179.513976
 31
0.0
  0
LINE
  8
0
 10
-65.686742
 20
-179.33824
 30
0.0
 11
-64.361006
 21
-180.663976
 31
0.0
  0
LINE
  8
0
 10
-56.186742
 20
-179.33824
 30
0.0
 11
-65.686742
 21
-179.33824
 31
0.0
  0
LINE
  8
0
 10
-66.186742
 20
-176.83824
 30
0.0
 11
-54.686742
 21
-176.83824
 31
0.0
  0
ARC
  8
0
 10
-63.126082
 20
-470.43934
 30
0.0
 40
0.93934
 50
90.866301
 51
135.0
  0
ARC
  8
0
 10
-62.786742
 20
-473.9
 30
0.0
 40
0.6
 50
225.0
 51
0.0
  0
ARC
  8
0
 10
-66.186742
 20
-475.0
 30
0.0
 40
2.0
 50
135.0
 51
270.0
  0
ARC
  8
0
 10
-63.126082
 20
-183.3989
 30
0.0
 40
0.93934
 50
269.820102
 51
0.0
  0
ARC
  8
0
 10
-62.786742
 20
-179.93824
 30
0.0
 40
0.6
 50
0.0
 51
135.0
  0
ARC
  8
0
 10
-66.186742
 20
-178.83824
 30
0.0
 40
2.0
 50
90.0
 51
225.0
  0
ARC
  8
0
 10
-63.126082
 20
-183.3989
 30
0.0
 40
0.93934
 50
225.0
 51
269.820102
  0
ARC
  8
0
 10
-63.126082
 20
-470.43934
 30
0.0
 40
0.93934
 50
0.0
 51
90.866301
  0
ARC
  8
0
 10
-54.686742
 20
-474.5
 30
0.0
 40
2.5
 50
270.0
 51
0.0
  0
ARC
  8
0
 10
-54.686742
 20
-179.33824
 30
0.0
 40
2.5
 50
0.0
 51
90.0
  0
ARC
  8
0
 10
-56.186742
 20
-473.0
 30
0.0
 40
1.5
 50
270.0
 51
0.0
  0
ARC
  8
0
 10
-56.186742
 20
-180.83824
 30
0.0
 40
1.5
 50
0.0
 51
90.0
  0
ENDSEC
  0
EOF
