  0
SECTION
  2
HEADER
  9
$ACADVER
  1
AC1009
  9
$INSBASE
 10
0.0
 20
0.0
 30
0.0
  9
$EXTMIN
 10
-785.81373
 20
-562.5
 30
0.0
  9
$EXTMAX
 10
-621.30188
 20
-91.5
 30
0.0
  9
$LIMMIN
 10
-785.81373
 20
-562.5
  9
$LIMMAX
 10
-621.819647
 20
-91.5
  9
$ORTHOMODE
 70
     0
  9
$REGENMODE
 70
     1
  9
$FILLMODE
 70
     1
  9
$QTEXTMODE
 70
     0
  9
$MIRRTEXT
 70
     1
  9
$DRAGMODE
 70
     2
  9
$LTSCALE
 40
1.0
  9
$OSMODE
 70
     0
  9
$ATTMODE
 70
     1
  9
$TEXTSIZE
 40
3.5
  9
$TRACEWID
 40
0.5
  9
$TEXTSTYLE
  7
STANDARD
  9
$CLAYER
  8
0
  9
$CELTYPE
  6
BYLAYER
  9
$CECOLOR
 62
   256
  9
$DIMSCALE
 40
1.0
  9
$DIMASZ
 40
0.18
  9
$DIMEXO
 40
0.0625
  9
$DIMDLI
 40
0.38
  9
$DIMRND
 40
0.0
  9
$DIMDLE
 40
0.0
  9
$DIMEXE
 40
0.18
  9
$DIMTP
 40
0.0
  9
$DIMTM
 40
0.0
  9
$DIMTXT
 40
0.18
  9
$DIMCEN
 40
0.09
  9
$DIMTSZ
 40
0.0
  9
$DIMTOL
 70
     0
  9
$DIMLIM
 70
     0
  9
$DIMTIH
 70
     1
  9
$DIMTOH
 70
     1
  9
$DIMSE1
 70
     0
  9
$DIMSE2
 70
     0
  9
$DIMTAD
 70
     0
  9
$DIMZIN
 70
     0
  9
$DIMBLK
  1

  9
$DIMASO
 70
     1
  9
$DIMSHO
 70
     1
  9
$DIMPOST
  1

  9
$DIMAPOST
  1

  9
$DIMALT
 70
     0
  9
$DIMALTD
 70
     2
  9
$DIMALTF
 40
25.4
  9
$DIMLFAC
 40
1.0
  9
$DIMTOFL
 70
     0
  9
$DIMTVP
 40
0.0
  9
$DIMTIX
 70
     0
  9
$DIMSOXD
 70
     0
  9
$DIMSAH
 70
     0
  9
$DIMBLK1
  1

  9
$DIMBLK2
  1

  9
$DIMSTYLE
  2
*UNNAMED
  9
$DIMCLRD
 70
     0
  9
$DIMCLRE
 70
     0
  9
$DIMCLRT
 70
     0
  9
$DIMTFAC
 40
1.0
  9
$DIMGAP
 40
0.09
  9
$LUNITS
 70
     2
  9
$LUPREC
 70
     4
  9
$SKETCHINC
 40
0.1
  9
$FILLETRAD
 40
2.0
  9
$AUNITS
 70
     0
  9
$AUPREC
 70
     0
  9
$MENU
  1
ACAD
  9
$ELEVATION
 40
0.0
  9
$PELEVATION
 40
0.0
  9
$THICKNESS
 40
0.0
  9
$LIMCHECK
 70
     0
  9
$BLIPMODE
 70
     1
  9
$CHAMFERA
 40
0.0
  9
$CHAMFERB
 40
0.0
  9
$SKPOLY
 70
     0
  9
$TDCREATE
 40
2450948.501778009
  9
$TDUPDATE
 40
2450948.502088889
  9
$TDINDWG
 40
0.0001685185
  9
$TDUSRTIMER
 40
0.0001685185
  9
$USRTIMER
 70
     1
  9
$ANGBASE
 50
0.0
  9
$ANGDIR
 70
     0
  9
$PDMODE
 70
     0
  9
$PDSIZE
 40
0.0
  9
$PLINEWID
 40
0.0
  9
$COORDS
 70
     2
  9
$SPLFRAME
 70
     0
  9
$SPLINETYPE
 70
     6
  9
$SPLINESEGS
 70
     8
  9
$ATTDIA
 70
     0
  9
$ATTREQ
 70
     1
  9
$HANDLING
 70
     0
  9
$HANDSEED
  5
0
  9
$SURFTAB1
 70
     6
  9
$SURFTAB2
 70
     6
  9
$SURFTYPE
 70
     6
  9
$SURFU
 70
     6
  9
$SURFV
 70
     6
  9
$UCSNAME
  2

  9
$UCSORG
 10
0.0
 20
0.0
 30
0.0
  9
$UCSXDIR
 10
1.0
 20
0.0
 30
0.0
  9
$UCSYDIR
 10
0.0
 20
1.0
 30
0.0
  9
$PUCSNAME
  2

  9
$PUCSORG
 10
0.0
 20
0.0
 30
0.0
  9
$PUCSXDIR
 10
1.0
 20
0.0
 30
0.0
  9
$PUCSYDIR
 10
0.0
 20
1.0
 30
0.0
  9
$USERI1
 70
     0
  9
$USERI2
 70
     0
  9
$USERI3
 70
     0
  9
$USERI4
 70
     0
  9
$USERI5
 70
     0
  9
$USERR1
 40
0.0
  9
$USERR2
 40
0.0
  9
$USERR3
 40
0.0
  9
$USERR4
 40
0.0
  9
$USERR5
 40
0.0
  9
$WORLDVIEW
 70
     1
  9
$SHADEDGE
 70
     3
  9
$SHADEDIF
 70
    70
  9
$TILEMODE
 70
     1
  9
$MAXACTVP
 70
    16
  9
$PINSBASE
 10
0.0
 20
0.0
 30
0.0
  9
$PLIMCHECK
 70
     0
  9
$PEXTMIN
 10
1.000000E+20
 20
1.000000E+20
 30
1.000000E+20
  9
$PEXTMAX
 10
-1.000000E+20
 20
-1.000000E+20
 30
-1.000000E+20
  9
$PLIMMIN
 10
0.0
 20
0.0
  9
$PLIMMAX
 10
420.0
 20
297.0
  9
$UNITMODE
 70
     0
  9
$VISRETAIN
 70
     0
  9
$PLINEGEN
 70
     0
  9
$PSLTSCALE
 70
     1
  9
$TREEDEPTH
 70
  3020
  9
$DWGCODEPAGE
  3
iso8859-1
  0
ENDSEC
  0
SECTION
  2
TABLES
  0
TABLE
  2
VPORT
 70
     2
  0
VPORT
  2
*ACTIVE
 70
     0
 10
0.0
 20
0.0
 11
1.0
 21
1.0
 12
-357.255363
 22
-354.810912
 13
0.0
 23
0.0
 14
1.0
 24
1.0
 15
0.0
 25
0.0
 16
0.0
 26
0.0
 36
1.0
 17
0.0
 27
0.0
 37
0.0
 40
635.218389
 41
1.748359
 42
50.0
 43
0.0
 44
0.0
 50
0.0
 51
0.0
 71
     0
 72
   100
 73
     1
 74
     0
 75
     0
 76
     0
 77
     0
 78
     0
  0
ENDTAB
  0
TABLE
  2
LTYPE
 70
     1
  0
LTYPE
  2
CONTINUOUS
 70
    64
  3
Solid line
 72
    65
 73
     0
 40
0.0
  0
ENDTAB
  0
TABLE
  2
LAYER
 70
     1
  0
LAYER
  2
0
 70
    64
 62
     7
  6
CONTINUOUS
  0
ENDTAB
  0
TABLE
  2
STYLE
 70
     1
  0
STYLE
  2
STANDARD
 70
     0
 40
0.0
 41
1.0
 50
0.0
 71
     0
 42
3.5
  3
txt
  4

  0
ENDTAB
  0
TABLE
  2
VIEW
 70
     0
  0
ENDTAB
  0
TABLE
  2
UCS
 70
     0
  0
ENDTAB
  0
TABLE
  2
APPID
 70
     1
  0
APPID
  2
ACAD
 70
    64
  0
ENDTAB
  0
TABLE
  2
DIMSTYLE
 70
     0
  0
ENDTAB
  0
ENDSEC
  0
SECTION
  2
BLOCKS
  0
ENDSEC
  0
SECTION
  2
ENTITIES
  0
LINE
  8
0
 10
-685.819647
 20
-180.0
 30
0.0
 11
-685.819647
 21
-474.0
 31
0.0
  0
LINE
  8
0
 10
-682.319647
 20
-182.5
 30
0.0
 11
-682.319647
 21
-471.5
 31
0.0
  0
LINE
  8
0
 10
-631.905433
 20
-198.5
 30
0.0
 11
-628.819647
 21
-198.5
 31
0.0
  0
LINE
  8
0
 10
-631.905433
 20
-198.5
 30
0.0
 11
-629.966093
 21
-200.43934
 31
0.0
  0
LINE
  8
0
 10
-629.819647
 20
-200.792893
 30
0.0
 11
-629.819647
 21
-232.5
 31
0.0
  0
LINE
  8
0
 10
-629.819647
 20
-196.5
 30
0.0
 11
-628.819647
 21
-196.5
 31
0.0
  0
LINE
  8
0
 10
-629.819647
 20
-232.5
 30
0.0
 11
-627.819647
 21
-232.5
 31
0.0
  0
LINE
  8
0
 10
-627.819647
 20
-182.828427
 30
0.0
 11
-627.819647
 21
-232.5
 31
0.0
  0
LINE
  8
0
 10
-629.819647
 20
-181.5
 30
0.0
 11
-629.819647
 21
-196.5
 31
0.0
  0
LINE
  8
0
 10
-629.148074
 20
-181.5
 30
0.0
 11
-629.819647
 21
-181.5
 31
0.0
  0
LINE
  8
0
 10
-627.819647
 20
-182.828427
 30
0.0
 11
-629.148074
 21
-181.5
 31
0.0
  0
LINE
  8
0
 10
-625.819647
 20
-233.5
 30
0.0
 11
-625.819647
 21
-182.414214
 31
0.0
  0
LINE
  8
0
 10
-631.819647
 20
-202.656854
 30
0.0
 11
-631.819647
 21
-233.5
 31
0.0
  0
LINE
  8
0
 10
-635.026753
 20
-198.207107
 30
0.0
 11
-632.698326
 21
-200.535534
 31
0.0
  0
LINE
  8
0
 10
-632.319647
 20
-196.5
 30
0.0
 11
-634.319647
 21
-196.5
 31
0.0
  0
LINE
  8
0
 10
-626.819647
 20
-234.5
 30
0.0
 11
-630.819647
 21
-234.5
 31
0.0
  0
LINE
  8
0
 10
-631.819647
 20
-190.77309
 30
0.0
 11
-631.819647
 21
-196.0
 31
0.0
  0
LINE
  8
0
 10
-626.11254
 20
-181.707107
 30
0.0
 11
-628.026753
 21
-179.792893
 31
0.0
  0
LINE
  8
0
 10
-631.819647
 20
-180.5
 30
0.0
 11
-631.819647
 21
-183.585786
 31
0.0
  0
LINE
  8
0
 10
-628.73386
 20
-179.5
 30
0.0
 11
-630.819647
 21
-179.5
 31
0.0
  0
LINE
  8
0
 10
-642.097574
 20
-180.496436
 30
0.0
 11
-680.319647
 21
-180.5
 31
0.0
  0
LINE
  8
0
 10
-640.68336
 20
-181.082223
 30
0.0
 11
-632.405433
 21
-189.358876
 31
0.0
  0
LINE
  8
0
 10
-639.940967
 20
-177.87868
 30
0.0
 11
-633.526753
 21
-184.292893
 31
0.0
  0
LINE
  8
0
 10
-682.819647
 20
-177.0
 30
0.0
 11
-642.062287
 21
-177.0
 31
0.0
  0
LINE
  8
0
 10
-628.819647
 20
-455.5
 30
0.0
 11
-631.905433
 21
-455.5
 31
0.0
  0
LINE
  8
0
 10
-629.966093
 20
-453.56066
 30
0.0
 11
-631.905433
 21
-455.5
 31
0.0
  0
LINE
  8
0
 10
-629.819647
 20
-421.5
 30
0.0
 11
-629.819647
 21
-453.207107
 31
0.0
  0
LINE
  8
0
 10
-628.819647
 20
-457.5
 30
0.0
 11
-629.819647
 21
-457.5
 31
0.0
  0
LINE
  8
0
 10
-627.819647
 20
-421.5
 30
0.0
 11
-629.819647
 21
-421.5
 31
0.0
  0
LINE
  8
0
 10
-627.819647
 20
-421.5
 30
0.0
 11
-627.819647
 21
-471.171573
 31
0.0
  0
LINE
  8
0
 10
-629.819647
 20
-457.5
 30
0.0
 11
-629.819647
 21
-472.5
 31
0.0
  0
LINE
  8
0
 10
-629.819647
 20
-472.5
 30
0.0
 11
-629.148074
 21
-472.5
 31
0.0
  0
LINE
  8
0
 10
-629.148074
 20
-472.5
 30
0.0
 11
-627.819647
 21
-471.171573
 31
0.0
  0
LINE
  8
0
 10
-625.819647
 20
-471.585786
 30
0.0
 11
-625.819647
 21
-420.5
 31
0.0
  0
LINE
  8
0
 10
-631.819647
 20
-420.5
 30
0.0
 11
-631.819647
 21
-451.343146
 31
0.0
  0
LINE
  8
0
 10
-632.698326
 20
-453.464466
 30
0.0
 11
-635.026753
 21
-455.792893
 31
0.0
  0
LINE
  8
0
 10
-634.319647
 20
-457.5
 30
0.0
 11
-632.319647
 21
-457.5
 31
0.0
  0
LINE
  8
0
 10
-630.819647
 20
-419.5
 30
0.0
 11
-626.819647
 21
-419.5
 31
0.0
  0
LINE
  8
0
 10
-631.819647
 20
-458.0
 30
0.0
 11
-631.819647
 21
-463.22691
 31
0.0
  0
LINE
  8
0
 10
-628.026753
 20
-474.207107
 30
0.0
 11
-626.11254
 21
-472.292893
 31
0.0
  0
LINE
  8
0
 10
-631.819647
 20
-470.414214
 30
0.0
 11
-631.819647
 21
-473.5
 31
0.0
  0
LINE
  8
0
 10
-630.819647
 20
-474.5
 30
0.0
 11
-628.73386
 21
-474.5
 31
0.0
  0
LINE
  8
0
 10
-632.405433
 20
-464.641124
 30
0.0
 11
-640.68336
 21
-472.917777
 31
0.0
  0
LINE
  8
0
 10
-633.526753
 20
-469.707107
 30
0.0
 11
-639.940967
 21
-476.12132
 31
0.0
  0
LINE
  8
0
 10
-642.062287
 20
-477.0
 30
0.0
 11
-682.819647
 21
-477.0
 31
0.0
  0
LINE
  8
0
 10
-680.319647
 20
-473.5
 30
0.0
 11
-642.097574
 21
-473.503564
 31
0.0
  0
LINE
  8
0
 10
-760.819647
 20
-177.0
 30
0.0
 11
-760.81373
 21
-91.5
 31
0.0
  0
LINE
  8
0
 10
-760.819647
 20
-477.0
 30
0.0
 11
-760.81373
 21
-562.5
 31
0.0
  0
LINE
  8
0
 10
-760.819647
 20
-237.0
 30
0.0
 11
-760.819647
 21
-417.0
 31
0.0
  0
ARC
  8
0
 10
-634.319647
 20
-197.5
 30
0.0
 40
1.0
 50
90.0
 51
225.0
  0
ARC
  8
0
 10
-628.819647
 20
-197.5
 30
0.0
 40
1.0
 50
270.0
 51
90.0
  0
ARC
  8
0
 10
-634.319647
 20
-456.5
 30
0.0
 40
1.0
 50
135.0
 51
270.0
  0
ARC
  8
0
 10
-628.819647
 20
-456.5
 30
0.0
 40
1.0
 50
270.0
 51
90.0
  0
ARC
  8
0
 10
-642.062287
 20
-180.0
 30
0.0
 40
3.0
 50
45.0
 51
90.0
  0
ARC
  8
0
 10
-680.319647
 20
-182.5
 30
0.0
 40
2.0
 50
90.0
 51
180.0
  0
ARC
  8
0
 10
-682.819647
 20
-180.0
 30
0.0
 40
3.0
 50
90.0
 51
180.0
  0
ARC
  8
0
 10
-642.097574
 20
-182.496436
 30
0.0
 40
2.0
 50
45.0
 51
90.0
  0
ARC
  8
0
 10
-634.819647
 20
-202.656854
 30
0.0
 40
3.0
 50
0.0
 51
45.0
  0
ARC
  8
0
 10
-632.319647
 20
-196.0
 30
0.0
 40
0.5
 50
270.0
 51
0.0
  0
ARC
  8
0
 10
-633.819647
 20
-190.77309
 30
0.0
 40
2.0
 50
0.0
 51
45.0
  0
ARC
  8
0
 10
-628.73386
 20
-180.5
 30
0.0
 40
1.0
 50
45.0
 51
90.0
  0
ARC
  8
0
 10
-626.819647
 20
-182.414214
 30
0.0
 40
1.0
 50
0.0
 51
45.0
  0
ARC
  8
0
 10
-630.319647
 20
-200.792893
 30
0.0
 40
0.5
 50
0.0
 51
45.0
  0
ARC
  8
0
 10
-630.819647
 20
-233.5
 30
0.0
 40
1.0
 50
180.0
 51
270.0
  0
ARC
  8
0
 10
-626.819647
 20
-233.5
 30
0.0
 40
1.0
 50
270.0
 51
0.0
  0
ARC
  8
0
 10
-630.819647
 20
-180.5
 30
0.0
 40
1.0
 50
90.0
 51
180.0
  0
ARC
  8
0
 10
-632.819647
 20
-183.585786
 30
0.0
 40
1.0
 50
225.0
 51
0.0
  0
ARC
  8
0
 10
-642.062287
 20
-474.0
 30
0.0
 40
3.0
 50
270.0
 51
315.0
  0
ARC
  8
0
 10
-642.097574
 20
-471.503564
 30
0.0
 40
2.0
 50
270.0
 51
315.0
  0
ARC
  8
0
 10
-634.819647
 20
-451.343146
 30
0.0
 40
3.0
 50
315.0
 51
0.0
  0
ARC
  8
0
 10
-632.319647
 20
-458.0
 30
0.0
 40
0.5
 50
0.0
 51
90.0
  0
ARC
  8
0
 10
-633.819647
 20
-463.22691
 30
0.0
 40
2.0
 50
315.0
 51
0.0
  0
ARC
  8
0
 10
-628.73386
 20
-473.5
 30
0.0
 40
1.0
 50
270.0
 51
315.0
  0
ARC
  8
0
 10
-626.819647
 20
-471.585786
 30
0.0
 40
1.0
 50
315.0
 51
0.0
  0
ARC
  8
0
 10
-630.319647
 20
-453.207107
 30
0.0
 40
0.5
 50
315.0
 51
0.0
  0
ARC
  8
0
 10
-630.819647
 20
-420.5
 30
0.0
 40
1.0
 50
90.0
 51
180.0
  0
ARC
  8
0
 10
-626.819647
 20
-420.5
 30
0.0
 40
1.0
 50
0.0
 51
90.0
  0
ARC
  8
0
 10
-630.819647
 20
-473.5
 30
0.0
 40
1.0
 50
180.0
 51
270.0
  0
ARC
  8
0
 10
-632.819647
 20
-470.414214
 30
0.0
 40
1.0
 50
0.0
 51
135.0
  0
ARC
  8
0
 10
-680.319647
 20
-471.5
 30
0.0
 40
2.0
 50
180.0
 51
270.0
  0
ARC
  8
0
 10
-682.819647
 20
-474.0
 30
0.0
 40
3.0
 50
180.0
 51
270.0
  0
LINE
  8
0
 10
-760.819647
 20
-417.0
 30
0.0
 11
-760.819647
 21
-477.0
 31
0.0
  0
LINE
  8
0
 10
-760.819647
 20
-237.0
 30
0.0
 11
-760.819647
 21
-177.0
 31
0.0
  0
LINE
  8
0
 10
-687.819647
 20
-205.5
 30
0.0
 11
-755.111727
 21
-177.0
 31
0.0
  0
LINE
  8
0
 10
-687.819647
 20
-448.5
 30
0.0
 11
-755.111727
 21
-477.0
 31
0.0
  0
LINE
  8
0
 10
-755.111727
 20
-477.0
 30
0.0
 11
-760.819647
 21
-477.0
 31
0.0
  0
LINE
  8
0
 10
-752.819647
 20
-417.0
 30
0.0
 11
-760.819647
 21
-417.0
 31
0.0
  0
LINE
  8
0
 10
-710.819647
 20
-327.0
 30
0.0
 11
-710.819647
 21
-389.016799
 31
0.0
  0
LINE
  8
0
 10
-752.819647
 20
-417.0
 30
0.0
 11
-717.559193
 21
-399.802328
 31
0.0
  0
LINE
  8
0
 10
-752.819647
 20
-237.0
 30
0.0
 11
-717.559193
 21
-254.197673
 31
0.0
  0
LINE
  8
0
 10
-710.819647
 20
-327.0
 30
0.0
 11
-710.819647
 21
-264.983201
 31
0.0
  0
LINE
  8
0
 10
-752.819647
 20
-237.0
 30
0.0
 11
-760.819647
 21
-237.0
 31
0.0
  0
LINE
  8
0
 10
-685.819647
 20
-446.5
 30
0.0
 11
-685.819647
 21
-207.5
 31
0.0
  0
LINE
  8
0
 10
-755.111727
 20
-177.0
 30
0.0
 11
-760.819647
 21
-177.0
 31
0.0
  0
ARC
  8
0
 10
-687.819647
 20
-446.5
 30
0.0
 40
2.0
 50
270.0
 51
0.0
  0
ARC
  8
0
 10
-722.819647
 20
-389.016799
 30
0.0
 40
12.0
 50
296.0
 51
0.0
  0
ARC
  8
0
 10
-722.819647
 20
-264.983201
 30
0.0
 40
12.0
 50
0.0
 51
64.0
  0
ARC
  8
0
 10
-687.819647
 20
-207.5
 30
0.0
 40
2.0
 50
0.0
 51
90.0
  0
LINE
  8
0
 10
-785.81373
 20
-92.849085
 30
0.0
 11
-784.464646
 21
-91.5
 31
0.0
  0
LINE
  8
0
 10
-785.81373
 20
-106.99122
 30
0.0
 11
-770.32251
 21
-91.5
 31
0.0
  0
LINE
  8
0
 10
-785.81373
 20
-121.133356
 30
0.0
 11
-760.81373
 21
-96.133356
 31
0.0
  0
LINE
  8
0
 10
-785.81373
 20
-135.275492
 30
0.0
 11
-760.81373
 21
-110.275492
 31
0.0
  0
LINE
  8
0
 10
-785.81373
 20
-149.417627
 30
0.0
 11
-760.81373
 21
-124.417627
 31
0.0
  0
LINE
  8
0
 10
-785.81373
 20
-163.559763
 30
0.0
 11
-760.81373
 21
-138.559763
 31
0.0
  0
LINE
  8
0
 10
-785.81373
 20
-177.701899
 30
0.0
 11
-760.81373
 21
-152.701899
 31
0.0
  0
LINE
  8
0
 10
-785.81373
 20
-191.844034
 30
0.0
 11
-760.81373
 21
-166.844034
 31
0.0
  0
LINE
  8
0
 10
-785.81373
 20
-205.98617
 30
0.0
 11
-760.81373
 21
-180.98617
 31
0.0
  0
LINE
  8
0
 10
-785.81373
 20
-220.128305
 30
0.0
 11
-760.81373
 21
-195.128305
 31
0.0
  0
LINE
  8
0
 10
-785.81373
 20
-234.270441
 30
0.0
 11
-760.81373
 21
-209.270441
 31
0.0
  0
LINE
  8
0
 10
-785.81373
 20
-248.412577
 30
0.0
 11
-760.81373
 21
-223.412577
 31
0.0
  0
LINE
  8
0
 10
-785.81373
 20
-262.554712
 30
0.0
 11
-760.81373
 21
-237.554712
 31
0.0
  0
LINE
  8
0
 10
-785.81373
 20
-276.696848
 30
0.0
 11
-760.81373
 21
-251.696848
 31
0.0
  0
LINE
  8
0
 10
-785.81373
 20
-290.838984
 30
0.0
 11
-760.81373
 21
-265.838984
 31
0.0
  0
LINE
  8
0
 10
-785.81373
 20
-304.981119
 30
0.0
 11
-760.81373
 21
-279.981119
 31
0.0
  0
LINE
  8
0
 10
-785.81373
 20
-319.123255
 30
0.0
 11
-760.81373
 21
-294.123255
 31
0.0
  0
LINE
  8
0
 10
-785.81373
 20
-333.26539
 30
0.0
 11
-760.81373
 21
-308.26539
 31
0.0
  0
LINE
  8
0
 10
-785.81373
 20
-347.407526
 30
0.0
 11
-760.81373
 21
-322.407526
 31
0.0
  0
LINE
  8
0
 10
-785.81373
 20
-361.549662
 30
0.0
 11
-760.81373
 21
-336.549662
 31
0.0
  0
LINE
  8
0
 10
-785.81373
 20
-375.691797
 30
0.0
 11
-760.81373
 21
-350.691797
 31
0.0
  0
LINE
  8
0
 10
-785.81373
 20
-389.833933
 30
0.0
 11
-760.81373
 21
-364.833933
 31
0.0
  0
LINE
  8
0
 10
-785.81373
 20
-403.976069
 30
0.0
 11
-760.81373
 21
-378.976069
 31
0.0
  0
LINE
  8
0
 10
-785.81373
 20
-418.118204
 30
0.0
 11
-760.81373
 21
-393.118204
 31
0.0
  0
LINE
  8
0
 10
-785.81373
 20
-432.26034
 30
0.0
 11
-760.81373
 21
-407.26034
 31
0.0
  0
LINE
  8
0
 10
-785.81373
 20
-446.402475
 30
0.0
 11
-760.81373
 21
-421.402475
 31
0.0
  0
LINE
  8
0
 10
-785.81373
 20
-460.544611
 30
0.0
 11
-760.81373
 21
-435.544611
 31
0.0
  0
LINE
  8
0
 10
-785.81373
 20
-474.686747
 30
0.0
 11
-760.81373
 21
-449.686747
 31
0.0
  0
LINE
  8
0
 10
-785.81373
 20
-488.828882
 30
0.0
 11
-760.81373
 21
-463.828882
 31
0.0
  0
LINE
  8
0
 10
-785.81373
 20
-502.971018
 30
0.0
 11
-760.81373
 21
-477.971018
 31
0.0
  0
LINE
  8
0
 10
-785.81373
 20
-517.113154
 30
0.0
 11
-760.81373
 21
-492.113154
 31
0.0
  0
LINE
  8
0
 10
-785.81373
 20
-531.255289
 30
0.0
 11
-760.81373
 21
-506.255289
 31
0.0
  0
LINE
  8
0
 10
-785.81373
 20
-545.397425
 30
0.0
 11
-760.81373
 21
-520.397425
 31
0.0
  0
LINE
  8
0
 10
-785.81373
 20
-559.53956
 30
0.0
 11
-760.81373
 21
-534.53956
 31
0.0
  0
LINE
  8
0
 10
-774.632034
 20
-562.5
 30
0.0
 11
-760.81373
 21
-548.681696
 31
0.0
  0
LINE
  8
0
 10
-635.819647
 20
-176.83824
 30
0.0
 11
-624.319647
 21
-176.83824
 31
0.0
  0
LINE
  8
0
 10
-625.819647
 20
-179.33824
 30
0.0
 11
-635.319647
 21
-179.33824
 31
0.0
  0
LINE
  8
0
 10
-635.319647
 20
-179.33824
 30
0.0
 11
-633.993911
 21
-180.663976
 31
0.0
  0
LINE
  8
0
 10
-633.993911
 20
-180.663976
 30
0.0
 11
-632.843911
 21
-179.513976
 31
0.0
  0
LINE
  8
0
 10
-631.819647
 20
-179.93824
 30
0.0
 11
-631.819647
 21
-183.3989
 31
0.0
  0
LINE
  8
0
 10
-633.4232
 20
-184.063113
 30
0.0
 11
-637.23386
 21
-180.252453
 31
0.0
  0
LINE
  8
0
 10
-635.319647
 20
-474.5
 30
0.0
 11
-625.819647
 21
-474.5
 31
0.0
  0
LINE
  8
0
 10
-633.993911
 20
-473.174264
 30
0.0
 11
-635.319647
 21
-474.5
 31
0.0
  0
LINE
  8
0
 10
-632.843911
 20
-474.324264
 30
0.0
 11
-633.993911
 21
-473.174264
 31
0.0
  0
LINE
  8
0
 10
-631.819647
 20
-470.43934
 30
0.0
 11
-631.819647
 21
-473.9
 31
0.0
  0
LINE
  8
0
 10
-637.23386
 20
-473.585786
 30
0.0
 11
-633.4232
 21
-469.775126
 31
0.0
  0
LINE
  8
0
 10
-624.319647
 20
-473.0
 30
0.0
 11
-624.319647
 21
-180.83824
 31
0.0
  0
LINE
  8
0
 10
-621.819647
 20
-179.33824
 30
0.0
 11
-621.819647
 21
-474.5
 31
0.0
  0
LINE
  8
0
 10
-624.319647
 20
-477.0
 30
0.0
 11
-635.819647
 21
-477.0
 31
0.0
  0
ARC
  8
0
 10
-632.758986
 20
-470.43934
 30
0.0
 40
0.93934
 50
0.0
 51
90.866301
  0
ARC
  8
0
 10
-632.758986
 20
-183.3989
 30
0.0
 40
0.93934
 50
225.0
 51
269.820102
  0
ARC
  8
0
 10
-635.819647
 20
-178.83824
 30
0.0
 40
2.0
 50
90.0
 51
225.0
  0
ARC
  8
0
 10
-632.419647
 20
-179.93824
 30
0.0
 40
0.6
 50
0.0
 51
135.0
  0
ARC
  8
0
 10
-632.758986
 20
-183.3989
 30
0.0
 40
0.93934
 50
269.820102
 51
0.0
  0
ARC
  8
0
 10
-635.819647
 20
-475.0
 30
0.0
 40
2.0
 50
135.0
 51
270.0
  0
ARC
  8
0
 10
-632.419647
 20
-473.9
 30
0.0
 40
0.6
 50
225.0
 51
0.0
  0
ARC
  8
0
 10
-632.758986
 20
-470.43934
 30
0.0
 40
0.93934
 50
90.866301
 51
135.0
  0
ARC
  8
0
 10
-625.819647
 20
-180.83824
 30
0.0
 40
1.5
 50
0.0
 51
90.0
  0
ARC
  8
0
 10
-625.819647
 20
-473.0
 30
0.0
 40
1.5
 50
270.0
 51
0.0
  0
ARC
  8
0
 10
-624.319647
 20
-179.33824
 30
0.0
 40
2.5
 50
0.0
 51
90.0
  0
ARC
  8
0
 10
-624.319647
 20
-474.5
 30
0.0
 40
2.5
 50
270.0
 51
0.0
  0
ENDSEC
  0
EOF
