  0
SECTION
  2
HEADER
  9
$ACADVER
  1
AC1009
  9
$INSBASE
 10
0.0
 20
0.0
 30
0.0
  9
$EXTMIN
 10
-216.180825
 20
-16.5
 30
0.0
  9
$EXTMAX
 10
173.54247
 20
263.5
 30
0.0
  9
$LIMMIN
 10
-216.180825
 20
-16.5
  9
$LIMMAX
 10
172.813258
 20
263.5
  9
$ORTHOMODE
 70
     0
  9
$REGENMODE
 70
     1
  9
$FILLMODE
 70
     1
  9
$QTEXTMODE
 70
     0
  9
$MIRRTEXT
 70
     1
  9
$DRAGMODE
 70
     2
  9
$LTSCALE
 40
1.0
  9
$OSMODE
 70
     0
  9
$ATTMODE
 70
     1
  9
$TEXTSIZE
 40
3.5
  9
$TRACEWID
 40
0.5
  9
$TEXTSTYLE
  7
STANDARD
  9
$CLAYER
  8
0
  9
$CELTYPE
  6
BYLAYER
  9
$CECOLOR
 62
   256
  9
$DIMSCALE
 40
1.0
  9
$DIMASZ
 40
0.18
  9
$DIMEXO
 40
0.0625
  9
$DIMDLI
 40
0.38
  9
$DIMRND
 40
0.0
  9
$DIMDLE
 40
0.0
  9
$DIMEXE
 40
0.18
  9
$DIMTP
 40
0.0
  9
$DIMTM
 40
0.0
  9
$DIMTXT
 40
0.18
  9
$DIMCEN
 40
0.09
  9
$DIMTSZ
 40
0.0
  9
$DIMTOL
 70
     0
  9
$DIMLIM
 70
     0
  9
$DIMTIH
 70
     1
  9
$DIMTOH
 70
     1
  9
$DIMSE1
 70
     0
  9
$DIMSE2
 70
     0
  9
$DIMTAD
 70
     0
  9
$DIMZIN
 70
     0
  9
$DIMBLK
  1

  9
$DIMASO
 70
     1
  9
$DIMSHO
 70
     1
  9
$DIMPOST
  1

  9
$DIMAPOST
  1

  9
$DIMALT
 70
     0
  9
$DIMALTD
 70
     2
  9
$DIMALTF
 40
25.4
  9
$DIMLFAC
 40
1.0
  9
$DIMTOFL
 70
     0
  9
$DIMTVP
 40
0.0
  9
$DIMTIX
 70
     0
  9
$DIMSOXD
 70
     0
  9
$DIMSAH
 70
     0
  9
$DIMBLK1
  1

  9
$DIMBLK2
  1

  9
$DIMSTYLE
  2
*UNNAMED
  9
$DIMCLRD
 70
     0
  9
$DIMCLRE
 70
     0
  9
$DIMCLRT
 70
     0
  9
$DIMTFAC
 40
1.0
  9
$DIMGAP
 40
0.09
  9
$LUNITS
 70
     2
  9
$LUPREC
 70
     4
  9
$SKETCHINC
 40
0.1
  9
$FILLETRAD
 40
2.0
  9
$AUNITS
 70
     0
  9
$AUPREC
 70
     0
  9
$MENU
  1
ACAD
  9
$ELEVATION
 40
0.0
  9
$PELEVATION
 40
0.0
  9
$THICKNESS
 40
0.0
  9
$LIMCHECK
 70
     0
  9
$BLIPMODE
 70
     1
  9
$CHAMFERA
 40
0.0
  9
$CHAMFERB
 40
0.0
  9
$SKPOLY
 70
     0
  9
$TDCREATE
 40
2450743.489926388
  9
$TDUPDATE
 40
2450948.498557523
  9
$TDINDWG
 40
0.0101472222
  9
$TDUSRTIMER
 40
0.0101472222
  9
$USRTIMER
 70
     1
  9
$ANGBASE
 50
0.0
  9
$ANGDIR
 70
     0
  9
$PDMODE
 70
     0
  9
$PDSIZE
 40
0.0
  9
$PLINEWID
 40
0.0
  9
$COORDS
 70
     2
  9
$SPLFRAME
 70
     0
  9
$SPLINETYPE
 70
     6
  9
$SPLINESEGS
 70
     8
  9
$ATTDIA
 70
     0
  9
$ATTREQ
 70
     1
  9
$HANDLING
 70
     0
  9
$HANDSEED
  5
0
  9
$SURFTAB1
 70
     6
  9
$SURFTAB2
 70
     6
  9
$SURFTYPE
 70
     6
  9
$SURFU
 70
     6
  9
$SURFV
 70
     6
  9
$UCSNAME
  2

  9
$UCSORG
 10
0.0
 20
0.0
 30
0.0
  9
$UCSXDIR
 10
1.0
 20
0.0
 30
0.0
  9
$UCSYDIR
 10
0.0
 20
1.0
 30
0.0
  9
$PUCSNAME
  2

  9
$PUCSORG
 10
0.0
 20
0.0
 30
0.0
  9
$PUCSXDIR
 10
1.0
 20
0.0
 30
0.0
  9
$PUCSYDIR
 10
0.0
 20
1.0
 30
0.0
  9
$USERI1
 70
     0
  9
$USERI2
 70
     0
  9
$USERI3
 70
     0
  9
$USERI4
 70
     0
  9
$USERI5
 70
     0
  9
$USERR1
 40
0.0
  9
$USERR2
 40
0.0
  9
$USERR3
 40
0.0
  9
$USERR4
 40
0.0
  9
$USERR5
 40
0.0
  9
$WORLDVIEW
 70
     1
  9
$SHADEDGE
 70
     3
  9
$SHADEDIF
 70
    70
  9
$TILEMODE
 70
     1
  9
$MAXACTVP
 70
    16
  9
$PINSBASE
 10
0.0
 20
0.0
 30
0.0
  9
$PLIMCHECK
 70
     0
  9
$PEXTMIN
 10
1.000000E+20
 20
1.000000E+20
 30
1.000000E+20
  9
$PEXTMAX
 10
-1.000000E+20
 20
-1.000000E+20
 30
-1.000000E+20
  9
$PLIMMIN
 10
0.0
 20
0.0
  9
$PLIMMAX
 10
420.0
 20
297.0
  9
$UNITMODE
 70
     0
  9
$VISRETAIN
 70
     0
  9
$PLINEGEN
 70
     0
  9
$PSLTSCALE
 70
     1
  9
$TREEDEPTH
 70
  3020
  9
$DWGCODEPAGE
  3
iso8859-1
  0
ENDSEC
  0
SECTION
  2
TABLES
  0
TABLE
  2
VPORT
 70
     2
  0
VPORT
  2
*ACTIVE
 70
     0
 10
0.0
 20
0.0
 11
1.0
 21
1.0
 12
7.586707
 22
134.868096
 13
0.0
 23
0.0
 14
1.0
 24
1.0
 15
0.0
 25
0.0
 16
0.0
 26
0.0
 36
1.0
 17
0.0
 27
0.0
 37
0.0
 40
427.187738
 41
1.748359
 42
50.0
 43
0.0
 44
0.0
 50
0.0
 51
0.0
 71
     0
 72
   100
 73
     1
 74
     0
 75
     0
 76
     0
 77
     0
 78
     0
  0
ENDTAB
  0
TABLE
  2
LTYPE
 70
     1
  0
LTYPE
  2
CONTINUOUS
 70
    64
  3
Solid line
 72
    65
 73
     0
 40
0.0
  0
ENDTAB
  0
TABLE
  2
LAYER
 70
     2
  0
LAYER
  2
0
 70
    64
 62
     7
  6
CONTINUOUS
  0
ENDTAB
  0
TABLE
  2
STYLE
 70
     1
  0
STYLE
  2
STANDARD
 70
     0
 40
0.0
 41
1.0
 50
0.0
 71
     0
 42
3.5
  3
txt
  4

  0
ENDTAB
  0
TABLE
  2
VIEW
 70
     0
  0
ENDTAB
  0
TABLE
  2
UCS
 70
     0
  0
ENDTAB
  0
TABLE
  2
APPID
 70
     1
  0
APPID
  2
ACAD
 70
    64
  0
ENDTAB
  0
TABLE
  2
DIMSTYLE
 70
     0
  0
ENDTAB
  0
ENDSEC
  0
SECTION
  2
BLOCKS
  0
ENDSEC
  0
SECTION
  2
ENTITIES
  0
LINE
  8
0
 10
-131.125232
 20
146.0
 30
0.0
 11
162.874768
 21
146.0
 31
0.0
  0
LINE
  8
0
 10
-128.625232
 20
149.5
 30
0.0
 11
160.374768
 21
149.5
 31
0.0
  0
LINE
  8
0
 10
-112.625232
 20
199.914214
 30
0.0
 11
-112.625232
 21
203.0
 31
0.0
  0
LINE
  8
0
 10
-112.625232
 20
199.914214
 30
0.0
 11
-110.685892
 21
201.853553
 31
0.0
  0
LINE
  8
0
 10
-110.332338
 20
202.0
 30
0.0
 11
-78.625232
 21
202.0
 31
0.0
  0
LINE
  8
0
 10
-114.625232
 20
202.0
 30
0.0
 11
-114.625232
 21
203.0
 31
0.0
  0
LINE
  8
0
 10
-78.625232
 20
202.0
 30
0.0
 11
-78.625232
 21
204.0
 31
0.0
  0
LINE
  8
0
 10
-128.296805
 20
204.0
 30
0.0
 11
-78.625232
 21
204.0
 31
0.0
  0
LINE
  8
0
 10
-129.625232
 20
202.0
 30
0.0
 11
-114.625232
 21
202.0
 31
0.0
  0
LINE
  8
0
 10
-129.625232
 20
202.671573
 30
0.0
 11
-129.625232
 21
202.0
 31
0.0
  0
LINE
  8
0
 10
-128.296805
 20
204.0
 30
0.0
 11
-129.625232
 21
202.671573
 31
0.0
  0
LINE
  8
0
 10
-77.625232
 20
206.0
 30
0.0
 11
-128.711018
 21
206.0
 31
0.0
  0
LINE
  8
0
 10
-108.468377
 20
200.0
 30
0.0
 11
-77.625232
 21
200.0
 31
0.0
  0
LINE
  8
0
 10
-112.918125
 20
196.792893
 30
0.0
 11
-110.589698
 21
199.12132
 31
0.0
  0
LINE
  8
0
 10
-114.625232
 20
199.5
 30
0.0
 11
-114.625232
 21
197.5
 31
0.0
  0
LINE
  8
0
 10
-76.625232
 20
205.0
 30
0.0
 11
-76.625232
 21
201.0
 31
0.0
  0
LINE
  8
0
 10
-120.352142
 20
200.0
 30
0.0
 11
-115.125232
 21
200.0
 31
0.0
  0
LINE
  8
0
 10
-129.418125
 20
205.707107
 30
0.0
 11
-131.332338
 21
203.792893
 31
0.0
  0
LINE
  8
0
 10
-130.625232
 20
200.0
 30
0.0
 11
-127.539445
 21
200.0
 31
0.0
  0
LINE
  8
0
 10
-131.625232
 20
203.085786
 30
0.0
 11
-131.625232
 21
201.0
 31
0.0
  0
LINE
  8
0
 10
-130.628795
 20
189.722073
 30
0.0
 11
-130.625232
 21
151.5
 31
0.0
  0
LINE
  8
0
 10
-130.043009
 20
191.136286
 30
0.0
 11
-121.766356
 21
199.414214
 31
0.0
  0
LINE
  8
0
 10
-133.246552
 20
191.87868
 30
0.0
 11
-126.832338
 21
198.292893
 31
0.0
  0
LINE
  8
0
 10
-134.125232
 20
149.0
 30
0.0
 11
-134.125232
 21
189.757359
 31
0.0
  0
LINE
  8
0
 10
144.374768
 20
203.0
 30
0.0
 11
144.374768
 21
199.914214
 31
0.0
  0
LINE
  8
0
 10
142.435429
 20
201.853553
 30
0.0
 11
144.374768
 21
199.914214
 31
0.0
  0
LINE
  8
0
 10
110.374768
 20
202.0
 30
0.0
 11
142.081875
 21
202.0
 31
0.0
  0
LINE
  8
0
 10
146.374768
 20
203.0
 30
0.0
 11
146.374768
 21
202.0
 31
0.0
  0
LINE
  8
0
 10
110.374768
 20
204.0
 30
0.0
 11
110.374768
 21
202.0
 31
0.0
  0
LINE
  8
0
 10
110.374768
 20
204.0
 30
0.0
 11
160.046341
 21
204.0
 31
0.0
  0
LINE
  8
0
 10
146.374768
 20
202.0
 30
0.0
 11
161.374768
 21
202.0
 31
0.0
  0
LINE
  8
0
 10
161.374768
 20
202.0
 30
0.0
 11
161.374768
 21
202.671573
 31
0.0
  0
LINE
  8
0
 10
161.374768
 20
202.671573
 30
0.0
 11
160.046341
 21
204.0
 31
0.0
  0
LINE
  8
0
 10
160.460555
 20
206.0
 30
0.0
 11
109.374768
 21
206.0
 31
0.0
  0
LINE
  8
0
 10
109.374768
 20
200.0
 30
0.0
 11
140.217914
 21
200.0
 31
0.0
  0
LINE
  8
0
 10
142.339234
 20
199.12132
 30
0.0
 11
144.667662
 21
196.792893
 31
0.0
  0
LINE
  8
0
 10
146.374768
 20
197.5
 30
0.0
 11
146.374768
 21
199.5
 31
0.0
  0
LINE
  8
0
 10
108.374768
 20
201.0
 30
0.0
 11
108.374768
 21
205.0
 31
0.0
  0
LINE
  8
0
 10
146.874768
 20
200.0
 30
0.0
 11
152.101679
 21
200.0
 31
0.0
  0
LINE
  8
0
 10
163.081875
 20
203.792893
 30
0.0
 11
161.167662
 21
205.707107
 31
0.0
  0
LINE
  8
0
 10
159.288982
 20
200.0
 30
0.0
 11
162.374768
 21
200.0
 31
0.0
  0
LINE
  8
0
 10
163.374768
 20
201.0
 30
0.0
 11
163.374768
 21
203.085786
 31
0.0
  0
LINE
  8
0
 10
153.515892
 20
199.414214
 30
0.0
 11
161.792546
 21
191.136286
 31
0.0
  0
LINE
  8
0
 10
158.581875
 20
198.292893
 30
0.0
 11
164.996089
 21
191.87868
 31
0.0
  0
LINE
  8
0
 10
165.874768
 20
189.757359
 30
0.0
 11
165.874768
 21
149.0
 31
0.0
  0
LINE
  8
0
 10
162.374768
 20
151.5
 30
0.0
 11
162.378332
 21
189.722073
 31
0.0
  0
LINE
  8
0
 10
-191.186742
 20
178.0
 30
0.0
 11
-191.180825
 21
263.5
 31
0.0
  0
LINE
  8
0
 10
-191.186742
 20
69.0
 30
0.0
 11
-191.180825
 21
-16.5
 31
0.0
  0
ARC
  8
0
 10
-113.625232
 20
197.5
 30
0.0
 40
1.0
 50
180.0
 51
315.0
  0
ARC
  8
0
 10
-113.625232
 20
203.0
 30
0.0
 40
1.0
 50
0.0
 51
180.0
  0
ARC
  8
0
 10
145.374768
 20
197.5
 30
0.0
 40
1.0
 50
225.0
 51
0.0
  0
ARC
  8
0
 10
145.374768
 20
203.0
 30
0.0
 40
1.0
 50
0.0
 51
180.0
  0
ARC
  8
0
 10
-131.125232
 20
189.757359
 30
0.0
 40
3.0
 50
135.0
 51
180.0
  0
ARC
  8
0
 10
-128.625232
 20
151.5
 30
0.0
 40
2.0
 50
180.0
 51
270.0
  0
ARC
  8
0
 10
-131.125232
 20
149.0
 30
0.0
 40
3.0
 50
180.0
 51
270.0
  0
ARC
  8
0
 10
-128.628795
 20
189.722073
 30
0.0
 40
2.0
 50
135.0
 51
180.0
  0
ARC
  8
0
 10
-108.468377
 20
197.0
 30
0.0
 40
3.0
 50
90.0
 51
135.0
  0
ARC
  8
0
 10
-115.125232
 20
199.5
 30
0.0
 40
0.5
 50
0.0
 51
90.0
  0
ARC
  8
0
 10
-120.352142
 20
198.0
 30
0.0
 40
2.0
 50
90.0
 51
135.0
  0
ARC
  8
0
 10
-130.625232
 20
203.085786
 30
0.0
 40
1.0
 50
135.0
 51
180.0
  0
ARC
  8
0
 10
-128.711018
 20
205.0
 30
0.0
 40
1.0
 50
90.0
 51
135.0
  0
ARC
  8
0
 10
-110.332338
 20
201.5
 30
0.0
 40
0.5
 50
90.0
 51
135.0
  0
ARC
  8
0
 10
-77.625232
 20
201.0
 30
0.0
 40
1.0
 50
270.0
 51
0.0
  0
ARC
  8
0
 10
-77.625232
 20
205.0
 30
0.0
 40
1.0
 50
0.0
 51
90.0
  0
ARC
  8
0
 10
-130.625232
 20
201.0
 30
0.0
 40
1.0
 50
180.0
 51
270.0
  0
ARC
  8
0
 10
-127.539445
 20
199.0
 30
0.0
 40
1.0
 50
315.0
 51
90.0
  0
ARC
  8
0
 10
162.874768
 20
189.757359
 30
0.0
 40
3.0
 50
0.0
 51
45.0
  0
ARC
  8
0
 10
160.378332
 20
189.722073
 30
0.0
 40
2.0
 50
0.0
 51
45.0
  0
ARC
  8
0
 10
140.217914
 20
197.0
 30
0.0
 40
3.0
 50
45.0
 51
90.0
  0
ARC
  8
0
 10
146.874768
 20
199.5
 30
0.0
 40
0.5
 50
90.0
 51
180.0
  0
ARC
  8
0
 10
152.101679
 20
198.0
 30
0.0
 40
2.0
 50
45.0
 51
90.0
  0
ARC
  8
0
 10
162.374768
 20
203.085786
 30
0.0
 40
1.0
 50
0.0
 51
45.0
  0
ARC
  8
0
 10
160.460555
 20
205.0
 30
0.0
 40
1.0
 50
45.0
 51
90.0
  0
ARC
  8
0
 10
142.081875
 20
201.5
 30
0.0
 40
0.5
 50
45.0
 51
90.0
  0
ARC
  8
0
 10
109.374768
 20
201.0
 30
0.0
 40
1.0
 50
180.0
 51
270.0
  0
ARC
  8
0
 10
109.374768
 20
205.0
 30
0.0
 40
1.0
 50
90.0
 51
180.0
  0
ARC
  8
0
 10
162.374768
 20
201.0
 30
0.0
 40
1.0
 50
270.0
 51
0.0
  0
ARC
  8
0
 10
159.288982
 20
199.0
 30
0.0
 40
1.0
 50
90.0
 51
225.0
  0
ARC
  8
0
 10
160.374768
 20
151.5
 30
0.0
 40
2.0
 50
270.0
 51
0.0
  0
ARC
  8
0
 10
162.874768
 20
149.0
 30
0.0
 40
3.0
 50
270.0
 51
0.0
  0
LINE
  8
0
 10
-179.186742
 20
146.0
 30
0.0
 11
172.813258
 21
146.0
 31
0.0
  0
LINE
  8
0
 10
-191.186742
 20
69.0
 30
0.0
 11
-191.186742
 21
178.0
 31
0.0
  0
LINE
  8
0
 10
-191.186742
 20
69.0
 30
0.0
 11
-146.186742
 21
69.0
 31
0.0
  0
LINE
  8
0
 10
-191.186742
 20
178.0
 30
0.0
 11
-186.186742
 21
178.0
 31
0.0
  0
LINE
  8
0
 10
-186.186742
 20
178.0
 30
0.0
 11
-186.186742
 21
153.0
 31
0.0
  0
LINE
  8
0
 10
-176.336552
 20
130.931178
 30
0.0
 11
-179.336552
 21
122.931178
 31
0.0
  0
LINE
  8
0
 10
-166.036932
 20
127.068822
 30
0.0
 11
-169.036932
 21
119.068822
 31
0.0
  0
LINE
  8
0
 10
-140.186742
 20
146.0
 30
0.0
 11
-140.186742
 21
152.5
 31
0.0
  0
LINE
  8
0
 10
172.813258
 20
146.0
 30
0.0
 11
172.813258
 21
136.0
 31
0.0
  0
LINE
  8
0
 10
169.582182
 20
131.323366
 30
0.0
 11
-146.186742
 21
69.0
 31
0.0
  0
LINE
  8
0
 10
-143.186742
 20
146.0
 30
0.0
 11
-143.186742
 21
152.5
 31
0.0
  0
LINE
  8
0
 10
-168.081012
 20
154.998255
 30
0.0
 11
-186.186742
 21
175.209302
 31
0.0
  0
LINE
  8
0
 10
-141.186742
 20
154.0
 30
0.0
 11
-141.686742
 21
154.0
 31
0.0
  0
LINE
  8
0
 10
-141.686742
 20
154.0
 30
0.0
 11
-165.846506
 21
154.0
 31
0.0
  0
ARC
  8
0
 10
-171.186742
 20
129.0
 30
0.0
 40
5.5
 50
339.443955
 51
159.443955
  0
ARC
  8
0
 10
-174.186742
 20
121.0
 30
0.0
 40
5.5
 50
159.443955
 51
339.443955
  0
ARC
  8
0
 10
-179.186742
 20
153.0
 30
0.0
 40
7.0
 50
180.0
 51
270.0
  0
ARC
  8
0
 10
167.813258
 20
136.0
 30
0.0
 40
5.0
 50
290.718978
 51
0.0
  0
ARC
  8
0
 10
-141.686742
 20
152.5
 30
0.0
 40
1.5
 50
0.0
 51
180.0
  0
ARC
  8
0
 10
-165.846506
 20
157.0
 30
0.0
 40
3.0
 50
221.855043
 51
270.0
  0
LINE
  8
0
 10
165.874768
 20
207.5
 30
0.0
 11
165.874768
 21
196.0
 31
0.0
  0
LINE
  8
0
 10
-131.786992
 20
210.0
 30
0.0
 11
163.374768
 21
210.0
 31
0.0
  0
LINE
  8
0
 10
161.874768
 20
207.5
 30
0.0
 11
-130.286992
 21
207.5
 31
0.0
  0
LINE
  8
0
 10
162.460555
 20
194.585786
 30
0.0
 11
158.649895
 21
198.396447
 31
0.0
  0
LINE
  8
0
 10
159.314108
 20
200.0
 30
0.0
 11
162.774768
 21
200.0
 31
0.0
  0
LINE
  8
0
 10
163.199032
 20
198.975736
 30
0.0
 11
162.049032
 21
197.825736
 31
0.0
  0
LINE
  8
0
 10
162.049032
 20
197.825736
 30
0.0
 11
163.374768
 21
196.5
 31
0.0
  0
LINE
  8
0
 10
163.374768
 20
196.5
 30
0.0
 11
163.374768
 21
206.0
 31
0.0
  0
LINE
  8
0
 10
-127.062118
 20
198.396447
 30
0.0
 11
-130.872778
 21
194.585786
 31
0.0
  0
LINE
  8
0
 10
-131.186992
 20
200.0
 30
0.0
 11
-127.726332
 21
200.0
 31
0.0
  0
LINE
  8
0
 10
-130.461256
 20
197.825736
 30
0.0
 11
-131.611256
 21
198.975736
 31
0.0
  0
LINE
  8
0
 10
-131.786992
 20
196.5
 30
0.0
 11
-130.461256
 21
197.825736
 31
0.0
  0
LINE
  8
0
 10
-131.786992
 20
206.0
 30
0.0
 11
-131.786992
 21
196.5
 31
0.0
  0
LINE
  8
0
 10
-134.286992
 20
196.0
 30
0.0
 11
-134.286992
 21
207.5
 31
0.0
  0
ARC
  8
0
 10
159.314108
 20
199.06066
 30
0.0
 40
0.93934
 50
180.866301
 51
225.0
  0
ARC
  8
0
 10
162.774768
 20
199.4
 30
0.0
 40
0.6
 50
315.0
 51
90.0
  0
ARC
  8
0
 10
163.874768
 20
196.0
 30
0.0
 40
2.0
 50
225.0
 51
0.0
  0
ARC
  8
0
 10
-127.726332
 20
199.06066
 30
0.0
 40
0.93934
 50
359.820102
 51
90.0
  0
ARC
  8
0
 10
-131.186992
 20
199.4
 30
0.0
 40
0.6
 50
90.0
 51
225.0
  0
ARC
  8
0
 10
-132.286992
 20
196.0
 30
0.0
 40
2.0
 50
180.0
 51
315.0
  0
ARC
  8
0
 10
-127.726332
 20
199.06066
 30
0.0
 40
0.93934
 50
315.0
 51
359.820102
  0
ARC
  8
0
 10
159.314108
 20
199.06066
 30
0.0
 40
0.93934
 50
90.0
 51
180.866301
  0
ARC
  8
0
 10
163.374768
 20
207.5
 30
0.0
 40
2.5
 50
0.0
 51
90.0
  0
ARC
  8
0
 10
-131.786992
 20
207.5
 30
0.0
 40
2.5
 50
90.0
 51
180.0
  0
ARC
  8
0
 10
161.874768
 20
206.0
 30
0.0
 40
1.5
 50
0.0
 51
90.0
  0
ARC
  8
0
 10
-130.286992
 20
206.0
 30
0.0
 40
1.5
 50
90.0
 51
180.0
  0
LINE
  8
0
 10
-216.180825
 20
250.50965
 30
0.0
 11
-203.190476
 21
263.5
 31
0.0
  0
LINE
  8
0
 10
-216.180825
 20
236.367514
 30
0.0
 11
-191.180825
 21
261.367514
 31
0.0
  0
LINE
  8
0
 10
-216.180825
 20
222.225379
 30
0.0
 11
-191.180825
 21
247.225379
 31
0.0
  0
LINE
  8
0
 10
-216.180825
 20
208.083243
 30
0.0
 11
-191.180825
 21
233.083243
 31
0.0
  0
LINE
  8
0
 10
-216.180825
 20
193.941108
 30
0.0
 11
-191.180825
 21
218.941108
 31
0.0
  0
LINE
  8
0
 10
-216.180825
 20
179.798972
 30
0.0
 11
-191.180825
 21
204.798972
 31
0.0
  0
LINE
  8
0
 10
-216.180825
 20
165.656836
 30
0.0
 11
-191.180825
 21
190.656836
 31
0.0
  0
LINE
  8
0
 10
-216.180825
 20
151.514701
 30
0.0
 11
-191.180825
 21
176.514701
 31
0.0
  0
LINE
  8
0
 10
-216.180825
 20
137.372565
 30
0.0
 11
-191.180825
 21
162.372565
 31
0.0
  0
LINE
  8
0
 10
-216.180825
 20
123.23043
 30
0.0
 11
-191.180825
 21
148.23043
 31
0.0
  0
LINE
  8
0
 10
-216.180825
 20
109.088294
 30
0.0
 11
-191.180825
 21
134.088294
 31
0.0
  0
LINE
  8
0
 10
-216.180825
 20
94.946158
 30
0.0
 11
-191.180825
 21
119.946158
 31
0.0
  0
LINE
  8
0
 10
-216.180825
 20
80.804023
 30
0.0
 11
-191.180825
 21
105.804023
 31
0.0
  0
LINE
  8
0
 10
-216.180825
 20
66.661887
 30
0.0
 11
-191.180825
 21
91.661887
 31
0.0
  0
LINE
  8
0
 10
-216.180825
 20
52.519751
 30
0.0
 11
-191.180825
 21
77.519751
 31
0.0
  0
LINE
  8
0
 10
-216.180825
 20
38.377616
 30
0.0
 11
-191.180825
 21
63.377616
 31
0.0
  0
LINE
  8
0
 10
-216.180825
 20
24.23548
 30
0.0
 11
-191.180825
 21
49.23548
 31
0.0
  0
LINE
  8
0
 10
-216.180825
 20
10.093345
 30
0.0
 11
-191.180825
 21
35.093345
 31
0.0
  0
LINE
  8
0
 10
-216.180825
 20
-4.048791
 30
0.0
 11
-191.180825
 21
20.951209
 31
0.0
  0
LINE
  8
0
 10
-214.489899
 20
-16.5
 30
0.0
 11
-191.180825
 21
6.809073
 31
0.0
  0
LINE
  8
0
 10
-200.347763
 20
-16.5
 30
0.0
 11
-191.180825
 21
-7.333062
 31
0.0
  0
LINE
  8
0
 10
6.302266
 20
153.5
 30
0.0
 11
31.302266
 21
153.5
 31
0.0
  0
LINE
  8
0
 10
2.302266
 20
188.014719
 30
0.0
 11
2.302266
 21
157.5
 31
0.0
  0
LINE
  8
0
 10
9.45912
 20
196.0
 30
0.0
 11
2.888052
 21
189.428932
 31
0.0
  0
LINE
  8
0
 10
10.302266
 20
196.0
 30
0.0
 11
9.45912
 21
196.0
 31
0.0
  0
LINE
  8
0
 10
14.302266
 20
199.0
 30
0.0
 11
14.302266
 21
196.0
 31
0.0
  0
LINE
  8
0
 10
8.630693
 20
200.0
 30
0.0
 11
13.302266
 21
200.0
 31
0.0
  0
LINE
  8
0
 10
0.059625
 20
192.257359
 30
0.0
 11
7.21648
 21
199.414214
 31
0.0
  0
LINE
  8
0
 10
-1.697734
 20
157.5
 30
0.0
 11
-1.697734
 21
188.014719
 31
0.0
  0
LINE
  8
0
 10
31.302266
 20
149.5
 30
0.0
 11
6.302266
 21
149.5
 31
0.0
  0
ARC
  8
0
 10
4.302266
 20
188.014719
 30
0.0
 40
2.0
 50
135.0
 51
180.0
  0
ARC
  8
0
 10
6.302266
 20
157.5
 30
0.0
 40
4.0
 50
180.0
 51
270.0
  0
ARC
  8
0
 10
6.302266
 20
157.5
 30
0.0
 40
8.0
 50
180.0
 51
270.0
  0
ARC
  8
0
 10
4.302266
 20
188.014719
 30
0.0
 40
6.0
 50
135.0
 51
180.0
  0
ARC
  8
0
 10
13.302266
 20
199.0
 30
0.0
 40
1.0
 50
0.0
 51
90.0
  0
ARC
  8
0
 10
8.630693
 20
198.0
 30
0.0
 40
2.0
 50
90.0
 51
135.0
  0
ARC
  8
0
 10
12.302266
 20
196.0
 30
0.0
 40
2.0
 50
180.0
 51
0.0
  0
ARC
  8
0
 10
31.302266
 20
151.5
 30
0.0
 40
2.0
 50
0.0
 51
90.0
  0
ARC
  8
0
 10
31.302266
 20
151.5
 30
0.0
 40
2.0
 50
270.0
 51
0.0
  0
ENDSEC
  0
EOF
