  0
SECTION
  2
HEADER
  9
$ACADVER
  1
AC1009
  9
$INSBASE
 10
0.0
 20
0.0
 30
0.0
  9
$EXTMIN
 10
357.819175
 20
377.5
 30
0.0
  9
$EXTMAX
 10
447.331025
 20
842.5
 30
0.0
  9
$LIMMIN
 10
357.819175
 20
377.5
  9
$LIMMAX
 10
446.813258
 20
842.5
  9
$ORTHOMODE
 70
     0
  9
$REGENMODE
 70
     1
  9
$FILLMODE
 70
     1
  9
$QTEXTMODE
 70
     0
  9
$MIRRTEXT
 70
     1
  9
$DRAGMODE
 70
     2
  9
$LTSCALE
 40
1.0
  9
$OSMODE
 70
     0
  9
$ATTMODE
 70
     1
  9
$TEXTSIZE
 40
3.5
  9
$TRACEWID
 40
0.5
  9
$TEXTSTYLE
  7
STANDARD
  9
$CLAYER
  8
0
  9
$CELTYPE
  6
BYLAYER
  9
$CECOLOR
 62
   256
  9
$DIMSCALE
 40
1.0
  9
$DIMASZ
 40
0.18
  9
$DIMEXO
 40
0.0625
  9
$DIMDLI
 40
0.38
  9
$DIMRND
 40
0.0
  9
$DIMDLE
 40
0.0
  9
$DIMEXE
 40
0.18
  9
$DIMTP
 40
0.0
  9
$DIMTM
 40
0.0
  9
$DIMTXT
 40
0.18
  9
$DIMCEN
 40
0.09
  9
$DIMTSZ
 40
0.0
  9
$DIMTOL
 70
     0
  9
$DIMLIM
 70
     0
  9
$DIMTIH
 70
     1
  9
$DIMTOH
 70
     1
  9
$DIMSE1
 70
     0
  9
$DIMSE2
 70
     0
  9
$DIMTAD
 70
     0
  9
$DIMZIN
 70
     0
  9
$DIMBLK
  1

  9
$DIMASO
 70
     1
  9
$DIMSHO
 70
     1
  9
$DIMPOST
  1

  9
$DIMAPOST
  1

  9
$DIMALT
 70
     0
  9
$DIMALTD
 70
     2
  9
$DIMALTF
 40
25.4
  9
$DIMLFAC
 40
1.0
  9
$DIMTOFL
 70
     0
  9
$DIMTVP
 40
0.0
  9
$DIMTIX
 70
     0
  9
$DIMSOXD
 70
     0
  9
$DIMSAH
 70
     0
  9
$DIMBLK1
  1

  9
$DIMBLK2
  1

  9
$DIMSTYLE
  2
*UNNAMED
  9
$DIMCLRD
 70
     0
  9
$DIMCLRE
 70
     0
  9
$DIMCLRT
 70
     0
  9
$DIMTFAC
 40
1.0
  9
$DIMGAP
 40
0.09
  9
$LUNITS
 70
     2
  9
$LUPREC
 70
     4
  9
$SKETCHINC
 40
0.1
  9
$FILLETRAD
 40
2.0
  9
$AUNITS
 70
     0
  9
$AUPREC
 70
     0
  9
$MENU
  1
ACAD
  9
$ELEVATION
 40
0.0
  9
$PELEVATION
 40
0.0
  9
$THICKNESS
 40
0.0
  9
$LIMCHECK
 70
     0
  9
$BLIPMODE
 70
     1
  9
$CHAMFERA
 40
0.0
  9
$CHAMFERB
 40
0.0
  9
$SKPOLY
 70
     0
  9
$TDCREATE
 40
2450948.485695833
  9
$TDUPDATE
 40
2450948.486256482
  9
$TDINDWG
 40
0.0002606481
  9
$TDUSRTIMER
 40
0.0002606481
  9
$USRTIMER
 70
     1
  9
$ANGBASE
 50
0.0
  9
$ANGDIR
 70
     0
  9
$PDMODE
 70
     0
  9
$PDSIZE
 40
0.0
  9
$PLINEWID
 40
0.0
  9
$COORDS
 70
     2
  9
$SPLFRAME
 70
     0
  9
$SPLINETYPE
 70
     6
  9
$SPLINESEGS
 70
     8
  9
$ATTDIA
 70
     0
  9
$ATTREQ
 70
     1
  9
$HANDLING
 70
     0
  9
$HANDSEED
  5
0
  9
$SURFTAB1
 70
     6
  9
$SURFTAB2
 70
     6
  9
$SURFTYPE
 70
     6
  9
$SURFU
 70
     6
  9
$SURFV
 70
     6
  9
$UCSNAME
  2

  9
$UCSORG
 10
0.0
 20
0.0
 30
0.0
  9
$UCSXDIR
 10
1.0
 20
0.0
 30
0.0
  9
$UCSYDIR
 10
0.0
 20
1.0
 30
0.0
  9
$PUCSNAME
  2

  9
$PUCSORG
 10
0.0
 20
0.0
 30
0.0
  9
$PUCSXDIR
 10
1.0
 20
0.0
 30
0.0
  9
$PUCSYDIR
 10
0.0
 20
1.0
 30
0.0
  9
$USERI1
 70
     0
  9
$USERI2
 70
     0
  9
$USERI3
 70
     0
  9
$USERI4
 70
     0
  9
$USERI5
 70
     0
  9
$USERR1
 40
0.0
  9
$USERR2
 40
0.0
  9
$USERR3
 40
0.0
  9
$USERR4
 40
0.0
  9
$USERR5
 40
0.0
  9
$WORLDVIEW
 70
     1
  9
$SHADEDGE
 70
     3
  9
$SHADEDIF
 70
    70
  9
$TILEMODE
 70
     1
  9
$MAXACTVP
 70
    16
  9
$PINSBASE
 10
0.0
 20
0.0
 30
0.0
  9
$PLIMCHECK
 70
     0
  9
$PEXTMIN
 10
1.000000E+20
 20
1.000000E+20
 30
1.000000E+20
  9
$PEXTMAX
 10
-1.000000E+20
 20
-1.000000E+20
 30
-1.000000E+20
  9
$PLIMMIN
 10
0.0
 20
0.0
  9
$PLIMMAX
 10
420.0
 20
297.0
  9
$UNITMODE
 70
     0
  9
$VISRETAIN
 70
     0
  9
$PLINEGEN
 70
     0
  9
$PSLTSCALE
 70
     1
  9
$TREEDEPTH
 70
  3020
  9
$DWGCODEPAGE
  3
iso8859-1
  0
ENDSEC
  0
SECTION
  2
TABLES
  0
TABLE
  2
VPORT
 70
     2
  0
VPORT
  2
*ACTIVE
 70
     0
 10
0.0
 20
0.0
 11
1.0
 21
1.0
 12
729.833589
 22
616.565688
 13
0.0
 23
0.0
 14
1.0
 24
1.0
 15
0.0
 25
0.0
 16
0.0
 26
0.0
 36
1.0
 17
0.0
 27
0.0
 37
0.0
 40
619.287355
 41
1.748359
 42
50.0
 43
0.0
 44
0.0
 50
0.0
 51
0.0
 71
     0
 72
   100
 73
     1
 74
     0
 75
     0
 76
     0
 77
     0
 78
     0
  0
ENDTAB
  0
TABLE
  2
LTYPE
 70
     1
  0
LTYPE
  2
CONTINUOUS
 70
    64
  3
Solid line
 72
    65
 73
     0
 40
0.0
  0
ENDTAB
  0
TABLE
  2
LAYER
 70
     1
  0
LAYER
  2
0
 70
    64
 62
     7
  6
CONTINUOUS
  0
ENDTAB
  0
TABLE
  2
STYLE
 70
     1
  0
STYLE
  2
STANDARD
 70
     0
 40
0.0
 41
1.0
 50
0.0
 71
     0
 42
3.5
  3
txt
  4

  0
ENDTAB
  0
TABLE
  2
VIEW
 70
     0
  0
ENDTAB
  0
TABLE
  2
UCS
 70
     0
  0
ENDTAB
  0
TABLE
  2
APPID
 70
     1
  0
APPID
  2
ACAD
 70
    64
  0
ENDTAB
  0
TABLE
  2
DIMSTYLE
 70
     0
  0
ENDTAB
  0
ENDSEC
  0
SECTION
  2
BLOCKS
  0
ENDSEC
  0
SECTION
  2
ENTITIES
  0
LINE
  8
0
 10
382.813258
 20
757.0
 30
0.0
 11
382.813258
 21
463.0
 31
0.0
  0
LINE
  8
0
 10
386.313258
 20
754.5
 30
0.0
 11
386.313258
 21
465.5
 31
0.0
  0
LINE
  8
0
 10
436.727472
 20
738.5
 30
0.0
 11
439.813258
 21
738.5
 31
0.0
  0
LINE
  8
0
 10
436.727472
 20
738.5
 30
0.0
 11
438.666812
 21
736.56066
 31
0.0
  0
LINE
  8
0
 10
438.813258
 20
736.207107
 30
0.0
 11
438.813258
 21
704.5
 31
0.0
  0
LINE
  8
0
 10
438.813258
 20
740.5
 30
0.0
 11
439.813258
 21
740.5
 31
0.0
  0
LINE
  8
0
 10
438.813258
 20
704.5
 30
0.0
 11
440.813258
 21
704.5
 31
0.0
  0
LINE
  8
0
 10
440.813258
 20
754.171573
 30
0.0
 11
440.813258
 21
704.5
 31
0.0
  0
LINE
  8
0
 10
438.813258
 20
755.5
 30
0.0
 11
438.813258
 21
740.5
 31
0.0
  0
LINE
  8
0
 10
439.484831
 20
755.5
 30
0.0
 11
438.813258
 21
755.5
 31
0.0
  0
LINE
  8
0
 10
440.813258
 20
754.171573
 30
0.0
 11
439.484831
 21
755.5
 31
0.0
  0
LINE
  8
0
 10
442.813258
 20
703.5
 30
0.0
 11
442.813258
 21
754.585786
 31
0.0
  0
LINE
  8
0
 10
436.813258
 20
734.343146
 30
0.0
 11
436.813258
 21
703.5
 31
0.0
  0
LINE
  8
0
 10
433.606152
 20
738.792893
 30
0.0
 11
435.934579
 21
736.464466
 31
0.0
  0
LINE
  8
0
 10
436.313258
 20
740.5
 30
0.0
 11
434.313258
 21
740.5
 31
0.0
  0
LINE
  8
0
 10
441.813258
 20
702.5
 30
0.0
 11
437.813258
 21
702.5
 31
0.0
  0
LINE
  8
0
 10
436.813258
 20
746.22691
 30
0.0
 11
436.813258
 21
741.0
 31
0.0
  0
LINE
  8
0
 10
442.520365
 20
755.292893
 30
0.0
 11
440.606152
 21
757.207107
 31
0.0
  0
LINE
  8
0
 10
436.813258
 20
756.5
 30
0.0
 11
436.813258
 21
753.414214
 31
0.0
  0
LINE
  8
0
 10
439.899045
 20
757.5
 30
0.0
 11
437.813258
 21
757.5
 31
0.0
  0
LINE
  8
0
 10
426.535331
 20
756.503564
 30
0.0
 11
388.313258
 21
756.5
 31
0.0
  0
LINE
  8
0
 10
427.949545
 20
755.917777
 30
0.0
 11
436.227472
 21
747.641124
 31
0.0
  0
LINE
  8
0
 10
428.691938
 20
759.12132
 30
0.0
 11
435.106152
 21
752.707107
 31
0.0
  0
LINE
  8
0
 10
385.813258
 20
760.0
 30
0.0
 11
426.570618
 21
760.0
 31
0.0
  0
LINE
  8
0
 10
439.813258
 20
481.5
 30
0.0
 11
436.727472
 21
481.5
 31
0.0
  0
LINE
  8
0
 10
438.666812
 20
483.43934
 30
0.0
 11
436.727472
 21
481.5
 31
0.0
  0
LINE
  8
0
 10
438.813258
 20
515.5
 30
0.0
 11
438.813258
 21
483.792893
 31
0.0
  0
LINE
  8
0
 10
439.813258
 20
479.5
 30
0.0
 11
438.813258
 21
479.5
 31
0.0
  0
LINE
  8
0
 10
440.813258
 20
515.5
 30
0.0
 11
438.813258
 21
515.5
 31
0.0
  0
LINE
  8
0
 10
440.813258
 20
515.5
 30
0.0
 11
440.813258
 21
465.828427
 31
0.0
  0
LINE
  8
0
 10
438.813258
 20
479.5
 30
0.0
 11
438.813258
 21
464.5
 31
0.0
  0
LINE
  8
0
 10
438.813258
 20
464.5
 30
0.0
 11
439.484831
 21
464.5
 31
0.0
  0
LINE
  8
0
 10
439.484831
 20
464.5
 30
0.0
 11
440.813258
 21
465.828427
 31
0.0
  0
LINE
  8
0
 10
442.813258
 20
465.414214
 30
0.0
 11
442.813258
 21
516.5
 31
0.0
  0
LINE
  8
0
 10
436.813258
 20
516.5
 30
0.0
 11
436.813258
 21
485.656854
 31
0.0
  0
LINE
  8
0
 10
435.934579
 20
483.535534
 30
0.0
 11
433.606152
 21
481.207107
 31
0.0
  0
LINE
  8
0
 10
434.313258
 20
479.5
 30
0.0
 11
436.313258
 21
479.5
 31
0.0
  0
LINE
  8
0
 10
437.813258
 20
517.5
 30
0.0
 11
441.813258
 21
517.5
 31
0.0
  0
LINE
  8
0
 10
436.813258
 20
479.0
 30
0.0
 11
436.813258
 21
473.77309
 31
0.0
  0
LINE
  8
0
 10
440.606152
 20
462.792893
 30
0.0
 11
442.520365
 21
464.707107
 31
0.0
  0
LINE
  8
0
 10
436.813258
 20
466.585786
 30
0.0
 11
436.813258
 21
463.5
 31
0.0
  0
LINE
  8
0
 10
437.813258
 20
462.5
 30
0.0
 11
439.899045
 21
462.5
 31
0.0
  0
LINE
  8
0
 10
436.227472
 20
472.358876
 30
0.0
 11
427.949545
 21
464.082223
 31
0.0
  0
LINE
  8
0
 10
435.106152
 20
467.292893
 30
0.0
 11
428.691938
 21
460.87868
 31
0.0
  0
LINE
  8
0
 10
426.570618
 20
460.0
 30
0.0
 11
385.813258
 21
460.0
 31
0.0
  0
LINE
  8
0
 10
388.313258
 20
463.5
 30
0.0
 11
426.535331
 21
463.496436
 31
0.0
  0
LINE
  8
0
 10
382.813258
 20
757.0
 30
0.0
 11
382.819175
 21
842.5
 31
0.0
  0
LINE
  8
0
 10
382.813258
 20
463.0
 30
0.0
 11
382.819175
 21
377.5
 31
0.0
  0
ARC
  8
0
 10
434.313258
 20
739.5
 30
0.0
 40
1.0
 50
90.0
 51
225.0
  0
ARC
  8
0
 10
439.813258
 20
739.5
 30
0.0
 40
1.0
 50
270.0
 51
90.0
  0
ARC
  8
0
 10
434.313258
 20
480.5
 30
0.0
 40
1.0
 50
135.0
 51
270.0
  0
ARC
  8
0
 10
439.813258
 20
480.5
 30
0.0
 40
1.0
 50
270.0
 51
90.0
  0
ARC
  8
0
 10
426.570618
 20
757.0
 30
0.0
 40
3.0
 50
45.0
 51
90.0
  0
ARC
  8
0
 10
388.313258
 20
754.5
 30
0.0
 40
2.0
 50
90.0
 51
180.0
  0
ARC
  8
0
 10
385.813258
 20
757.0
 30
0.0
 40
3.0
 50
90.0
 51
180.0
  0
ARC
  8
0
 10
426.535331
 20
754.503564
 30
0.0
 40
2.0
 50
45.0
 51
90.0
  0
ARC
  8
0
 10
433.813258
 20
734.343146
 30
0.0
 40
3.0
 50
0.0
 51
45.0
  0
ARC
  8
0
 10
436.313258
 20
741.0
 30
0.0
 40
0.5
 50
270.0
 51
0.0
  0
ARC
  8
0
 10
434.813258
 20
746.22691
 30
0.0
 40
2.0
 50
0.0
 51
45.0
  0
ARC
  8
0
 10
439.899045
 20
756.5
 30
0.0
 40
1.0
 50
45.0
 51
90.0
  0
ARC
  8
0
 10
441.813258
 20
754.585786
 30
0.0
 40
1.0
 50
0.0
 51
45.0
  0
ARC
  8
0
 10
438.313258
 20
736.207107
 30
0.0
 40
0.5
 50
0.0
 51
45.0
  0
ARC
  8
0
 10
437.813258
 20
703.5
 30
0.0
 40
1.0
 50
180.0
 51
270.0
  0
ARC
  8
0
 10
441.813258
 20
703.5
 30
0.0
 40
1.0
 50
270.0
 51
0.0
  0
ARC
  8
0
 10
437.813258
 20
756.5
 30
0.0
 40
1.0
 50
90.0
 51
180.0
  0
ARC
  8
0
 10
435.813258
 20
753.414214
 30
0.0
 40
1.0
 50
225.0
 51
0.0
  0
ARC
  8
0
 10
426.570618
 20
463.0
 30
0.0
 40
3.0
 50
270.0
 51
315.0
  0
ARC
  8
0
 10
426.535331
 20
465.496436
 30
0.0
 40
2.0
 50
270.0
 51
315.0
  0
ARC
  8
0
 10
433.813258
 20
485.656854
 30
0.0
 40
3.0
 50
315.0
 51
0.0
  0
ARC
  8
0
 10
436.313258
 20
479.0
 30
0.0
 40
0.5
 50
0.0
 51
90.0
  0
ARC
  8
0
 10
434.813258
 20
473.77309
 30
0.0
 40
2.0
 50
315.0
 51
0.0
  0
ARC
  8
0
 10
439.899045
 20
463.5
 30
0.0
 40
1.0
 50
270.0
 51
315.0
  0
ARC
  8
0
 10
441.813258
 20
465.414214
 30
0.0
 40
1.0
 50
315.0
 51
0.0
  0
ARC
  8
0
 10
438.313258
 20
483.792893
 30
0.0
 40
0.5
 50
315.0
 51
0.0
  0
ARC
  8
0
 10
437.813258
 20
516.5
 30
0.0
 40
1.0
 50
90.0
 51
180.0
  0
ARC
  8
0
 10
441.813258
 20
516.5
 30
0.0
 40
1.0
 50
0.0
 51
90.0
  0
ARC
  8
0
 10
437.813258
 20
463.5
 30
0.0
 40
1.0
 50
180.0
 51
270.0
  0
ARC
  8
0
 10
435.813258
 20
466.585786
 30
0.0
 40
1.0
 50
0.0
 51
135.0
  0
ARC
  8
0
 10
388.313258
 20
465.5
 30
0.0
 40
2.0
 50
180.0
 51
270.0
  0
ARC
  8
0
 10
385.813258
 20
463.0
 30
0.0
 40
3.0
 50
180.0
 51
270.0
  0
LINE
  8
0
 10
390.313258
 20
673.44243
 30
0.0
 11
390.313258
 21
648.44243
 31
0.0
  0
LINE
  8
0
 10
394.313258
 20
644.44243
 30
0.0
 11
424.827977
 21
644.44243
 31
0.0
  0
LINE
  8
0
 10
426.242191
 20
645.028217
 30
0.0
 11
432.813258
 21
651.599284
 31
0.0
  0
LINE
  8
0
 10
432.813258
 20
651.599284
 30
0.0
 11
432.813258
 21
652.44243
 31
0.0
  0
LINE
  8
0
 10
432.813258
 20
656.44243
 30
0.0
 11
435.813258
 21
656.44243
 31
0.0
  0
LINE
  8
0
 10
436.813258
 20
655.44243
 30
0.0
 11
436.813258
 21
650.770857
 31
0.0
  0
LINE
  8
0
 10
436.227472
 20
649.356644
 30
0.0
 11
429.070618
 21
642.199789
 31
0.0
  0
LINE
  8
0
 10
424.827977
 20
640.44243
 30
0.0
 11
394.313258
 21
640.44243
 31
0.0
  0
LINE
  8
0
 10
386.313258
 20
648.44243
 30
0.0
 11
386.313258
 21
673.44243
 31
0.0
  0
ARC
  8
0
 10
424.827977
 20
646.44243
 30
0.0
 40
2.0
 50
270.0
 51
315.0
  0
ARC
  8
0
 10
394.313258
 20
648.44243
 30
0.0
 40
4.0
 50
180.0
 51
270.0
  0
ARC
  8
0
 10
394.313258
 20
648.44243
 30
0.0
 40
8.0
 50
180.0
 51
270.0
  0
ARC
  8
0
 10
424.827977
 20
646.44243
 30
0.0
 40
6.0
 50
270.0
 51
315.0
  0
ARC
  8
0
 10
435.813258
 20
655.44243
 30
0.0
 40
1.0
 50
0.0
 51
90.0
  0
ARC
  8
0
 10
434.813258
 20
650.770857
 30
0.0
 40
2.0
 50
315.0
 51
0.0
  0
ARC
  8
0
 10
432.813258
 20
654.44243
 30
0.0
 40
2.0
 50
90.0
 51
270.0
  0
ARC
  8
0
 10
388.313258
 20
673.44243
 30
0.0
 40
2.0
 50
0.0
 51
90.0
  0
ARC
  8
0
 10
388.313258
 20
673.44243
 30
0.0
 40
2.0
 50
90.0
 51
180.0
  0
LINE
  8
0
 10
386.313258
 20
565.204327
 30
0.0
 11
386.313258
 21
590.204327
 31
0.0
  0
LINE
  8
0
 10
424.827977
 20
557.204327
 30
0.0
 11
394.313258
 21
557.204327
 31
0.0
  0
LINE
  8
0
 10
436.227472
 20
566.118541
 30
0.0
 11
429.070618
 21
558.961686
 31
0.0
  0
LINE
  8
0
 10
436.813258
 20
572.204327
 30
0.0
 11
436.813258
 21
567.532754
 31
0.0
  0
LINE
  8
0
 10
432.813258
 20
573.204327
 30
0.0
 11
435.813258
 21
573.204327
 31
0.0
  0
LINE
  8
0
 10
432.813258
 20
568.361181
 30
0.0
 11
432.813258
 21
569.204327
 31
0.0
  0
LINE
  8
0
 10
426.242191
 20
561.790113
 30
0.0
 11
432.813258
 21
568.361181
 31
0.0
  0
LINE
  8
0
 10
394.313258
 20
561.204327
 30
0.0
 11
424.827977
 21
561.204327
 31
0.0
  0
LINE
  8
0
 10
390.313258
 20
590.204327
 30
0.0
 11
390.313258
 21
565.204327
 31
0.0
  0
ARC
  8
0
 10
388.313258
 20
590.204327
 30
0.0
 40
2.0
 50
90.0
 51
180.0
  0
ARC
  8
0
 10
388.313258
 20
590.204327
 30
0.0
 40
2.0
 50
0.0
 51
90.0
  0
ARC
  8
0
 10
432.813258
 20
571.204327
 30
0.0
 40
2.0
 50
90.0
 51
270.0
  0
ARC
  8
0
 10
434.813258
 20
567.532754
 30
0.0
 40
2.0
 50
315.0
 51
0.0
  0
ARC
  8
0
 10
435.813258
 20
572.204327
 30
0.0
 40
1.0
 50
0.0
 51
90.0
  0
ARC
  8
0
 10
424.827977
 20
563.204327
 30
0.0
 40
6.0
 50
270.0
 51
315.0
  0
ARC
  8
0
 10
394.313258
 20
565.204327
 30
0.0
 40
8.0
 50
180.0
 51
270.0
  0
ARC
  8
0
 10
394.313258
 20
565.204327
 30
0.0
 40
4.0
 50
180.0
 51
270.0
  0
ARC
  8
0
 10
424.827977
 20
563.204327
 30
0.0
 40
2.0
 50
270.0
 51
315.0
  0
LINE
  8
0
 10
357.819175
 20
838.651786
 30
0.0
 11
361.667389
 21
842.5
 31
0.0
  0
LINE
  8
0
 10
357.819175
 20
824.50965
 30
0.0
 11
375.809524
 21
842.5
 31
0.0
  0
LINE
  8
0
 10
357.819175
 20
810.367514
 30
0.0
 11
382.819175
 21
835.367514
 31
0.0
  0
LINE
  8
0
 10
357.819175
 20
796.225379
 30
0.0
 11
382.819175
 21
821.225379
 31
0.0
  0
LINE
  8
0
 10
357.819175
 20
782.083243
 30
0.0
 11
382.819175
 21
807.083243
 31
0.0
  0
LINE
  8
0
 10
357.819175
 20
767.941108
 30
0.0
 11
382.819175
 21
792.941108
 31
0.0
  0
LINE
  8
0
 10
357.819175
 20
753.798972
 30
0.0
 11
382.819175
 21
778.798972
 31
0.0
  0
LINE
  8
0
 10
357.819175
 20
739.656836
 30
0.0
 11
382.819175
 21
764.656836
 31
0.0
  0
LINE
  8
0
 10
357.819175
 20
725.514701
 30
0.0
 11
382.819175
 21
750.514701
 31
0.0
  0
LINE
  8
0
 10
357.819175
 20
711.372565
 30
0.0
 11
382.819175
 21
736.372565
 31
0.0
  0
LINE
  8
0
 10
357.819175
 20
697.23043
 30
0.0
 11
382.819175
 21
722.23043
 31
0.0
  0
LINE
  8
0
 10
357.819175
 20
683.088294
 30
0.0
 11
382.819175
 21
708.088294
 31
0.0
  0
LINE
  8
0
 10
357.819175
 20
668.946158
 30
0.0
 11
382.819175
 21
693.946158
 31
0.0
  0
LINE
  8
0
 10
357.819175
 20
654.804023
 30
0.0
 11
382.819175
 21
679.804023
 31
0.0
  0
LINE
  8
0
 10
357.819175
 20
640.661887
 30
0.0
 11
382.819175
 21
665.661887
 31
0.0
  0
LINE
  8
0
 10
357.819175
 20
626.519751
 30
0.0
 11
382.819175
 21
651.519751
 31
0.0
  0
LINE
  8
0
 10
357.819175
 20
612.377616
 30
0.0
 11
382.819175
 21
637.377616
 31
0.0
  0
LINE
  8
0
 10
357.819175
 20
598.23548
 30
0.0
 11
382.819175
 21
623.23548
 31
0.0
  0
LINE
  8
0
 10
357.819175
 20
584.093345
 30
0.0
 11
382.819175
 21
609.093345
 31
0.0
  0
LINE
  8
0
 10
357.819175
 20
569.951209
 30
0.0
 11
382.819175
 21
594.951209
 31
0.0
  0
LINE
  8
0
 10
357.819175
 20
555.809073
 30
0.0
 11
382.819175
 21
580.809073
 31
0.0
  0
LINE
  8
0
 10
357.819175
 20
541.666938
 30
0.0
 11
382.819175
 21
566.666938
 31
0.0
  0
LINE
  8
0
 10
357.819175
 20
527.524802
 30
0.0
 11
382.819175
 21
552.524802
 31
0.0
  0
LINE
  8
0
 10
357.819175
 20
513.382666
 30
0.0
 11
382.819175
 21
538.382666
 31
0.0
  0
LINE
  8
0
 10
357.819175
 20
499.240531
 30
0.0
 11
382.819175
 21
524.240531
 31
0.0
  0
LINE
  8
0
 10
357.819175
 20
485.098395
 30
0.0
 11
382.819175
 21
510.098395
 31
0.0
  0
LINE
  8
0
 10
357.819175
 20
470.95626
 30
0.0
 11
382.819175
 21
495.95626
 31
0.0
  0
LINE
  8
0
 10
357.819175
 20
456.814124
 30
0.0
 11
382.819175
 21
481.814124
 31
0.0
  0
LINE
  8
0
 10
357.819175
 20
442.671988
 30
0.0
 11
382.819175
 21
467.671988
 31
0.0
  0
LINE
  8
0
 10
357.819175
 20
428.529853
 30
0.0
 11
382.819175
 21
453.529853
 31
0.0
  0
LINE
  8
0
 10
357.819175
 20
414.387717
 30
0.0
 11
382.819175
 21
439.387717
 31
0.0
  0
LINE
  8
0
 10
357.819175
 20
400.245581
 30
0.0
 11
382.819175
 21
425.245581
 31
0.0
  0
LINE
  8
0
 10
357.819175
 20
386.103446
 30
0.0
 11
382.819175
 21
411.103446
 31
0.0
  0
LINE
  8
0
 10
363.357864
 20
377.5
 30
0.0
 11
382.819175
 21
396.96131
 31
0.0
  0
LINE
  8
0
 10
377.5
 20
377.5
 30
0.0
 11
382.819175
 21
382.819175
 31
0.0
  0
LINE
  8
0
 10
444.313258
 20
460.0
 30
0.0
 11
432.813258
 21
460.0
 31
0.0
  0
LINE
  8
0
 10
446.813258
 20
757.66176
 30
0.0
 11
446.813258
 21
462.5
 31
0.0
  0
LINE
  8
0
 10
444.313258
 20
464.0
 30
0.0
 11
444.313258
 21
756.16176
 31
0.0
  0
LINE
  8
0
 10
431.399045
 20
463.414214
 30
0.0
 11
435.209705
 21
467.224874
 31
0.0
  0
LINE
  8
0
 10
436.813258
 20
466.56066
 30
0.0
 11
436.813258
 21
463.1
 31
0.0
  0
LINE
  8
0
 10
435.788994
 20
462.675736
 30
0.0
 11
434.638994
 21
463.825736
 31
0.0
  0
LINE
  8
0
 10
434.638994
 20
463.825736
 30
0.0
 11
433.313258
 21
462.5
 31
0.0
  0
LINE
  8
0
 10
433.313258
 20
462.5
 30
0.0
 11
442.813258
 21
462.5
 31
0.0
  0
LINE
  8
0
 10
435.209705
 20
752.936887
 30
0.0
 11
431.399045
 21
756.747547
 31
0.0
  0
LINE
  8
0
 10
436.813258
 20
757.06176
 30
0.0
 11
436.813258
 21
753.6011
 31
0.0
  0
LINE
  8
0
 10
434.638994
 20
756.336024
 30
0.0
 11
435.788994
 21
757.486024
 31
0.0
  0
LINE
  8
0
 10
433.313258
 20
757.66176
 30
0.0
 11
434.638994
 21
756.336024
 31
0.0
  0
LINE
  8
0
 10
442.813258
 20
757.66176
 30
0.0
 11
433.313258
 21
757.66176
 31
0.0
  0
LINE
  8
0
 10
432.813258
 20
760.16176
 30
0.0
 11
444.313258
 21
760.16176
 31
0.0
  0
ARC
  8
0
 10
435.873918
 20
466.56066
 30
0.0
 40
0.93934
 50
90.866301
 51
135.0
  0
ARC
  8
0
 10
436.213258
 20
463.1
 30
0.0
 40
0.6
 50
225.0
 51
0.0
  0
ARC
  8
0
 10
432.813258
 20
462.0
 30
0.0
 40
2.0
 50
135.0
 51
270.0
  0
ARC
  8
0
 10
435.873918
 20
753.6011
 30
0.0
 40
0.93934
 50
269.820102
 51
0.0
  0
ARC
  8
0
 10
436.213258
 20
757.06176
 30
0.0
 40
0.6
 50
0.0
 51
135.0
  0
ARC
  8
0
 10
432.813258
 20
758.16176
 30
0.0
 40
2.0
 50
90.0
 51
225.0
  0
ARC
  8
0
 10
435.873918
 20
753.6011
 30
0.0
 40
0.93934
 50
225.0
 51
269.820102
  0
ARC
  8
0
 10
435.873918
 20
466.56066
 30
0.0
 40
0.93934
 50
0.0
 51
90.866301
  0
ARC
  8
0
 10
444.313258
 20
462.5
 30
0.0
 40
2.5
 50
270.0
 51
0.0
  0
ARC
  8
0
 10
444.313258
 20
757.66176
 30
0.0
 40
2.5
 50
0.0
 51
90.0
  0
ARC
  8
0
 10
442.813258
 20
464.0
 30
0.0
 40
1.5
 50
270.0
 51
0.0
  0
ARC
  8
0
 10
442.813258
 20
756.16176
 30
0.0
 40
1.5
 50
0.0
 51
90.0
  0
ENDSEC
  0
EOF
