  0
SECTION
  2
HEADER
  9
$ACADVER
  1
AC1009
  9
$INSBASE
 10
0.0
 20
0.0
 30
0.0
  9
$EXTMIN
 10
-216.171484
 20
377.5
 30
0.0
  9
$EXTMAX
 10
-126.659633
 20
839.5
 30
0.0
  9
$LIMMIN
 10
-216.171484
 20
377.5
  9
$LIMMAX
 10
-127.1774
 20
839.5
  9
$ORTHOMODE
 70
     0
  9
$REGENMODE
 70
     1
  9
$FILLMODE
 70
     1
  9
$QTEXTMODE
 70
     0
  9
$MIRRTEXT
 70
     1
  9
$DRAGMODE
 70
     2
  9
$LTSCALE
 40
1.0
  9
$OSMODE
 70
     0
  9
$ATTMODE
 70
     1
  9
$TEXTSIZE
 40
3.5
  9
$TRACEWID
 40
0.5
  9
$TEXTSTYLE
  7
STANDARD
  9
$CLAYER
  8
0
  9
$CELTYPE
  6
BYLAYER
  9
$CECOLOR
 62
   256
  9
$DIMSCALE
 40
1.0
  9
$DIMASZ
 40
0.18
  9
$DIMEXO
 40
0.0625
  9
$DIMDLI
 40
0.38
  9
$DIMRND
 40
0.0
  9
$DIMDLE
 40
0.0
  9
$DIMEXE
 40
0.18
  9
$DIMTP
 40
0.0
  9
$DIMTM
 40
0.0
  9
$DIMTXT
 40
0.18
  9
$DIMCEN
 40
0.09
  9
$DIMTSZ
 40
0.0
  9
$DIMTOL
 70
     0
  9
$DIMLIM
 70
     0
  9
$DIMTIH
 70
     1
  9
$DIMTOH
 70
     1
  9
$DIMSE1
 70
     0
  9
$DIMSE2
 70
     0
  9
$DIMTAD
 70
     0
  9
$DIMZIN
 70
     0
  9
$DIMBLK
  1

  9
$DIMASO
 70
     1
  9
$DIMSHO
 70
     1
  9
$DIMPOST
  1

  9
$DIMAPOST
  1

  9
$DIMALT
 70
     0
  9
$DIMALTD
 70
     2
  9
$DIMALTF
 40
25.4
  9
$DIMLFAC
 40
1.0
  9
$DIMTOFL
 70
     0
  9
$DIMTVP
 40
0.0
  9
$DIMTIX
 70
     0
  9
$DIMSOXD
 70
     0
  9
$DIMSAH
 70
     0
  9
$DIMBLK1
  1

  9
$DIMBLK2
  1

  9
$DIMSTYLE
  2
*UNNAMED
  9
$DIMCLRD
 70
     0
  9
$DIMCLRE
 70
     0
  9
$DIMCLRT
 70
     0
  9
$DIMTFAC
 40
1.0
  9
$DIMGAP
 40
0.09
  9
$LUNITS
 70
     2
  9
$LUPREC
 70
     4
  9
$SKETCHINC
 40
0.1
  9
$FILLETRAD
 40
2.0
  9
$AUNITS
 70
     0
  9
$AUPREC
 70
     0
  9
$MENU
  1
ACAD
  9
$ELEVATION
 40
0.0
  9
$PELEVATION
 40
0.0
  9
$THICKNESS
 40
0.0
  9
$LIMCHECK
 70
     0
  9
$BLIPMODE
 70
     1
  9
$CHAMFERA
 40
0.0
  9
$CHAMFERB
 40
0.0
  9
$SKPOLY
 70
     0
  9
$TDCREATE
 40
2450948.484075347
  9
$TDUPDATE
 40
2450948.484660880
  9
$TDINDWG
 40
0.0003592593
  9
$TDUSRTIMER
 40
0.0003592593
  9
$USRTIMER
 70
     1
  9
$ANGBASE
 50
0.0
  9
$ANGDIR
 70
     0
  9
$PDMODE
 70
     0
  9
$PDSIZE
 40
0.0
  9
$PLINEWID
 40
0.0
  9
$COORDS
 70
     2
  9
$SPLFRAME
 70
     0
  9
$SPLINETYPE
 70
     6
  9
$SPLINESEGS
 70
     8
  9
$ATTDIA
 70
     0
  9
$ATTREQ
 70
     1
  9
$HANDLING
 70
     0
  9
$HANDSEED
  5
0
  9
$SURFTAB1
 70
     6
  9
$SURFTAB2
 70
     6
  9
$SURFTYPE
 70
     6
  9
$SURFU
 70
     6
  9
$SURFV
 70
     6
  9
$UCSNAME
  2

  9
$UCSORG
 10
0.0
 20
0.0
 30
0.0
  9
$UCSXDIR
 10
1.0
 20
0.0
 30
0.0
  9
$UCSYDIR
 10
0.0
 20
1.0
 30
0.0
  9
$PUCSNAME
  2

  9
$PUCSORG
 10
0.0
 20
0.0
 30
0.0
  9
$PUCSXDIR
 10
1.0
 20
0.0
 30
0.0
  9
$PUCSYDIR
 10
0.0
 20
1.0
 30
0.0
  9
$USERI1
 70
     0
  9
$USERI2
 70
     0
  9
$USERI3
 70
     0
  9
$USERI4
 70
     0
  9
$USERI5
 70
     0
  9
$USERR1
 40
0.0
  9
$USERR2
 40
0.0
  9
$USERR3
 40
0.0
  9
$USERR4
 40
0.0
  9
$USERR5
 40
0.0
  9
$WORLDVIEW
 70
     1
  9
$SHADEDGE
 70
     3
  9
$SHADEDIF
 70
    70
  9
$TILEMODE
 70
     1
  9
$MAXACTVP
 70
    16
  9
$PINSBASE
 10
0.0
 20
0.0
 30
0.0
  9
$PLIMCHECK
 70
     0
  9
$PEXTMIN
 10
1.000000E+20
 20
1.000000E+20
 30
1.000000E+20
  9
$PEXTMAX
 10
-1.000000E+20
 20
-1.000000E+20
 30
-1.000000E+20
  9
$PLIMMIN
 10
0.0
 20
0.0
  9
$PLIMMAX
 10
420.0
 20
297.0
  9
$UNITMODE
 70
     0
  9
$VISRETAIN
 70
     0
  9
$PLINEGEN
 70
     0
  9
$PSLTSCALE
 70
     1
  9
$TREEDEPTH
 70
  3020
  9
$DWGCODEPAGE
  3
iso8859-1
  0
ENDSEC
  0
SECTION
  2
TABLES
  0
TABLE
  2
VPORT
 70
     2
  0
VPORT
  2
*ACTIVE
 70
     0
 10
0.0
 20
0.0
 11
1.0
 21
1.0
 12
166.310934
 22
617.262067
 13
0.0
 23
0.0
 14
1.0
 24
1.0
 15
0.0
 25
0.0
 16
0.0
 26
0.0
 36
1.0
 17
0.0
 27
0.0
 37
0.0
 40
541.301147
 41
1.748359
 42
50.0
 43
0.0
 44
0.0
 50
0.0
 51
0.0
 71
     0
 72
   100
 73
     1
 74
     0
 75
     0
 76
     0
 77
     0
 78
     0
  0
ENDTAB
  0
TABLE
  2
LTYPE
 70
     1
  0
LTYPE
  2
CONTINUOUS
 70
    64
  3
Solid line
 72
    65
 73
     0
 40
0.0
  0
ENDTAB
  0
TABLE
  2
LAYER
 70
     1
  0
LAYER
  2
0
 70
    64
 62
     7
  6
CONTINUOUS
  0
ENDTAB
  0
TABLE
  2
STYLE
 70
     1
  0
STYLE
  2
STANDARD
 70
     0
 40
0.0
 41
1.0
 50
0.0
 71
     0
 42
3.5
  3
txt
  4

  0
ENDTAB
  0
TABLE
  2
VIEW
 70
     0
  0
ENDTAB
  0
TABLE
  2
UCS
 70
     0
  0
ENDTAB
  0
TABLE
  2
APPID
 70
     1
  0
APPID
  2
ACAD
 70
    64
  0
ENDTAB
  0
TABLE
  2
DIMSTYLE
 70
     0
  0
ENDTAB
  0
ENDSEC
  0
SECTION
  2
BLOCKS
  0
ENDSEC
  0
SECTION
  2
ENTITIES
  0
LINE
  8
0
 10
-191.1774
 20
754.0
 30
0.0
 11
-191.1774
 21
460.0
 31
0.0
  0
LINE
  8
0
 10
-187.6774
 20
751.5
 30
0.0
 11
-187.6774
 21
462.5
 31
0.0
  0
LINE
  8
0
 10
-137.263187
 20
735.5
 30
0.0
 11
-134.1774
 21
735.5
 31
0.0
  0
LINE
  8
0
 10
-137.263187
 20
735.5
 30
0.0
 11
-135.323847
 21
733.56066
 31
0.0
  0
LINE
  8
0
 10
-135.1774
 20
733.207107
 30
0.0
 11
-135.1774
 21
701.5
 31
0.0
  0
LINE
  8
0
 10
-135.1774
 20
737.5
 30
0.0
 11
-134.1774
 21
737.5
 31
0.0
  0
LINE
  8
0
 10
-135.1774
 20
701.5
 30
0.0
 11
-133.1774
 21
701.5
 31
0.0
  0
LINE
  8
0
 10
-133.1774
 20
751.171573
 30
0.0
 11
-133.1774
 21
701.5
 31
0.0
  0
LINE
  8
0
 10
-135.1774
 20
752.5
 30
0.0
 11
-135.1774
 21
737.5
 31
0.0
  0
LINE
  8
0
 10
-134.505827
 20
752.5
 30
0.0
 11
-135.1774
 21
752.5
 31
0.0
  0
LINE
  8
0
 10
-133.1774
 20
751.171573
 30
0.0
 11
-134.505827
 21
752.5
 31
0.0
  0
LINE
  8
0
 10
-131.1774
 20
700.5
 30
0.0
 11
-131.1774
 21
751.585786
 31
0.0
  0
LINE
  8
0
 10
-137.1774
 20
731.343146
 30
0.0
 11
-137.1774
 21
700.5
 31
0.0
  0
LINE
  8
0
 10
-140.384507
 20
735.792893
 30
0.0
 11
-138.05608
 21
733.464466
 31
0.0
  0
LINE
  8
0
 10
-137.6774
 20
737.5
 30
0.0
 11
-139.6774
 21
737.5
 31
0.0
  0
LINE
  8
0
 10
-132.1774
 20
699.5
 30
0.0
 11
-136.1774
 21
699.5
 31
0.0
  0
LINE
  8
0
 10
-137.1774
 20
743.22691
 30
0.0
 11
-137.1774
 21
738.0
 31
0.0
  0
LINE
  8
0
 10
-131.470293
 20
752.292893
 30
0.0
 11
-133.384507
 21
754.207107
 31
0.0
  0
LINE
  8
0
 10
-137.1774
 20
753.5
 30
0.0
 11
-137.1774
 21
750.414214
 31
0.0
  0
LINE
  8
0
 10
-134.091614
 20
754.5
 30
0.0
 11
-136.1774
 21
754.5
 31
0.0
  0
LINE
  8
0
 10
-147.455327
 20
753.503564
 30
0.0
 11
-185.6774
 21
753.5
 31
0.0
  0
LINE
  8
0
 10
-146.041114
 20
752.917777
 30
0.0
 11
-137.763187
 21
744.641124
 31
0.0
  0
LINE
  8
0
 10
-145.298721
 20
756.12132
 30
0.0
 11
-138.884507
 21
749.707107
 31
0.0
  0
LINE
  8
0
 10
-188.1774
 20
757.0
 30
0.0
 11
-147.420041
 21
757.0
 31
0.0
  0
LINE
  8
0
 10
-134.1774
 20
478.5
 30
0.0
 11
-137.263187
 21
478.5
 31
0.0
  0
LINE
  8
0
 10
-135.323847
 20
480.43934
 30
0.0
 11
-137.263187
 21
478.5
 31
0.0
  0
LINE
  8
0
 10
-135.1774
 20
512.5
 30
0.0
 11
-135.1774
 21
480.792893
 31
0.0
  0
LINE
  8
0
 10
-134.1774
 20
476.5
 30
0.0
 11
-135.1774
 21
476.5
 31
0.0
  0
LINE
  8
0
 10
-133.1774
 20
512.5
 30
0.0
 11
-135.1774
 21
512.5
 31
0.0
  0
LINE
  8
0
 10
-133.1774
 20
512.5
 30
0.0
 11
-133.1774
 21
462.828427
 31
0.0
  0
LINE
  8
0
 10
-135.1774
 20
476.5
 30
0.0
 11
-135.1774
 21
461.5
 31
0.0
  0
LINE
  8
0
 10
-135.1774
 20
461.5
 30
0.0
 11
-134.505827
 21
461.5
 31
0.0
  0
LINE
  8
0
 10
-134.505827
 20
461.5
 30
0.0
 11
-133.1774
 21
462.828427
 31
0.0
  0
LINE
  8
0
 10
-131.1774
 20
462.414214
 30
0.0
 11
-131.1774
 21
513.5
 31
0.0
  0
LINE
  8
0
 10
-137.1774
 20
513.5
 30
0.0
 11
-137.1774
 21
482.656854
 31
0.0
  0
LINE
  8
0
 10
-138.05608
 20
480.535534
 30
0.0
 11
-140.384507
 21
478.207107
 31
0.0
  0
LINE
  8
0
 10
-139.6774
 20
476.5
 30
0.0
 11
-137.6774
 21
476.5
 31
0.0
  0
LINE
  8
0
 10
-136.1774
 20
514.5
 30
0.0
 11
-132.1774
 21
514.5
 31
0.0
  0
LINE
  8
0
 10
-137.1774
 20
476.0
 30
0.0
 11
-137.1774
 21
470.77309
 31
0.0
  0
LINE
  8
0
 10
-133.384507
 20
459.792893
 30
0.0
 11
-131.470293
 21
461.707107
 31
0.0
  0
LINE
  8
0
 10
-137.1774
 20
463.585786
 30
0.0
 11
-137.1774
 21
460.5
 31
0.0
  0
LINE
  8
0
 10
-136.1774
 20
459.5
 30
0.0
 11
-134.091614
 21
459.5
 31
0.0
  0
LINE
  8
0
 10
-137.763187
 20
469.358876
 30
0.0
 11
-146.041114
 21
461.082223
 31
0.0
  0
LINE
  8
0
 10
-138.884507
 20
464.292893
 30
0.0
 11
-145.298721
 21
457.87868
 31
0.0
  0
LINE
  8
0
 10
-147.420041
 20
457.0
 30
0.0
 11
-188.1774
 21
457.0
 31
0.0
  0
LINE
  8
0
 10
-185.6774
 20
460.5
 30
0.0
 11
-147.455327
 21
460.496436
 31
0.0
  0
LINE
  8
0
 10
-191.1774
 20
754.0
 30
0.0
 11
-191.171484
 21
839.5
 31
0.0
  0
LINE
  8
0
 10
-191.1774
 20
484.0
 30
0.0
 11
-191.171484
 21
377.5
 31
0.0
  0
ARC
  8
0
 10
-139.6774
 20
736.5
 30
0.0
 40
1.0
 50
90.0
 51
225.0
  0
ARC
  8
0
 10
-134.1774
 20
736.5
 30
0.0
 40
1.0
 50
270.0
 51
90.0
  0
ARC
  8
0
 10
-139.6774
 20
477.5
 30
0.0
 40
1.0
 50
135.0
 51
270.0
  0
ARC
  8
0
 10
-134.1774
 20
477.5
 30
0.0
 40
1.0
 50
270.0
 51
90.0
  0
ARC
  8
0
 10
-147.420041
 20
754.0
 30
0.0
 40
3.0
 50
45.0
 51
90.0
  0
ARC
  8
0
 10
-185.6774
 20
751.5
 30
0.0
 40
2.0
 50
90.0
 51
180.0
  0
ARC
  8
0
 10
-188.1774
 20
754.0
 30
0.0
 40
3.0
 50
90.0
 51
180.0
  0
ARC
  8
0
 10
-147.455327
 20
751.503564
 30
0.0
 40
2.0
 50
45.0
 51
90.0
  0
ARC
  8
0
 10
-140.1774
 20
731.343146
 30
0.0
 40
3.0
 50
0.0
 51
45.0
  0
ARC
  8
0
 10
-137.6774
 20
738.0
 30
0.0
 40
0.5
 50
270.0
 51
0.0
  0
ARC
  8
0
 10
-139.1774
 20
743.22691
 30
0.0
 40
2.0
 50
0.0
 51
45.0
  0
ARC
  8
0
 10
-134.091614
 20
753.5
 30
0.0
 40
1.0
 50
45.0
 51
90.0
  0
ARC
  8
0
 10
-132.1774
 20
751.585786
 30
0.0
 40
1.0
 50
0.0
 51
45.0
  0
ARC
  8
0
 10
-135.6774
 20
733.207107
 30
0.0
 40
0.5
 50
0.0
 51
45.0
  0
ARC
  8
0
 10
-136.1774
 20
700.5
 30
0.0
 40
1.0
 50
180.0
 51
270.0
  0
ARC
  8
0
 10
-132.1774
 20
700.5
 30
0.0
 40
1.0
 50
270.0
 51
0.0
  0
ARC
  8
0
 10
-136.1774
 20
753.5
 30
0.0
 40
1.0
 50
90.0
 51
180.0
  0
ARC
  8
0
 10
-138.1774
 20
750.414214
 30
0.0
 40
1.0
 50
225.0
 51
0.0
  0
ARC
  8
0
 10
-147.420041
 20
460.0
 30
0.0
 40
3.0
 50
270.0
 51
315.0
  0
ARC
  8
0
 10
-147.455327
 20
462.496436
 30
0.0
 40
2.0
 50
270.0
 51
315.0
  0
ARC
  8
0
 10
-140.1774
 20
482.656854
 30
0.0
 40
3.0
 50
315.0
 51
0.0
  0
ARC
  8
0
 10
-137.6774
 20
476.0
 30
0.0
 40
0.5
 50
0.0
 51
90.0
  0
ARC
  8
0
 10
-139.1774
 20
470.77309
 30
0.0
 40
2.0
 50
315.0
 51
0.0
  0
ARC
  8
0
 10
-134.091614
 20
460.5
 30
0.0
 40
1.0
 50
270.0
 51
315.0
  0
ARC
  8
0
 10
-132.1774
 20
462.414214
 30
0.0
 40
1.0
 50
315.0
 51
0.0
  0
ARC
  8
0
 10
-135.6774
 20
480.792893
 30
0.0
 40
0.5
 50
315.0
 51
0.0
  0
ARC
  8
0
 10
-136.1774
 20
513.5
 30
0.0
 40
1.0
 50
90.0
 51
180.0
  0
ARC
  8
0
 10
-132.1774
 20
513.5
 30
0.0
 40
1.0
 50
0.0
 51
90.0
  0
ARC
  8
0
 10
-136.1774
 20
460.5
 30
0.0
 40
1.0
 50
180.0
 51
270.0
  0
ARC
  8
0
 10
-138.1774
 20
463.585786
 30
0.0
 40
1.0
 50
0.0
 51
135.0
  0
ARC
  8
0
 10
-185.6774
 20
462.5
 30
0.0
 40
2.0
 50
180.0
 51
270.0
  0
ARC
  8
0
 10
-188.1774
 20
460.0
 30
0.0
 40
3.0
 50
180.0
 51
270.0
  0
LINE
  8
0
 10
-183.6774
 20
624.675902
 30
0.0
 11
-183.6774
 21
599.675902
 31
0.0
  0
LINE
  8
0
 10
-179.6774
 20
595.675902
 30
0.0
 11
-149.162682
 21
595.675902
 31
0.0
  0
LINE
  8
0
 10
-147.748468
 20
596.261688
 30
0.0
 11
-141.1774
 21
602.832756
 31
0.0
  0
LINE
  8
0
 10
-141.1774
 20
602.832756
 30
0.0
 11
-141.1774
 21
603.675902
 31
0.0
  0
LINE
  8
0
 10
-141.1774
 20
607.675902
 30
0.0
 11
-138.1774
 21
607.675902
 31
0.0
  0
LINE
  8
0
 10
-137.1774
 20
606.675902
 30
0.0
 11
-137.1774
 21
602.004329
 31
0.0
  0
LINE
  8
0
 10
-137.763187
 20
600.590115
 30
0.0
 11
-144.920041
 21
593.433261
 31
0.0
  0
LINE
  8
0
 10
-149.162682
 20
591.675902
 30
0.0
 11
-179.6774
 21
591.675902
 31
0.0
  0
LINE
  8
0
 10
-187.6774
 20
599.675902
 30
0.0
 11
-187.6774
 21
624.675902
 31
0.0
  0
ARC
  8
0
 10
-149.162682
 20
597.675902
 30
0.0
 40
2.0
 50
270.0
 51
315.0
  0
ARC
  8
0
 10
-179.6774
 20
599.675902
 30
0.0
 40
4.0
 50
180.0
 51
270.0
  0
ARC
  8
0
 10
-179.6774
 20
599.675902
 30
0.0
 40
8.0
 50
180.0
 51
270.0
  0
ARC
  8
0
 10
-149.162682
 20
597.675902
 30
0.0
 40
6.0
 50
270.0
 51
315.0
  0
ARC
  8
0
 10
-138.1774
 20
606.675902
 30
0.0
 40
1.0
 50
0.0
 51
90.0
  0
ARC
  8
0
 10
-139.1774
 20
602.004329
 30
0.0
 40
2.0
 50
315.0
 51
0.0
  0
ARC
  8
0
 10
-141.1774
 20
605.675902
 30
0.0
 40
2.0
 50
90.0
 51
270.0
  0
ARC
  8
0
 10
-185.6774
 20
624.675902
 30
0.0
 40
2.0
 50
0.0
 51
90.0
  0
ARC
  8
0
 10
-185.6774
 20
624.675902
 30
0.0
 40
2.0
 50
90.0
 51
180.0
  0
LINE
  8
0
 10
-216.171484
 20
830.346552
 30
0.0
 11
-207.018036
 21
839.5
 31
0.0
  0
LINE
  8
0
 10
-216.171484
 20
816.204416
 30
0.0
 11
-192.875901
 21
839.5
 31
0.0
  0
LINE
  8
0
 10
-216.171484
 20
802.062281
 30
0.0
 11
-191.171484
 21
827.062281
 31
0.0
  0
LINE
  8
0
 10
-216.171484
 20
787.920145
 30
0.0
 11
-191.171484
 21
812.920145
 31
0.0
  0
LINE
  8
0
 10
-216.171484
 20
773.77801
 30
0.0
 11
-191.171484
 21
798.77801
 31
0.0
  0
LINE
  8
0
 10
-216.171484
 20
759.635874
 30
0.0
 11
-191.171484
 21
784.635874
 31
0.0
  0
LINE
  8
0
 10
-216.171484
 20
745.493738
 30
0.0
 11
-191.171484
 21
770.493738
 31
0.0
  0
LINE
  8
0
 10
-216.171484
 20
731.351603
 30
0.0
 11
-191.171484
 21
756.351603
 31
0.0
  0
LINE
  8
0
 10
-216.171484
 20
717.209467
 30
0.0
 11
-191.171484
 21
742.209467
 31
0.0
  0
LINE
  8
0
 10
-216.171484
 20
703.067331
 30
0.0
 11
-191.171484
 21
728.067331
 31
0.0
  0
LINE
  8
0
 10
-216.171484
 20
688.925196
 30
0.0
 11
-191.171484
 21
713.925196
 31
0.0
  0
LINE
  8
0
 10
-216.171484
 20
674.78306
 30
0.0
 11
-191.171484
 21
699.78306
 31
0.0
  0
LINE
  8
0
 10
-216.171484
 20
660.640925
 30
0.0
 11
-191.171484
 21
685.640925
 31
0.0
  0
LINE
  8
0
 10
-216.171484
 20
646.498789
 30
0.0
 11
-191.171484
 21
671.498789
 31
0.0
  0
LINE
  8
0
 10
-216.171484
 20
632.356653
 30
0.0
 11
-191.171484
 21
657.356653
 31
0.0
  0
LINE
  8
0
 10
-216.171484
 20
618.214518
 30
0.0
 11
-191.171484
 21
643.214518
 31
0.0
  0
LINE
  8
0
 10
-216.171484
 20
604.072382
 30
0.0
 11
-191.171484
 21
629.072382
 31
0.0
  0
LINE
  8
0
 10
-216.171484
 20
589.930247
 30
0.0
 11
-191.171484
 21
614.930247
 31
0.0
  0
LINE
  8
0
 10
-216.171484
 20
575.788111
 30
0.0
 11
-191.171484
 21
600.788111
 31
0.0
  0
LINE
  8
0
 10
-216.171484
 20
561.645975
 30
0.0
 11
-191.171484
 21
586.645975
 31
0.0
  0
LINE
  8
0
 10
-216.171484
 20
547.50384
 30
0.0
 11
-191.171484
 21
572.50384
 31
0.0
  0
LINE
  8
0
 10
-216.171484
 20
533.361704
 30
0.0
 11
-191.171484
 21
558.361704
 31
0.0
  0
LINE
  8
0
 10
-216.171484
 20
519.219568
 30
0.0
 11
-191.171484
 21
544.219568
 31
0.0
  0
LINE
  8
0
 10
-216.171484
 20
505.077433
 30
0.0
 11
-191.171484
 21
530.077433
 31
0.0
  0
LINE
  8
0
 10
-216.171484
 20
490.935297
 30
0.0
 11
-191.171484
 21
515.935297
 31
0.0
  0
LINE
  8
0
 10
-216.171484
 20
476.793162
 30
0.0
 11
-191.171484
 21
501.793162
 31
0.0
  0
LINE
  8
0
 10
-216.171484
 20
462.651026
 30
0.0
 11
-191.171484
 21
487.651026
 31
0.0
  0
LINE
  8
0
 10
-216.171484
 20
448.50889
 30
0.0
 11
-191.171484
 21
473.50889
 31
0.0
  0
LINE
  8
0
 10
-216.171484
 20
434.366755
 30
0.0
 11
-191.171484
 21
459.366755
 31
0.0
  0
LINE
  8
0
 10
-216.171484
 20
420.224619
 30
0.0
 11
-191.171484
 21
445.224619
 31
0.0
  0
LINE
  8
0
 10
-216.171484
 20
406.082483
 30
0.0
 11
-191.171484
 21
431.082483
 31
0.0
  0
LINE
  8
0
 10
-216.171484
 20
391.940348
 30
0.0
 11
-191.171484
 21
416.940348
 31
0.0
  0
LINE
  8
0
 10
-216.171484
 20
377.798212
 30
0.0
 11
-191.171484
 21
402.798212
 31
0.0
  0
LINE
  8
0
 10
-202.327561
 20
377.5
 30
0.0
 11
-191.171484
 21
388.656077
 31
0.0
  0
LINE
  8
0
 10
-141.1774
 20
757.16176
 30
0.0
 11
-129.6774
 21
757.16176
 31
0.0
  0
LINE
  8
0
 10
-131.1774
 20
754.66176
 30
0.0
 11
-140.6774
 21
754.66176
 31
0.0
  0
LINE
  8
0
 10
-140.6774
 20
754.66176
 30
0.0
 11
-139.351664
 21
753.336024
 31
0.0
  0
LINE
  8
0
 10
-139.351664
 20
753.336024
 30
0.0
 11
-138.201664
 21
754.486024
 31
0.0
  0
LINE
  8
0
 10
-137.1774
 20
754.06176
 30
0.0
 11
-137.1774
 21
750.6011
 31
0.0
  0
LINE
  8
0
 10
-138.780954
 20
749.936887
 30
0.0
 11
-142.591614
 21
753.747547
 31
0.0
  0
LINE
  8
0
 10
-140.6774
 20
459.5
 30
0.0
 11
-131.1774
 21
459.5
 31
0.0
  0
LINE
  8
0
 10
-139.351664
 20
460.825736
 30
0.0
 11
-140.6774
 21
459.5
 31
0.0
  0
LINE
  8
0
 10
-138.201664
 20
459.675736
 30
0.0
 11
-139.351664
 21
460.825736
 31
0.0
  0
LINE
  8
0
 10
-137.1774
 20
463.56066
 30
0.0
 11
-137.1774
 21
460.1
 31
0.0
  0
LINE
  8
0
 10
-142.591614
 20
460.414214
 30
0.0
 11
-138.780954
 21
464.224874
 31
0.0
  0
LINE
  8
0
 10
-129.6774
 20
461.0
 30
0.0
 11
-129.6774
 21
753.16176
 31
0.0
  0
LINE
  8
0
 10
-127.1774
 20
754.66176
 30
0.0
 11
-127.1774
 21
459.5
 31
0.0
  0
LINE
  8
0
 10
-129.6774
 20
457.0
 30
0.0
 11
-141.1774
 21
457.0
 31
0.0
  0
ARC
  8
0
 10
-138.11674
 20
463.56066
 30
0.0
 40
0.93934
 50
0.0
 51
90.866301
  0
ARC
  8
0
 10
-138.11674
 20
750.6011
 30
0.0
 40
0.93934
 50
225.0
 51
269.820102
  0
ARC
  8
0
 10
-141.1774
 20
755.16176
 30
0.0
 40
2.0
 50
90.0
 51
225.0
  0
ARC
  8
0
 10
-137.7774
 20
754.06176
 30
0.0
 40
0.6
 50
0.0
 51
135.0
  0
ARC
  8
0
 10
-138.11674
 20
750.6011
 30
0.0
 40
0.93934
 50
269.820102
 51
0.0
  0
ARC
  8
0
 10
-141.1774
 20
459.0
 30
0.0
 40
2.0
 50
135.0
 51
270.0
  0
ARC
  8
0
 10
-137.7774
 20
460.1
 30
0.0
 40
0.6
 50
225.0
 51
0.0
  0
ARC
  8
0
 10
-138.11674
 20
463.56066
 30
0.0
 40
0.93934
 50
90.866301
 51
135.0
  0
ARC
  8
0
 10
-131.1774
 20
753.16176
 30
0.0
 40
1.5
 50
0.0
 51
90.0
  0
ARC
  8
0
 10
-131.1774
 20
461.0
 30
0.0
 40
1.5
 50
270.0
 51
0.0
  0
ARC
  8
0
 10
-129.6774
 20
754.66176
 30
0.0
 40
2.5
 50
0.0
 51
90.0
  0
ARC
  8
0
 10
-129.6774
 20
459.5
 30
0.0
 40
2.5
 50
270.0
 51
0.0
  0
ENDSEC
  0
EOF
