  0
SECTION
  2
HEADER
  9
$ACADVER
  1
AC1009
  9
$INSBASE
 10
0.0
 20
0.0
 30
0.0
  9
$EXTMIN
 10
422.732101
 20
-1647.710524
 30
0.0
  9
$EXTMAX
 10
820.727441
 20
-1308.549662
 30
0.0
  9
$LIMMIN
 10
422.732101
 20
-1637.976505
  9
$LIMMAX
 10
820.727441
 20
-1308.549662
  9
$ORTHOMODE
 70
     0
  9
$REGENMODE
 70
     1
  9
$FILLMODE
 70
     1
  9
$QTEXTMODE
 70
     0
  9
$MIRRTEXT
 70
     1
  9
$DRAGMODE
 70
     2
  9
$LTSCALE
 40
1.0
  9
$OSMODE
 70
     0
  9
$ATTMODE
 70
     1
  9
$TEXTSIZE
 40
3.5
  9
$TRACEWID
 40
0.5
  9
$TEXTSTYLE
  7
STANDARD
  9
$CLAYER
  8
0
  9
$CELTYPE
  6
BYLAYER
  9
$CECOLOR
 62
   256
  9
$DIMSCALE
 40
1.0
  9
$DIMASZ
 40
0.18
  9
$DIMEXO
 40
0.0625
  9
$DIMDLI
 40
0.38
  9
$DIMRND
 40
0.0
  9
$DIMDLE
 40
0.0
  9
$DIMEXE
 40
0.18
  9
$DIMTP
 40
0.0
  9
$DIMTM
 40
0.0
  9
$DIMTXT
 40
0.18
  9
$DIMCEN
 40
0.09
  9
$DIMTSZ
 40
0.0
  9
$DIMTOL
 70
     0
  9
$DIMLIM
 70
     0
  9
$DIMTIH
 70
     1
  9
$DIMTOH
 70
     1
  9
$DIMSE1
 70
     0
  9
$DIMSE2
 70
     0
  9
$DIMTAD
 70
     0
  9
$DIMZIN
 70
     0
  9
$DIMBLK
  1

  9
$DIMASO
 70
     1
  9
$DIMSHO
 70
     1
  9
$DIMPOST
  1

  9
$DIMAPOST
  1

  9
$DIMALT
 70
     0
  9
$DIMALTD
 70
     2
  9
$DIMALTF
 40
25.4
  9
$DIMLFAC
 40
1.0
  9
$DIMTOFL
 70
     0
  9
$DIMTVP
 40
0.0
  9
$DIMTIX
 70
     0
  9
$DIMSOXD
 70
     0
  9
$DIMSAH
 70
     0
  9
$DIMBLK1
  1

  9
$DIMBLK2
  1

  9
$DIMSTYLE
  2
*UNNAMED
  9
$DIMCLRD
 70
     0
  9
$DIMCLRE
 70
     0
  9
$DIMCLRT
 70
     0
  9
$DIMTFAC
 40
1.0
  9
$DIMGAP
 40
0.09
  9
$LUNITS
 70
     2
  9
$LUPREC
 70
     4
  9
$SKETCHINC
 40
0.1
  9
$FILLETRAD
 40
2.0
  9
$AUNITS
 70
     0
  9
$AUPREC
 70
     0
  9
$MENU
  1
ACAD
  9
$ELEVATION
 40
0.0
  9
$PELEVATION
 40
0.0
  9
$THICKNESS
 40
0.0
  9
$LIMCHECK
 70
     0
  9
$BLIPMODE
 70
     1
  9
$CHAMFERA
 40
0.0
  9
$CHAMFERB
 40
0.0
  9
$SKPOLY
 70
     0
  9
$TDCREATE
 40
2450948.447501620
  9
$TDUPDATE
 40
2450948.447893865
  9
$TDINDWG
 40
0.0002402778
  9
$TDUSRTIMER
 40
0.0002402778
  9
$USRTIMER
 70
     1
  9
$ANGBASE
 50
0.0
  9
$ANGDIR
 70
     0
  9
$PDMODE
 70
     0
  9
$PDSIZE
 40
0.0
  9
$PLINEWID
 40
0.0
  9
$COORDS
 70
     2
  9
$SPLFRAME
 70
     0
  9
$SPLINETYPE
 70
     6
  9
$SPLINESEGS
 70
     8
  9
$ATTDIA
 70
     0
  9
$ATTREQ
 70
     1
  9
$HANDLING
 70
     0
  9
$HANDSEED
  5
0
  9
$SURFTAB1
 70
     6
  9
$SURFTAB2
 70
     6
  9
$SURFTYPE
 70
     6
  9
$SURFU
 70
     6
  9
$SURFV
 70
     6
  9
$UCSNAME
  2

  9
$UCSORG
 10
0.0
 20
0.0
 30
0.0
  9
$UCSXDIR
 10
1.0
 20
0.0
 30
0.0
  9
$UCSYDIR
 10
0.0
 20
1.0
 30
0.0
  9
$PUCSNAME
  2

  9
$PUCSORG
 10
0.0
 20
0.0
 30
0.0
  9
$PUCSXDIR
 10
1.0
 20
0.0
 30
0.0
  9
$PUCSYDIR
 10
0.0
 20
1.0
 30
0.0
  9
$USERI1
 70
     0
  9
$USERI2
 70
     0
  9
$USERI3
 70
     0
  9
$USERI4
 70
     0
  9
$USERI5
 70
     0
  9
$USERR1
 40
0.0
  9
$USERR2
 40
0.0
  9
$USERR3
 40
0.0
  9
$USERR4
 40
0.0
  9
$USERR5
 40
0.0
  9
$WORLDVIEW
 70
     1
  9
$SHADEDGE
 70
     3
  9
$SHADEDIF
 70
    70
  9
$TILEMODE
 70
     1
  9
$MAXACTVP
 70
    16
  9
$PINSBASE
 10
0.0
 20
0.0
 30
0.0
  9
$PLIMCHECK
 70
     0
  9
$PEXTMIN
 10
1.000000E+20
 20
1.000000E+20
 30
1.000000E+20
  9
$PEXTMAX
 10
-1.000000E+20
 20
-1.000000E+20
 30
-1.000000E+20
  9
$PLIMMIN
 10
0.0
 20
0.0
  9
$PLIMMAX
 10
420.0
 20
297.0
  9
$UNITMODE
 70
     0
  9
$VISRETAIN
 70
     0
  9
$PLINEGEN
 70
     0
  9
$PSLTSCALE
 70
     1
  9
$TREEDEPTH
 70
  3020
  9
$DWGCODEPAGE
  3
iso8859-1
  0
ENDSEC
  0
SECTION
  2
TABLES
  0
TABLE
  2
VPORT
 70
     2
  0
VPORT
  2
*ACTIVE
 70
     0
 10
0.0
 20
0.0
 11
1.0
 21
1.0
 12
799.025115
 22
-1483.908827
 13
0.0
 23
0.0
 14
1.0
 24
1.0
 15
0.0
 25
0.0
 16
0.0
 26
0.0
 36
1.0
 17
0.0
 27
0.0
 37
0.0
 40
552.578818
 41
1.748359
 42
50.0
 43
0.0
 44
0.0
 50
0.0
 51
0.0
 71
     0
 72
   100
 73
     1
 74
     0
 75
     0
 76
     0
 77
     0
 78
     0
  0
ENDTAB
  0
TABLE
  2
LTYPE
 70
     1
  0
LTYPE
  2
CONTINUOUS
 70
    64
  3
Solid line
 72
    65
 73
     0
 40
0.0
  0
ENDTAB
  0
TABLE
  2
LAYER
 70
     2
  0
LAYER
  2
0
 70
    64
 62
     7
  6
CONTINUOUS
  0
ENDTAB
  0
TABLE
  2
STYLE
 70
     1
  0
STYLE
  2
STANDARD
 70
     0
 40
0.0
 41
1.0
 50
0.0
 71
     0
 42
3.5
  3
txt
  4

  0
ENDTAB
  0
TABLE
  2
VIEW
 70
     0
  0
ENDTAB
  0
TABLE
  2
UCS
 70
     0
  0
ENDTAB
  0
TABLE
  2
APPID
 70
     1
  0
APPID
  2
ACAD
 70
    64
  0
ENDTAB
  0
TABLE
  2
DIMSTYLE
 70
     0
  0
ENDTAB
  0
ENDSEC
  0
SECTION
  2
BLOCKS
  0
ENDSEC
  0
SECTION
  2
ENTITIES
  0
LINE
  8
0
 10
506.732101
 20
-1333.498047
 30
0.0
 11
422.732101
 21
-1333.498047
 31
0.0
  0
LINE
  8
0
 10
595.732101
 20
-1333.498047
 30
0.0
 11
703.732101
 21
-1333.498047
 31
0.0
  0
LINE
  8
0
 10
813.727441
 20
-1610.476505
 30
0.0
 11
813.731005
 21
-1572.254432
 31
0.0
  0
LINE
  8
0
 10
817.227441
 20
-1572.219145
 30
0.0
 11
817.227441
 21
-1612.976505
 31
0.0
  0
LINE
  8
0
 10
809.934548
 20
-1563.683612
 30
0.0
 11
816.348761
 21
-1570.097825
 31
0.0
  0
LINE
  8
0
 10
804.868565
 20
-1562.562291
 30
0.0
 11
813.145218
 21
-1570.840218
 31
0.0
  0
LINE
  8
0
 10
814.727441
 20
-1560.976505
 30
0.0
 11
814.727441
 21
-1558.890718
 31
0.0
  0
LINE
  8
0
 10
810.641654
 20
-1561.976505
 30
0.0
 11
813.727441
 21
-1561.976505
 31
0.0
  0
LINE
  8
0
 10
814.434548
 20
-1558.183612
 30
0.0
 11
812.520334
 21
-1556.269398
 31
0.0
  0
LINE
  8
0
 10
798.227441
 20
-1561.976505
 30
0.0
 11
803.454351
 21
-1561.976505
 31
0.0
  0
LINE
  8
0
 10
759.727441
 20
-1560.976505
 30
0.0
 11
759.727441
 21
-1556.976505
 31
0.0
  0
LINE
  8
0
 10
797.727441
 20
-1564.476505
 30
0.0
 11
797.727441
 21
-1562.476505
 31
0.0
  0
LINE
  8
0
 10
793.691907
 20
-1562.855184
 30
0.0
 11
796.020334
 21
-1565.183612
 31
0.0
  0
LINE
  8
0
 10
760.727441
 20
-1561.976505
 30
0.0
 11
791.570587
 21
-1561.976505
 31
0.0
  0
LINE
  8
0
 10
811.813227
 20
-1555.976505
 30
0.0
 11
760.727441
 21
-1555.976505
 31
0.0
  0
LINE
  8
0
 10
812.727441
 20
-1559.304932
 30
0.0
 11
811.399014
 21
-1557.976505
 31
0.0
  0
LINE
  8
0
 10
812.727441
 20
-1559.976505
 30
0.0
 11
812.727441
 21
-1559.304932
 31
0.0
  0
LINE
  8
0
 10
797.727441
 20
-1559.976505
 30
0.0
 11
812.727441
 21
-1559.976505
 31
0.0
  0
LINE
  8
0
 10
761.727441
 20
-1557.976505
 30
0.0
 11
811.399014
 21
-1557.976505
 31
0.0
  0
LINE
  8
0
 10
761.727441
 20
-1557.976505
 30
0.0
 11
761.727441
 21
-1559.976505
 31
0.0
  0
LINE
  8
0
 10
797.727441
 20
-1558.976505
 30
0.0
 11
797.727441
 21
-1559.976505
 31
0.0
  0
LINE
  8
0
 10
761.727441
 20
-1559.976505
 30
0.0
 11
793.434548
 21
-1559.976505
 31
0.0
  0
LINE
  8
0
 10
793.788101
 20
-1560.122951
 30
0.0
 11
795.727441
 21
-1562.062291
 31
0.0
  0
LINE
  8
0
 10
795.727441
 20
-1558.976505
 30
0.0
 11
795.727441
 21
-1562.062291
 31
0.0
  0
LINE
  8
0
 10
517.227441
 20
-1612.976505
 30
0.0
 11
517.227441
 21
-1572.219145
 31
0.0
  0
LINE
  8
0
 10
518.106121
 20
-1570.097825
 30
0.0
 11
524.520334
 21
-1563.683612
 31
0.0
  0
LINE
  8
0
 10
521.309664
 20
-1570.840218
 30
0.0
 11
529.586317
 21
-1562.562291
 31
0.0
  0
LINE
  8
0
 10
520.723877
 20
-1572.254432
 30
0.0
 11
520.727441
 21
-1610.476505
 31
0.0
  0
LINE
  8
0
 10
519.727441
 20
-1558.890718
 30
0.0
 11
519.727441
 21
-1560.976505
 31
0.0
  0
LINE
  8
0
 10
520.727441
 20
-1561.976505
 30
0.0
 11
523.813227
 21
-1561.976505
 31
0.0
  0
LINE
  8
0
 10
521.934548
 20
-1556.269398
 30
0.0
 11
520.020334
 21
-1558.183612
 31
0.0
  0
LINE
  8
0
 10
531.00053
 20
-1561.976505
 30
0.0
 11
536.227441
 21
-1561.976505
 31
0.0
  0
LINE
  8
0
 10
574.727441
 20
-1556.976505
 30
0.0
 11
574.727441
 21
-1560.976505
 31
0.0
  0
LINE
  8
0
 10
536.727441
 20
-1562.476505
 30
0.0
 11
536.727441
 21
-1564.476505
 31
0.0
  0
LINE
  8
0
 10
538.434548
 20
-1565.183612
 30
0.0
 11
540.762975
 21
-1562.855184
 31
0.0
  0
LINE
  8
0
 10
542.884295
 20
-1561.976505
 30
0.0
 11
573.727441
 21
-1561.976505
 31
0.0
  0
LINE
  8
0
 10
573.727441
 20
-1555.976505
 30
0.0
 11
522.641654
 21
-1555.976505
 31
0.0
  0
LINE
  8
0
 10
523.055868
 20
-1557.976505
 30
0.0
 11
521.727441
 21
-1559.304932
 31
0.0
  0
LINE
  8
0
 10
521.727441
 20
-1559.304932
 30
0.0
 11
521.727441
 21
-1559.976505
 31
0.0
  0
LINE
  8
0
 10
521.727441
 20
-1559.976505
 30
0.0
 11
536.727441
 21
-1559.976505
 31
0.0
  0
LINE
  8
0
 10
523.055868
 20
-1557.976505
 30
0.0
 11
572.727441
 21
-1557.976505
 31
0.0
  0
LINE
  8
0
 10
572.727441
 20
-1559.976505
 30
0.0
 11
572.727441
 21
-1557.976505
 31
0.0
  0
LINE
  8
0
 10
536.727441
 20
-1559.976505
 30
0.0
 11
536.727441
 21
-1558.976505
 31
0.0
  0
LINE
  8
0
 10
541.020334
 20
-1559.976505
 30
0.0
 11
572.727441
 21
-1559.976505
 31
0.0
  0
LINE
  8
0
 10
538.727441
 20
-1562.062291
 30
0.0
 11
540.666781
 21
-1560.122951
 31
0.0
  0
LINE
  8
0
 10
538.727441
 20
-1562.062291
 30
0.0
 11
538.727441
 21
-1558.976505
 31
0.0
  0
LINE
  8
0
 10
522.727441
 20
-1612.476505
 30
0.0
 11
811.727441
 21
-1612.476505
 31
0.0
  0
LINE
  8
0
 10
520.227441
 20
-1615.976505
 30
0.0
 11
814.227441
 21
-1615.976505
 31
0.0
  0
ARC
  8
0
 10
796.727441
 20
-1558.976505
 30
0.0
 40
1.0
 50
0.0
 51
180.0
  0
ARC
  8
0
 10
796.727441
 20
-1564.476505
 30
0.0
 40
1.0
 50
225.0
 51
0.0
  0
ARC
  8
0
 10
537.727441
 20
-1558.976505
 30
0.0
 40
1.0
 50
0.0
 51
180.0
  0
ARC
  8
0
 10
537.727441
 20
-1564.476505
 30
0.0
 40
1.0
 50
180.0
 51
315.0
  0
ARC
  8
0
 10
814.227441
 20
-1612.976505
 30
0.0
 40
3.0
 50
270.0
 51
0.0
  0
ARC
  8
0
 10
811.727441
 20
-1610.476505
 30
0.0
 40
2.0
 50
270.0
 51
0.0
  0
ARC
  8
0
 10
810.641654
 20
-1562.976505
 30
0.0
 40
1.0
 50
90.0
 51
225.0
  0
ARC
  8
0
 10
813.727441
 20
-1560.976505
 30
0.0
 40
1.0
 50
270.0
 51
0.0
  0
ARC
  8
0
 10
760.727441
 20
-1556.976505
 30
0.0
 40
1.0
 50
90.0
 51
180.0
  0
ARC
  8
0
 10
760.727441
 20
-1560.976505
 30
0.0
 40
1.0
 50
180.0
 51
270.0
  0
ARC
  8
0
 10
793.434548
 20
-1560.476505
 30
0.0
 40
0.5
 50
45.0
 51
90.0
  0
ARC
  8
0
 10
811.813227
 20
-1556.976505
 30
0.0
 40
1.0
 50
45.0
 51
90.0
  0
ARC
  8
0
 10
813.727441
 20
-1558.890718
 30
0.0
 40
1.0
 50
0.0
 51
45.0
  0
ARC
  8
0
 10
803.454351
 20
-1563.976505
 30
0.0
 40
2.0
 50
45.0
 51
90.0
  0
ARC
  8
0
 10
798.227441
 20
-1562.476505
 30
0.0
 40
0.5
 50
90.0
 51
180.0
  0
ARC
  8
0
 10
791.570587
 20
-1564.976505
 30
0.0
 40
3.0
 50
45.0
 51
90.0
  0
ARC
  8
0
 10
811.731005
 20
-1572.254432
 30
0.0
 40
2.0
 50
0.0
 51
45.0
  0
ARC
  8
0
 10
814.227441
 20
-1572.219145
 30
0.0
 40
3.0
 50
0.0
 51
45.0
  0
ARC
  8
0
 10
523.813227
 20
-1562.976505
 30
0.0
 40
1.0
 50
315.0
 51
90.0
  0
ARC
  8
0
 10
520.727441
 20
-1560.976505
 30
0.0
 40
1.0
 50
180.0
 51
270.0
  0
ARC
  8
0
 10
573.727441
 20
-1556.976505
 30
0.0
 40
1.0
 50
0.0
 51
90.0
  0
ARC
  8
0
 10
573.727441
 20
-1560.976505
 30
0.0
 40
1.0
 50
270.0
 51
0.0
  0
ARC
  8
0
 10
541.020334
 20
-1560.476505
 30
0.0
 40
0.5
 50
90.0
 51
135.0
  0
ARC
  8
0
 10
522.641654
 20
-1556.976505
 30
0.0
 40
1.0
 50
90.0
 51
135.0
  0
ARC
  8
0
 10
520.727441
 20
-1558.890718
 30
0.0
 40
1.0
 50
135.0
 51
180.0
  0
ARC
  8
0
 10
531.00053
 20
-1563.976505
 30
0.0
 40
2.0
 50
90.0
 51
135.0
  0
ARC
  8
0
 10
536.227441
 20
-1562.476505
 30
0.0
 40
0.5
 50
0.0
 51
90.0
  0
ARC
  8
0
 10
542.884295
 20
-1564.976505
 30
0.0
 40
3.0
 50
90.0
 51
135.0
  0
ARC
  8
0
 10
522.723877
 20
-1572.254432
 30
0.0
 40
2.0
 50
135.0
 51
180.0
  0
ARC
  8
0
 10
520.227441
 20
-1612.976505
 30
0.0
 40
3.0
 50
180.0
 51
270.0
  0
ARC
  8
0
 10
522.727441
 20
-1610.476505
 30
0.0
 40
2.0
 50
180.0
 51
270.0
  0
ARC
  8
0
 10
520.227441
 20
-1572.219145
 30
0.0
 40
3.0
 50
135.0
 51
180.0
  0
LINE
  8
0
 10
428.732101
 20
-1310.750581
 30
0.0
 11
430.933019
 21
-1308.549662
 31
0.0
  0
LINE
  8
0
 10
428.732101
 20
-1324.892716
 30
0.0
 11
445.075155
 21
-1308.549662
 31
0.0
  0
LINE
  8
0
 10
434.217291
 20
-1333.549662
 30
0.0
 11
459.217291
 21
-1308.549662
 31
0.0
  0
LINE
  8
0
 10
448.359426
 20
-1333.549662
 30
0.0
 11
473.359426
 21
-1308.549662
 31
0.0
  0
LINE
  8
0
 10
462.501562
 20
-1333.549662
 30
0.0
 11
487.501562
 21
-1308.549662
 31
0.0
  0
LINE
  8
0
 10
476.643697
 20
-1333.549662
 30
0.0
 11
501.643697
 21
-1308.549662
 31
0.0
  0
LINE
  8
0
 10
490.785833
 20
-1333.549662
 30
0.0
 11
515.785833
 21
-1308.549662
 31
0.0
  0
LINE
  8
0
 10
504.927969
 20
-1333.549662
 30
0.0
 11
529.927969
 21
-1308.549662
 31
0.0
  0
LINE
  8
0
 10
519.070104
 20
-1333.549662
 30
0.0
 11
544.070104
 21
-1308.549662
 31
0.0
  0
LINE
  8
0
 10
533.21224
 20
-1333.549662
 30
0.0
 11
558.21224
 21
-1308.549662
 31
0.0
  0
LINE
  8
0
 10
547.354376
 20
-1333.549662
 30
0.0
 11
572.354376
 21
-1308.549662
 31
0.0
  0
LINE
  8
0
 10
561.496511
 20
-1333.549662
 30
0.0
 11
586.496511
 21
-1308.549662
 31
0.0
  0
LINE
  8
0
 10
575.638647
 20
-1333.549662
 30
0.0
 11
600.638647
 21
-1308.549662
 31
0.0
  0
LINE
  8
0
 10
589.780782
 20
-1333.549662
 30
0.0
 11
614.780782
 21
-1308.549662
 31
0.0
  0
LINE
  8
0
 10
603.922918
 20
-1333.549662
 30
0.0
 11
628.922918
 21
-1308.549662
 31
0.0
  0
LINE
  8
0
 10
618.065054
 20
-1333.549662
 30
0.0
 11
643.065054
 21
-1308.549662
 31
0.0
  0
LINE
  8
0
 10
632.207189
 20
-1333.549662
 30
0.0
 11
657.207189
 21
-1308.549662
 31
0.0
  0
LINE
  8
0
 10
646.349325
 20
-1333.549662
 30
0.0
 11
671.349325
 21
-1308.549662
 31
0.0
  0
LINE
  8
0
 10
660.491461
 20
-1333.549662
 30
0.0
 11
685.491461
 21
-1308.549662
 31
0.0
  0
LINE
  8
0
 10
674.633596
 20
-1333.549662
 30
0.0
 11
699.633596
 21
-1308.549662
 31
0.0
  0
LINE
  8
0
 10
688.775732
 20
-1333.549662
 30
0.0
 11
708.732101
 21
-1313.593293
 31
0.0
  0
LINE
  8
0
 10
702.917867
 20
-1333.549662
 30
0.0
 11
708.732101
 21
-1327.735429
 31
0.0
  0
LINE
  8
0
 10
615.925537
 20
-1608.476505
 30
0.0
 11
640.925537
 21
-1608.476505
 31
0.0
  0
LINE
  8
0
 10
611.925537
 20
-1573.961786
 30
0.0
 11
611.925537
 21
-1604.476505
 31
0.0
  0
LINE
  8
0
 10
619.082391
 20
-1565.976505
 30
0.0
 11
612.511323
 21
-1572.547573
 31
0.0
  0
LINE
  8
0
 10
619.925537
 20
-1565.976505
 30
0.0
 11
619.082391
 21
-1565.976505
 31
0.0
  0
LINE
  8
0
 10
623.925537
 20
-1562.976505
 30
0.0
 11
623.925537
 21
-1565.976505
 31
0.0
  0
LINE
  8
0
 10
618.253964
 20
-1561.976505
 30
0.0
 11
622.925537
 21
-1561.976505
 31
0.0
  0
LINE
  8
0
 10
609.682896
 20
-1569.719145
 30
0.0
 11
616.839751
 21
-1562.562291
 31
0.0
  0
LINE
  8
0
 10
607.925537
 20
-1604.476505
 30
0.0
 11
607.925537
 21
-1573.961786
 31
0.0
  0
LINE
  8
0
 10
640.925537
 20
-1612.476505
 30
0.0
 11
615.925537
 21
-1612.476505
 31
0.0
  0
ARC
  8
0
 10
613.925537
 20
-1573.961786
 30
0.0
 40
2.0
 50
135.0
 51
180.0
  0
ARC
  8
0
 10
615.925537
 20
-1604.476505
 30
0.0
 40
4.0
 50
180.0
 51
270.0
  0
ARC
  8
0
 10
615.925537
 20
-1604.476505
 30
0.0
 40
8.0
 50
180.0
 51
270.0
  0
ARC
  8
0
 10
613.925537
 20
-1573.961786
 30
0.0
 40
6.0
 50
135.0
 51
180.0
  0
ARC
  8
0
 10
622.925537
 20
-1562.976505
 30
0.0
 40
1.0
 50
0.0
 51
90.0
  0
ARC
  8
0
 10
618.253964
 20
-1563.976505
 30
0.0
 40
2.0
 50
90.0
 51
135.0
  0
ARC
  8
0
 10
621.925537
 20
-1565.976505
 30
0.0
 40
2.0
 50
180.0
 51
0.0
  0
ARC
  8
0
 10
640.925537
 20
-1610.476505
 30
0.0
 40
2.0
 50
0.0
 51
90.0
  0
ARC
  8
0
 10
640.925537
 20
-1610.476505
 30
0.0
 40
2.0
 50
270.0
 51
0.0
  0
LINE
  8
0
 10
515.732101
 20
-1628.976505
 30
0.0
 11
817.451709
 21
-1628.976505
 31
0.0
  0
LINE
  8
0
 10
820.727441
 20
-1637.976505
 30
0.0
 11
820.727441
 21
-1615.976505
 31
0.0
  0
LINE
  8
0
 10
490.732101
 20
-1501.976505
 30
0.0
 11
468.732101
 21
-1501.976505
 31
0.0
  0
LINE
  8
0
 10
490.732101
 20
-1590.976505
 30
0.0
 11
490.732101
 21
-1501.976505
 31
0.0
  0
LINE
  8
0
 10
515.732101
 20
-1615.976505
 30
0.0
 11
820.727441
 21
-1615.976505
 31
0.0
  0
LINE
  8
0
 10
820.727441
 20
-1637.976505
 30
0.0
 11
515.732101
 21
-1637.976505
 31
0.0
  0
LINE
  8
0
 10
468.732101
 20
-1590.976505
 30
0.0
 11
468.732101
 21
-1501.976505
 31
0.0
  0
LINE
  8
0
 10
468.732101
 20
-1501.976505
 30
0.0
 11
477.732101
 21
-1505.252237
 31
0.0
  0
LINE
  8
0
 10
477.732101
 20
-1505.252237
 30
0.0
 11
477.732101
 21
-1590.976505
 31
0.0
  0
LINE
  8
0
 10
817.451709
 20
-1628.976505
 30
0.0
 11
820.727441
 21
-1637.976505
 31
0.0
  0
ARC
  8
0
 10
515.732101
 20
-1590.976505
 30
0.0
 40
25.0
 50
180.0
 51
270.0
  0
ARC
  8
0
 10
515.732101
 20
-1590.976505
 30
0.0
 40
38.0
 50
180.0
 51
270.0
  0
ARC
  8
0
 10
515.732101
 20
-1590.976505
 30
0.0
 40
47.0
 50
180.0
 51
270.0
  0
LINE
  8
0
 10
468.732101
 20
-1582.217654
 30
0.0
 11
459.732101
 21
-1585.493386
 31
0.0
  0
LINE
  8
0
 10
592.456369
 20
-1342.498047
 30
0.0
 11
506.732101
 21
-1342.498047
 31
0.0
  0
LINE
  8
0
 10
595.732101
 20
-1333.498047
 30
0.0
 11
592.456369
 21
-1342.498047
 31
0.0
  0
LINE
  8
0
 10
506.732101
 20
-1333.498047
 30
0.0
 11
595.732101
 21
-1333.498047
 31
0.0
  0
LINE
  8
0
 10
459.732101
 20
-1585.493386
 30
0.0
 11
459.732101
 21
-1380.498047
 31
0.0
  0
LINE
  8
0
 10
481.732101
 20
-1380.498047
 30
0.0
 11
481.732101
 21
-1501.976505
 31
0.0
  0
LINE
  8
0
 10
506.732101
 20
-1355.498047
 30
0.0
 11
595.732101
 21
-1355.498047
 31
0.0
  0
LINE
  8
0
 10
595.732101
 20
-1355.498047
 30
0.0
 11
595.732101
 21
-1333.498047
 31
0.0
  0
LINE
  8
0
 10
459.732101
 20
-1585.493386
 30
0.0
 11
468.732101
 21
-1585.493386
 31
0.0
  0
LINE
  8
0
 10
468.732101
 20
-1380.498047
 30
0.0
 11
468.732101
 21
-1582.217654
 31
0.0
  0
ARC
  8
0
 10
506.732101
 20
-1380.498047
 30
0.0
 40
47.0
 50
90.0
 51
180.0
  0
ARC
  8
0
 10
506.732101
 20
-1380.498047
 30
0.0
 40
38.0
 50
90.0
 51
180.0
  0
ARC
  8
0
 10
506.732101
 20
-1380.498047
 30
0.0
 40
25.0
 50
90.0
 51
180.0
  0
LINE
  8
0
 10
728.12578
 20
-1612.476505
 30
0.0
 11
703.12578
 21
-1612.476505
 31
0.0
  0
LINE
  8
0
 10
695.12578
 20
-1604.476505
 30
0.0
 11
695.12578
 21
-1573.961786
 31
0.0
  0
LINE
  8
0
 10
696.883139
 20
-1569.719145
 30
0.0
 11
704.039993
 21
-1562.562291
 31
0.0
  0
LINE
  8
0
 10
705.454207
 20
-1561.976505
 30
0.0
 11
710.12578
 21
-1561.976505
 31
0.0
  0
LINE
  8
0
 10
711.12578
 20
-1562.976505
 30
0.0
 11
711.12578
 21
-1565.976505
 31
0.0
  0
LINE
  8
0
 10
707.12578
 20
-1565.976505
 30
0.0
 11
706.282634
 21
-1565.976505
 31
0.0
  0
LINE
  8
0
 10
706.282634
 20
-1565.976505
 30
0.0
 11
699.711566
 21
-1572.547573
 31
0.0
  0
LINE
  8
0
 10
699.12578
 20
-1573.961786
 30
0.0
 11
699.12578
 21
-1604.476505
 31
0.0
  0
LINE
  8
0
 10
703.12578
 20
-1608.476505
 30
0.0
 11
728.12578
 21
-1608.476505
 31
0.0
  0
ARC
  8
0
 10
728.12578
 20
-1610.476505
 30
0.0
 40
2.0
 50
270.0
 51
0.0
  0
ARC
  8
0
 10
728.12578
 20
-1610.476505
 30
0.0
 40
2.0
 50
0.0
 51
90.0
  0
ARC
  8
0
 10
709.12578
 20
-1565.976505
 30
0.0
 40
2.0
 50
180.0
 51
0.0
  0
ARC
  8
0
 10
705.454207
 20
-1563.976505
 30
0.0
 40
2.0
 50
90.0
 51
135.0
  0
ARC
  8
0
 10
710.12578
 20
-1562.976505
 30
0.0
 40
1.0
 50
0.0
 51
90.0
  0
ARC
  8
0
 10
701.12578
 20
-1573.961786
 30
0.0
 40
6.0
 50
135.0
 51
180.0
  0
ARC
  8
0
 10
703.12578
 20
-1604.476505
 30
0.0
 40
8.0
 50
180.0
 51
270.0
  0
ARC
  8
0
 10
703.12578
 20
-1604.476505
 30
0.0
 40
4.0
 50
180.0
 51
270.0
  0
ARC
  8
0
 10
701.12578
 20
-1573.961786
 30
0.0
 40
2.0
 50
135.0
 51
180.0
  0
ENDSEC
  0
EOF
