  0
SECTION
  2
HEADER
  9
$ACADVER
  1
AC1009
  9
$INSBASE
 10
0.0
 20
0.0
 30
0.0
  9
$EXTMIN
 10
-222.30768
 20
-1647.710524
 30
0.0
  9
$EXTMAX
 10
175.68766
 20
-1308.549662
 30
0.0
  9
$LIMMIN
 10
-222.30768
 20
-1637.976505
  9
$LIMMAX
 10
175.68766
 20
-1308.549662
  9
$ORTHOMODE
 70
     0
  9
$REGENMODE
 70
     1
  9
$FILLMODE
 70
     1
  9
$QTEXTMODE
 70
     0
  9
$MIRRTEXT
 70
     1
  9
$DRAGMODE
 70
     2
  9
$LTSCALE
 40
1.0
  9
$OSMODE
 70
     0
  9
$ATTMODE
 70
     1
  9
$TEXTSIZE
 40
3.5
  9
$TRACEWID
 40
0.5
  9
$TEXTSTYLE
  7
STANDARD
  9
$CLAYER
  8
0
  9
$CELTYPE
  6
BYLAYER
  9
$CECOLOR
 62
   256
  9
$DIMSCALE
 40
1.0
  9
$DIMASZ
 40
0.18
  9
$DIMEXO
 40
0.0625
  9
$DIMDLI
 40
0.38
  9
$DIMRND
 40
0.0
  9
$DIMDLE
 40
0.0
  9
$DIMEXE
 40
0.18
  9
$DIMTP
 40
0.0
  9
$DIMTM
 40
0.0
  9
$DIMTXT
 40
0.18
  9
$DIMCEN
 40
0.09
  9
$DIMTSZ
 40
0.0
  9
$DIMTOL
 70
     0
  9
$DIMLIM
 70
     0
  9
$DIMTIH
 70
     1
  9
$DIMTOH
 70
     1
  9
$DIMSE1
 70
     0
  9
$DIMSE2
 70
     0
  9
$DIMTAD
 70
     0
  9
$DIMZIN
 70
     0
  9
$DIMBLK
  1

  9
$DIMASO
 70
     1
  9
$DIMSHO
 70
     1
  9
$DIMPOST
  1

  9
$DIMAPOST
  1

  9
$DIMALT
 70
     0
  9
$DIMALTD
 70
     2
  9
$DIMALTF
 40
25.4
  9
$DIMLFAC
 40
1.0
  9
$DIMTOFL
 70
     0
  9
$DIMTVP
 40
0.0
  9
$DIMTIX
 70
     0
  9
$DIMSOXD
 70
     0
  9
$DIMSAH
 70
     0
  9
$DIMBLK1
  1

  9
$DIMBLK2
  1

  9
$DIMSTYLE
  2
*UNNAMED
  9
$DIMCLRD
 70
     0
  9
$DIMCLRE
 70
     0
  9
$DIMCLRT
 70
     0
  9
$DIMTFAC
 40
1.0
  9
$DIMGAP
 40
0.09
  9
$LUNITS
 70
     2
  9
$LUPREC
 70
     4
  9
$SKETCHINC
 40
0.1
  9
$FILLETRAD
 40
2.0
  9
$AUNITS
 70
     0
  9
$AUPREC
 70
     0
  9
$MENU
  1
ACAD
  9
$ELEVATION
 40
0.0
  9
$PELEVATION
 40
0.0
  9
$THICKNESS
 40
0.0
  9
$LIMCHECK
 70
     0
  9
$BLIPMODE
 70
     1
  9
$CHAMFERA
 40
0.0
  9
$CHAMFERB
 40
0.0
  9
$SKPOLY
 70
     0
  9
$TDCREATE
 40
2450948.443756597
  9
$TDUPDATE
 40
2450948.444284259
  9
$TDINDWG
 40
0.0003222222
  9
$TDUSRTIMER
 40
0.0003222222
  9
$USRTIMER
 70
     1
  9
$ANGBASE
 50
0.0
  9
$ANGDIR
 70
     0
  9
$PDMODE
 70
     0
  9
$PDSIZE
 40
0.0
  9
$PLINEWID
 40
0.0
  9
$COORDS
 70
     2
  9
$SPLFRAME
 70
     0
  9
$SPLINETYPE
 70
     6
  9
$SPLINESEGS
 70
     8
  9
$ATTDIA
 70
     0
  9
$ATTREQ
 70
     1
  9
$HANDLING
 70
     0
  9
$HANDSEED
  5
0
  9
$SURFTAB1
 70
     6
  9
$SURFTAB2
 70
     6
  9
$SURFTYPE
 70
     6
  9
$SURFU
 70
     6
  9
$SURFV
 70
     6
  9
$UCSNAME
  2

  9
$UCSORG
 10
0.0
 20
0.0
 30
0.0
  9
$UCSXDIR
 10
1.0
 20
0.0
 30
0.0
  9
$UCSYDIR
 10
0.0
 20
1.0
 30
0.0
  9
$PUCSNAME
  2

  9
$PUCSORG
 10
0.0
 20
0.0
 30
0.0
  9
$PUCSXDIR
 10
1.0
 20
0.0
 30
0.0
  9
$PUCSYDIR
 10
0.0
 20
1.0
 30
0.0
  9
$USERI1
 70
     0
  9
$USERI2
 70
     0
  9
$USERI3
 70
     0
  9
$USERI4
 70
     0
  9
$USERI5
 70
     0
  9
$USERR1
 40
0.0
  9
$USERR2
 40
0.0
  9
$USERR3
 40
0.0
  9
$USERR4
 40
0.0
  9
$USERR5
 40
0.0
  9
$WORLDVIEW
 70
     1
  9
$SHADEDGE
 70
     3
  9
$SHADEDIF
 70
    70
  9
$TILEMODE
 70
     1
  9
$MAXACTVP
 70
    16
  9
$PINSBASE
 10
0.0
 20
0.0
 30
0.0
  9
$PLIMCHECK
 70
     0
  9
$PEXTMIN
 10
1.000000E+20
 20
1.000000E+20
 30
1.000000E+20
  9
$PEXTMAX
 10
-1.000000E+20
 20
-1.000000E+20
 30
-1.000000E+20
  9
$PLIMMIN
 10
0.0
 20
0.0
  9
$PLIMMAX
 10
420.0
 20
297.0
  9
$UNITMODE
 70
     0
  9
$VISRETAIN
 70
     0
  9
$PLINEGEN
 70
     0
  9
$PSLTSCALE
 70
     1
  9
$TREEDEPTH
 70
  3020
  9
$DWGCODEPAGE
  3
iso8859-1
  0
ENDSEC
  0
SECTION
  2
TABLES
  0
TABLE
  2
VPORT
 70
     2
  0
VPORT
  2
*ACTIVE
 70
     0
 10
0.0
 20
0.0
 11
1.0
 21
1.0
 12
50.345815
 22
-1495.015938
 13
0.0
 23
0.0
 14
1.0
 24
1.0
 15
0.0
 25
0.0
 16
0.0
 26
0.0
 36
1.0
 17
0.0
 27
0.0
 37
0.0
 40
497.043259
 41
1.748359
 42
50.0
 43
0.0
 44
0.0
 50
0.0
 51
0.0
 71
     0
 72
   100
 73
     1
 74
     0
 75
     0
 76
     0
 77
     0
 78
     0
  0
ENDTAB
  0
TABLE
  2
LTYPE
 70
     1
  0
LTYPE
  2
CONTINUOUS
 70
    64
  3
Solid line
 72
    65
 73
     0
 40
0.0
  0
ENDTAB
  0
TABLE
  2
LAYER
 70
     1
  0
LAYER
  2
0
 70
    64
 62
     7
  6
CONTINUOUS
  0
ENDTAB
  0
TABLE
  2
STYLE
 70
     1
  0
STYLE
  2
STANDARD
 70
     0
 40
0.0
 41
1.0
 50
0.0
 71
     0
 42
3.5
  3
txt
  4

  0
ENDTAB
  0
TABLE
  2
VIEW
 70
     0
  0
ENDTAB
  0
TABLE
  2
UCS
 70
     0
  0
ENDTAB
  0
TABLE
  2
APPID
 70
     1
  0
APPID
  2
ACAD
 70
    64
  0
ENDTAB
  0
TABLE
  2
DIMSTYLE
 70
     0
  0
ENDTAB
  0
ENDSEC
  0
SECTION
  2
BLOCKS
  0
ENDSEC
  0
SECTION
  2
ENTITIES
  0
LINE
  8
0
 10
-138.30768
 20
-1333.498047
 30
0.0
 11
-222.30768
 21
-1333.498047
 31
0.0
  0
LINE
  8
0
 10
-49.30768
 20
-1333.498047
 30
0.0
 11
58.69232
 21
-1333.498047
 31
0.0
  0
LINE
  8
0
 10
168.68766
 20
-1610.476505
 30
0.0
 11
168.691224
 21
-1572.254432
 31
0.0
  0
LINE
  8
0
 10
172.18766
 20
-1572.219145
 30
0.0
 11
172.18766
 21
-1612.976505
 31
0.0
  0
LINE
  8
0
 10
164.894767
 20
-1563.683612
 30
0.0
 11
171.30898
 21
-1570.097825
 31
0.0
  0
LINE
  8
0
 10
159.828784
 20
-1562.562291
 30
0.0
 11
168.105437
 21
-1570.840218
 31
0.0
  0
LINE
  8
0
 10
169.68766
 20
-1560.976505
 30
0.0
 11
169.68766
 21
-1558.890718
 31
0.0
  0
LINE
  8
0
 10
165.601874
 20
-1561.976505
 30
0.0
 11
168.68766
 21
-1561.976505
 31
0.0
  0
LINE
  8
0
 10
169.394767
 20
-1558.183612
 30
0.0
 11
167.480553
 21
-1556.269398
 31
0.0
  0
LINE
  8
0
 10
153.18766
 20
-1561.976505
 30
0.0
 11
158.41457
 21
-1561.976505
 31
0.0
  0
LINE
  8
0
 10
114.68766
 20
-1560.976505
 30
0.0
 11
114.68766
 21
-1556.976505
 31
0.0
  0
LINE
  8
0
 10
152.68766
 20
-1564.476505
 30
0.0
 11
152.68766
 21
-1562.476505
 31
0.0
  0
LINE
  8
0
 10
148.652126
 20
-1562.855184
 30
0.0
 11
150.980553
 21
-1565.183612
 31
0.0
  0
LINE
  8
0
 10
115.68766
 20
-1561.976505
 30
0.0
 11
146.530806
 21
-1561.976505
 31
0.0
  0
LINE
  8
0
 10
166.773446
 20
-1555.976505
 30
0.0
 11
115.68766
 21
-1555.976505
 31
0.0
  0
LINE
  8
0
 10
167.68766
 20
-1559.304932
 30
0.0
 11
166.359233
 21
-1557.976505
 31
0.0
  0
LINE
  8
0
 10
167.68766
 20
-1559.976505
 30
0.0
 11
167.68766
 21
-1559.304932
 31
0.0
  0
LINE
  8
0
 10
152.68766
 20
-1559.976505
 30
0.0
 11
167.68766
 21
-1559.976505
 31
0.0
  0
LINE
  8
0
 10
116.68766
 20
-1557.976505
 30
0.0
 11
166.359233
 21
-1557.976505
 31
0.0
  0
LINE
  8
0
 10
116.68766
 20
-1557.976505
 30
0.0
 11
116.68766
 21
-1559.976505
 31
0.0
  0
LINE
  8
0
 10
152.68766
 20
-1558.976505
 30
0.0
 11
152.68766
 21
-1559.976505
 31
0.0
  0
LINE
  8
0
 10
116.68766
 20
-1559.976505
 30
0.0
 11
148.394767
 21
-1559.976505
 31
0.0
  0
LINE
  8
0
 10
148.74832
 20
-1560.122951
 30
0.0
 11
150.68766
 21
-1562.062291
 31
0.0
  0
LINE
  8
0
 10
150.68766
 20
-1558.976505
 30
0.0
 11
150.68766
 21
-1562.062291
 31
0.0
  0
LINE
  8
0
 10
-127.81234
 20
-1612.976505
 30
0.0
 11
-127.81234
 21
-1572.219145
 31
0.0
  0
LINE
  8
0
 10
-126.93366
 20
-1570.097825
 30
0.0
 11
-120.519447
 21
-1563.683612
 31
0.0
  0
LINE
  8
0
 10
-123.730117
 20
-1570.840218
 30
0.0
 11
-115.453464
 21
-1562.562291
 31
0.0
  0
LINE
  8
0
 10
-124.315904
 20
-1572.254432
 30
0.0
 11
-124.31234
 21
-1610.476505
 31
0.0
  0
LINE
  8
0
 10
-125.31234
 20
-1558.890718
 30
0.0
 11
-125.31234
 21
-1560.976505
 31
0.0
  0
LINE
  8
0
 10
-124.31234
 20
-1561.976505
 30
0.0
 11
-121.226554
 21
-1561.976505
 31
0.0
  0
LINE
  8
0
 10
-123.105233
 20
-1556.269398
 30
0.0
 11
-125.019447
 21
-1558.183612
 31
0.0
  0
LINE
  8
0
 10
-114.03925
 20
-1561.976505
 30
0.0
 11
-108.81234
 21
-1561.976505
 31
0.0
  0
LINE
  8
0
 10
-70.31234
 20
-1556.976505
 30
0.0
 11
-70.31234
 21
-1560.976505
 31
0.0
  0
LINE
  8
0
 10
-108.31234
 20
-1562.476505
 30
0.0
 11
-108.31234
 21
-1564.476505
 31
0.0
  0
LINE
  8
0
 10
-106.605233
 20
-1565.183612
 30
0.0
 11
-104.276806
 21
-1562.855184
 31
0.0
  0
LINE
  8
0
 10
-102.155486
 20
-1561.976505
 30
0.0
 11
-71.31234
 21
-1561.976505
 31
0.0
  0
LINE
  8
0
 10
-71.31234
 20
-1555.976505
 30
0.0
 11
-122.398126
 21
-1555.976505
 31
0.0
  0
LINE
  8
0
 10
-121.983913
 20
-1557.976505
 30
0.0
 11
-123.31234
 21
-1559.304932
 31
0.0
  0
LINE
  8
0
 10
-123.31234
 20
-1559.304932
 30
0.0
 11
-123.31234
 21
-1559.976505
 31
0.0
  0
LINE
  8
0
 10
-123.31234
 20
-1559.976505
 30
0.0
 11
-108.31234
 21
-1559.976505
 31
0.0
  0
LINE
  8
0
 10
-121.983913
 20
-1557.976505
 30
0.0
 11
-72.31234
 21
-1557.976505
 31
0.0
  0
LINE
  8
0
 10
-72.31234
 20
-1559.976505
 30
0.0
 11
-72.31234
 21
-1557.976505
 31
0.0
  0
LINE
  8
0
 10
-108.31234
 20
-1559.976505
 30
0.0
 11
-108.31234
 21
-1558.976505
 31
0.0
  0
LINE
  8
0
 10
-104.019447
 20
-1559.976505
 30
0.0
 11
-72.31234
 21
-1559.976505
 31
0.0
  0
LINE
  8
0
 10
-106.31234
 20
-1562.062291
 30
0.0
 11
-104.373
 21
-1560.122951
 31
0.0
  0
LINE
  8
0
 10
-106.31234
 20
-1562.062291
 30
0.0
 11
-106.31234
 21
-1558.976505
 31
0.0
  0
LINE
  8
0
 10
-122.31234
 20
-1612.476505
 30
0.0
 11
166.68766
 21
-1612.476505
 31
0.0
  0
LINE
  8
0
 10
-124.81234
 20
-1615.976505
 30
0.0
 11
169.18766
 21
-1615.976505
 31
0.0
  0
ARC
  8
0
 10
151.68766
 20
-1558.976505
 30
0.0
 40
1.0
 50
0.0
 51
180.0
  0
ARC
  8
0
 10
151.68766
 20
-1564.476505
 30
0.0
 40
1.0
 50
225.0
 51
0.0
  0
ARC
  8
0
 10
-107.31234
 20
-1558.976505
 30
0.0
 40
1.0
 50
0.0
 51
180.0
  0
ARC
  8
0
 10
-107.31234
 20
-1564.476505
 30
0.0
 40
1.0
 50
180.0
 51
315.0
  0
ARC
  8
0
 10
169.18766
 20
-1612.976505
 30
0.0
 40
3.0
 50
270.0
 51
0.0
  0
ARC
  8
0
 10
166.68766
 20
-1610.476505
 30
0.0
 40
2.0
 50
270.0
 51
0.0
  0
ARC
  8
0
 10
165.601874
 20
-1562.976505
 30
0.0
 40
1.0
 50
90.0
 51
225.0
  0
ARC
  8
0
 10
168.68766
 20
-1560.976505
 30
0.0
 40
1.0
 50
270.0
 51
0.0
  0
ARC
  8
0
 10
115.68766
 20
-1556.976505
 30
0.0
 40
1.0
 50
90.0
 51
180.0
  0
ARC
  8
0
 10
115.68766
 20
-1560.976505
 30
0.0
 40
1.0
 50
180.0
 51
270.0
  0
ARC
  8
0
 10
148.394767
 20
-1560.476505
 30
0.0
 40
0.5
 50
45.0
 51
90.0
  0
ARC
  8
0
 10
166.773446
 20
-1556.976505
 30
0.0
 40
1.0
 50
45.0
 51
90.0
  0
ARC
  8
0
 10
168.68766
 20
-1558.890718
 30
0.0
 40
1.0
 50
0.0
 51
45.0
  0
ARC
  8
0
 10
158.41457
 20
-1563.976505
 30
0.0
 40
2.0
 50
45.0
 51
90.0
  0
ARC
  8
0
 10
153.18766
 20
-1562.476505
 30
0.0
 40
0.5
 50
90.0
 51
180.0
  0
ARC
  8
0
 10
146.530806
 20
-1564.976505
 30
0.0
 40
3.0
 50
45.0
 51
90.0
  0
ARC
  8
0
 10
166.691224
 20
-1572.254432
 30
0.0
 40
2.0
 50
0.0
 51
45.0
  0
ARC
  8
0
 10
169.18766
 20
-1572.219145
 30
0.0
 40
3.0
 50
0.0
 51
45.0
  0
ARC
  8
0
 10
-121.226554
 20
-1562.976505
 30
0.0
 40
1.0
 50
315.0
 51
90.0
  0
ARC
  8
0
 10
-124.31234
 20
-1560.976505
 30
0.0
 40
1.0
 50
180.0
 51
270.0
  0
ARC
  8
0
 10
-71.31234
 20
-1556.976505
 30
0.0
 40
1.0
 50
0.0
 51
90.0
  0
ARC
  8
0
 10
-71.31234
 20
-1560.976505
 30
0.0
 40
1.0
 50
270.0
 51
0.0
  0
ARC
  8
0
 10
-104.019447
 20
-1560.476505
 30
0.0
 40
0.5
 50
90.0
 51
135.0
  0
ARC
  8
0
 10
-122.398126
 20
-1556.976505
 30
0.0
 40
1.0
 50
90.0
 51
135.0
  0
ARC
  8
0
 10
-124.31234
 20
-1558.890718
 30
0.0
 40
1.0
 50
135.0
 51
180.0
  0
ARC
  8
0
 10
-114.03925
 20
-1563.976505
 30
0.0
 40
2.0
 50
90.0
 51
135.0
  0
ARC
  8
0
 10
-108.81234
 20
-1562.476505
 30
0.0
 40
0.5
 50
0.0
 51
90.0
  0
ARC
  8
0
 10
-102.155486
 20
-1564.976505
 30
0.0
 40
3.0
 50
90.0
 51
135.0
  0
ARC
  8
0
 10
-122.315904
 20
-1572.254432
 30
0.0
 40
2.0
 50
135.0
 51
180.0
  0
ARC
  8
0
 10
-124.81234
 20
-1612.976505
 30
0.0
 40
3.0
 50
180.0
 51
270.0
  0
ARC
  8
0
 10
-122.31234
 20
-1610.476505
 30
0.0
 40
2.0
 50
180.0
 51
270.0
  0
ARC
  8
0
 10
-124.81234
 20
-1572.219145
 30
0.0
 40
3.0
 50
135.0
 51
180.0
  0
LINE
  8
0
 10
172.411928
 20
-1628.976505
 30
0.0
 11
175.68766
 21
-1637.976505
 31
0.0
  0
LINE
  8
0
 10
-167.30768
 20
-1505.252237
 30
0.0
 11
-167.30768
 21
-1590.976505
 31
0.0
  0
LINE
  8
0
 10
-176.30768
 20
-1501.976505
 30
0.0
 11
-167.30768
 21
-1505.252237
 31
0.0
  0
LINE
  8
0
 10
-176.30768
 20
-1590.976505
 30
0.0
 11
-176.30768
 21
-1501.976505
 31
0.0
  0
LINE
  8
0
 10
175.68766
 20
-1637.976505
 30
0.0
 11
-129.30768
 21
-1637.976505
 31
0.0
  0
LINE
  8
0
 10
-129.30768
 20
-1615.976505
 30
0.0
 11
175.68766
 21
-1615.976505
 31
0.0
  0
LINE
  8
0
 10
-154.30768
 20
-1590.976505
 30
0.0
 11
-154.30768
 21
-1501.976505
 31
0.0
  0
LINE
  8
0
 10
-154.30768
 20
-1501.976505
 30
0.0
 11
-176.30768
 21
-1501.976505
 31
0.0
  0
LINE
  8
0
 10
175.68766
 20
-1637.976505
 30
0.0
 11
175.68766
 21
-1615.976505
 31
0.0
  0
LINE
  8
0
 10
-129.30768
 20
-1628.976505
 30
0.0
 11
172.411928
 21
-1628.976505
 31
0.0
  0
ARC
  8
0
 10
-129.30768
 20
-1590.976505
 30
0.0
 40
47.0
 50
180.0
 51
270.0
  0
ARC
  8
0
 10
-129.30768
 20
-1590.976505
 30
0.0
 40
38.0
 50
180.0
 51
270.0
  0
ARC
  8
0
 10
-129.30768
 20
-1590.976505
 30
0.0
 40
25.0
 50
180.0
 51
270.0
  0
LINE
  8
0
 10
-216.30768
 20
-1319.394258
 30
0.0
 11
-205.463084
 21
-1308.549662
 31
0.0
  0
LINE
  8
0
 10
-216.30768
 20
-1333.536394
 30
0.0
 11
-191.320948
 21
-1308.549662
 31
0.0
  0
LINE
  8
0
 10
-202.178813
 20
-1333.549662
 30
0.0
 11
-177.178813
 21
-1308.549662
 31
0.0
  0
LINE
  8
0
 10
-188.036677
 20
-1333.549662
 30
0.0
 11
-163.036677
 21
-1308.549662
 31
0.0
  0
LINE
  8
0
 10
-173.894541
 20
-1333.549662
 30
0.0
 11
-148.894541
 21
-1308.549662
 31
0.0
  0
LINE
  8
0
 10
-159.752406
 20
-1333.549662
 30
0.0
 11
-134.752406
 21
-1308.549662
 31
0.0
  0
LINE
  8
0
 10
-145.61027
 20
-1333.549662
 30
0.0
 11
-120.61027
 21
-1308.549662
 31
0.0
  0
LINE
  8
0
 10
-131.468134
 20
-1333.549662
 30
0.0
 11
-106.468134
 21
-1308.549662
 31
0.0
  0
LINE
  8
0
 10
-117.325999
 20
-1333.549662
 30
0.0
 11
-92.325999
 21
-1308.549662
 31
0.0
  0
LINE
  8
0
 10
-103.183863
 20
-1333.549662
 30
0.0
 11
-78.183863
 21
-1308.549662
 31
0.0
  0
LINE
  8
0
 10
-89.041728
 20
-1333.549662
 30
0.0
 11
-64.041728
 21
-1308.549662
 31
0.0
  0
LINE
  8
0
 10
-74.899592
 20
-1333.549662
 30
0.0
 11
-49.899592
 21
-1308.549662
 31
0.0
  0
LINE
  8
0
 10
-60.757456
 20
-1333.549662
 30
0.0
 11
-35.757456
 21
-1308.549662
 31
0.0
  0
LINE
  8
0
 10
-46.615321
 20
-1333.549662
 30
0.0
 11
-21.615321
 21
-1308.549662
 31
0.0
  0
LINE
  8
0
 10
-32.473185
 20
-1333.549662
 30
0.0
 11
-7.473185
 21
-1308.549662
 31
0.0
  0
LINE
  8
0
 10
-18.331049
 20
-1333.549662
 30
0.0
 11
6.668951
 21
-1308.549662
 31
0.0
  0
LINE
  8
0
 10
-4.188914
 20
-1333.549662
 30
0.0
 11
20.811086
 21
-1308.549662
 31
0.0
  0
LINE
  8
0
 10
9.953222
 20
-1333.549662
 30
0.0
 11
34.953222
 21
-1308.549662
 31
0.0
  0
LINE
  8
0
 10
24.095357
 20
-1333.549662
 30
0.0
 11
49.095357
 21
-1308.549662
 31
0.0
  0
LINE
  8
0
 10
38.237493
 20
-1333.549662
 30
0.0
 11
63.237493
 21
-1308.549662
 31
0.0
  0
LINE
  8
0
 10
52.379629
 20
-1333.549662
 30
0.0
 11
63.69232
 21
-1322.236971
 31
0.0
  0
LINE
  8
0
 10
-176.30768
 20
-1380.498047
 30
0.0
 11
-176.30768
 21
-1582.217654
 31
0.0
  0
LINE
  8
0
 10
-185.30768
 20
-1585.493386
 30
0.0
 11
-176.30768
 21
-1585.493386
 31
0.0
  0
LINE
  8
0
 10
-49.30768
 20
-1355.498047
 30
0.0
 11
-49.30768
 21
-1333.498047
 31
0.0
  0
LINE
  8
0
 10
-138.30768
 20
-1355.498047
 30
0.0
 11
-49.30768
 21
-1355.498047
 31
0.0
  0
LINE
  8
0
 10
-163.30768
 20
-1380.498047
 30
0.0
 11
-163.30768
 21
-1501.976505
 31
0.0
  0
LINE
  8
0
 10
-185.30768
 20
-1585.493386
 30
0.0
 11
-185.30768
 21
-1380.498047
 31
0.0
  0
LINE
  8
0
 10
-138.30768
 20
-1333.498047
 30
0.0
 11
-49.30768
 21
-1333.498047
 31
0.0
  0
LINE
  8
0
 10
-49.30768
 20
-1333.498047
 30
0.0
 11
-52.583412
 21
-1342.498047
 31
0.0
  0
LINE
  8
0
 10
-52.583412
 20
-1342.498047
 30
0.0
 11
-138.30768
 21
-1342.498047
 31
0.0
  0
LINE
  8
0
 10
-176.30768
 20
-1582.217654
 30
0.0
 11
-185.30768
 21
-1585.493386
 31
0.0
  0
ARC
  8
0
 10
-138.30768
 20
-1380.498047
 30
0.0
 40
25.0
 50
90.0
 51
180.0
  0
ARC
  8
0
 10
-138.30768
 20
-1380.498047
 30
0.0
 40
38.0
 50
90.0
 51
180.0
  0
ARC
  8
0
 10
-138.30768
 20
-1380.498047
 30
0.0
 40
47.0
 50
90.0
 51
180.0
  0
LINE
  8
0
 10
37.615158
 20
-1612.476505
 30
0.0
 11
12.615158
 21
-1612.476505
 31
0.0
  0
LINE
  8
0
 10
4.615158
 20
-1604.476505
 30
0.0
 11
4.615158
 21
-1573.961786
 31
0.0
  0
LINE
  8
0
 10
6.372517
 20
-1569.719145
 30
0.0
 11
13.529371
 21
-1562.562291
 31
0.0
  0
LINE
  8
0
 10
14.943585
 20
-1561.976505
 30
0.0
 11
19.615158
 21
-1561.976505
 31
0.0
  0
LINE
  8
0
 10
20.615158
 20
-1562.976505
 30
0.0
 11
20.615158
 21
-1565.976505
 31
0.0
  0
LINE
  8
0
 10
16.615158
 20
-1565.976505
 30
0.0
 11
15.772012
 21
-1565.976505
 31
0.0
  0
LINE
  8
0
 10
15.772012
 20
-1565.976505
 30
0.0
 11
9.200944
 21
-1572.547573
 31
0.0
  0
LINE
  8
0
 10
8.615158
 20
-1573.961786
 30
0.0
 11
8.615158
 21
-1604.476505
 31
0.0
  0
LINE
  8
0
 10
12.615158
 20
-1608.476505
 30
0.0
 11
37.615158
 21
-1608.476505
 31
0.0
  0
ARC
  8
0
 10
37.615158
 20
-1610.476505
 30
0.0
 40
2.0
 50
270.0
 51
0.0
  0
ARC
  8
0
 10
37.615158
 20
-1610.476505
 30
0.0
 40
2.0
 50
0.0
 51
90.0
  0
ARC
  8
0
 10
18.615158
 20
-1565.976505
 30
0.0
 40
2.0
 50
180.0
 51
0.0
  0
ARC
  8
0
 10
14.943585
 20
-1563.976505
 30
0.0
 40
2.0
 50
90.0
 51
135.0
  0
ARC
  8
0
 10
19.615158
 20
-1562.976505
 30
0.0
 40
1.0
 50
0.0
 51
90.0
  0
ARC
  8
0
 10
10.615158
 20
-1573.961786
 30
0.0
 40
6.0
 50
135.0
 51
180.0
  0
ARC
  8
0
 10
12.615158
 20
-1604.476505
 30
0.0
 40
8.0
 50
180.0
 51
270.0
  0
ARC
  8
0
 10
12.615158
 20
-1604.476505
 30
0.0
 40
4.0
 50
180.0
 51
270.0
  0
ARC
  8
0
 10
10.615158
 20
-1573.961786
 30
0.0
 40
2.0
 50
135.0
 51
180.0
  0
ENDSEC
  0
EOF
