  0
SECTION
  2
HEADER
  9
$ACADVER
  1
AC1009
  9
$INSBASE
 10
0.0
 20
0.0
 30
0.0
  9
$EXTMIN
 10
-222.900528
 20
-1187.830198
 30
0.0
  9
$EXTMAX
 10
192.828684
 20
-740.549662
 30
0.0
  9
$LIMMIN
 10
-222.900528
 20
-1187.830198
  9
$LIMMAX
 10
192.099472
 20
-740.549662
  9
$ORTHOMODE
 70
     0
  9
$REGENMODE
 70
     1
  9
$FILLMODE
 70
     1
  9
$QTEXTMODE
 70
     0
  9
$MIRRTEXT
 70
     1
  9
$DRAGMODE
 70
     2
  9
$LTSCALE
 40
1.0
  9
$OSMODE
 70
     0
  9
$ATTMODE
 70
     1
  9
$TEXTSIZE
 40
3.5
  9
$TRACEWID
 40
0.5
  9
$TEXTSTYLE
  7
STANDARD
  9
$CLAYER
  8
0
  9
$CELTYPE
  6
BYLAYER
  9
$CECOLOR
 62
   256
  9
$DIMSCALE
 40
1.0
  9
$DIMASZ
 40
0.18
  9
$DIMEXO
 40
0.0625
  9
$DIMDLI
 40
0.38
  9
$DIMRND
 40
0.0
  9
$DIMDLE
 40
0.0
  9
$DIMEXE
 40
0.18
  9
$DIMTP
 40
0.0
  9
$DIMTM
 40
0.0
  9
$DIMTXT
 40
0.18
  9
$DIMCEN
 40
0.09
  9
$DIMTSZ
 40
0.0
  9
$DIMTOL
 70
     0
  9
$DIMLIM
 70
     0
  9
$DIMTIH
 70
     1
  9
$DIMTOH
 70
     1
  9
$DIMSE1
 70
     0
  9
$DIMSE2
 70
     0
  9
$DIMTAD
 70
     0
  9
$DIMZIN
 70
     0
  9
$DIMBLK
  1

  9
$DIMASO
 70
     1
  9
$DIMSHO
 70
     1
  9
$DIMPOST
  1

  9
$DIMAPOST
  1

  9
$DIMALT
 70
     0
  9
$DIMALTD
 70
     2
  9
$DIMALTF
 40
25.4
  9
$DIMLFAC
 40
1.0
  9
$DIMTOFL
 70
     0
  9
$DIMTVP
 40
0.0
  9
$DIMTIX
 70
     0
  9
$DIMSOXD
 70
     0
  9
$DIMSAH
 70
     0
  9
$DIMBLK1
  1

  9
$DIMBLK2
  1

  9
$DIMSTYLE
  2
*UNNAMED
  9
$DIMCLRD
 70
     0
  9
$DIMCLRE
 70
     0
  9
$DIMCLRT
 70
     0
  9
$DIMTFAC
 40
1.0
  9
$DIMGAP
 40
0.09
  9
$LUNITS
 70
     2
  9
$LUPREC
 70
     4
  9
$SKETCHINC
 40
0.1
  9
$FILLETRAD
 40
2.0
  9
$AUNITS
 70
     0
  9
$AUPREC
 70
     0
  9
$MENU
  1
ACAD
  9
$ELEVATION
 40
0.0
  9
$PELEVATION
 40
0.0
  9
$THICKNESS
 40
0.0
  9
$LIMCHECK
 70
     0
  9
$BLIPMODE
 70
     1
  9
$CHAMFERA
 40
0.0
  9
$CHAMFERB
 40
0.0
  9
$SKPOLY
 70
     0
  9
$TDCREATE
 40
2450948.442506134
  9
$TDUPDATE
 40
2450948.442861574
  9
$TDINDWG
 40
0.0002150463
  9
$TDUSRTIMER
 40
0.0002150463
  9
$USRTIMER
 70
     1
  9
$ANGBASE
 50
0.0
  9
$ANGDIR
 70
     0
  9
$PDMODE
 70
     0
  9
$PDSIZE
 40
0.0
  9
$PLINEWID
 40
0.0
  9
$COORDS
 70
     2
  9
$SPLFRAME
 70
     0
  9
$SPLINETYPE
 70
     6
  9
$SPLINESEGS
 70
     8
  9
$ATTDIA
 70
     0
  9
$ATTREQ
 70
     1
  9
$HANDLING
 70
     0
  9
$HANDSEED
  5
0
  9
$SURFTAB1
 70
     6
  9
$SURFTAB2
 70
     6
  9
$SURFTYPE
 70
     6
  9
$SURFU
 70
     6
  9
$SURFV
 70
     6
  9
$UCSNAME
  2

  9
$UCSORG
 10
0.0
 20
0.0
 30
0.0
  9
$UCSXDIR
 10
1.0
 20
0.0
 30
0.0
  9
$UCSYDIR
 10
0.0
 20
1.0
 30
0.0
  9
$PUCSNAME
  2

  9
$PUCSORG
 10
0.0
 20
0.0
 30
0.0
  9
$PUCSXDIR
 10
1.0
 20
0.0
 30
0.0
  9
$PUCSYDIR
 10
0.0
 20
1.0
 30
0.0
  9
$USERI1
 70
     0
  9
$USERI2
 70
     0
  9
$USERI3
 70
     0
  9
$USERI4
 70
     0
  9
$USERI5
 70
     0
  9
$USERR1
 40
0.0
  9
$USERR2
 40
0.0
  9
$USERR3
 40
0.0
  9
$USERR4
 40
0.0
  9
$USERR5
 40
0.0
  9
$WORLDVIEW
 70
     1
  9
$SHADEDGE
 70
     3
  9
$SHADEDIF
 70
    70
  9
$TILEMODE
 70
     1
  9
$MAXACTVP
 70
    16
  9
$PINSBASE
 10
0.0
 20
0.0
 30
0.0
  9
$PLIMCHECK
 70
     0
  9
$PEXTMIN
 10
1.000000E+20
 20
1.000000E+20
 30
1.000000E+20
  9
$PEXTMAX
 10
-1.000000E+20
 20
-1.000000E+20
 30
-1.000000E+20
  9
$PLIMMIN
 10
0.0
 20
0.0
  9
$PLIMMAX
 10
420.0
 20
297.0
  9
$UNITMODE
 70
     0
  9
$VISRETAIN
 70
     0
  9
$PLINEGEN
 70
     0
  9
$PSLTSCALE
 70
     1
  9
$TREEDEPTH
 70
  3020
  9
$DWGCODEPAGE
  3
iso8859-1
  0
ENDSEC
  0
SECTION
  2
TABLES
  0
TABLE
  2
VPORT
 70
     2
  0
VPORT
  2
*ACTIVE
 70
     0
 10
0.0
 20
0.0
 11
1.0
 21
1.0
 12
286.825656
 22
-1018.25003
 13
0.0
 23
0.0
 14
1.0
 24
1.0
 15
0.0
 25
0.0
 16
0.0
 26
0.0
 36
1.0
 17
0.0
 27
0.0
 37
0.0
 40
640.930728
 41
1.748359
 42
50.0
 43
0.0
 44
0.0
 50
0.0
 51
0.0
 71
     0
 72
   100
 73
     1
 74
     0
 75
     0
 76
     0
 77
     0
 78
     0
  0
ENDTAB
  0
TABLE
  2
LTYPE
 70
     2
  0
LTYPE
  2
CONTINUOUS
 70
    64
  3
Solid line
 72
    65
 73
     0
 40
0.0
  0
ENDTAB
  0
TABLE
  2
LAYER
 70
     2
  0
LAYER
  2
0
 70
    64
 62
     7
  6
CONTINUOUS
  0
ENDTAB
  0
TABLE
  2
STYLE
 70
     1
  0
STYLE
  2
STANDARD
 70
     0
 40
0.0
 41
1.0
 50
0.0
 71
     0
 42
3.5
  3
txt
  4

  0
ENDTAB
  0
TABLE
  2
VIEW
 70
     0
  0
ENDTAB
  0
TABLE
  2
UCS
 70
     0
  0
ENDTAB
  0
TABLE
  2
APPID
 70
     1
  0
APPID
  2
ACAD
 70
    64
  0
ENDTAB
  0
TABLE
  2
DIMSTYLE
 70
     0
  0
ENDTAB
  0
ENDSEC
  0
SECTION
  2
BLOCKS
  0
ENDSEC
  0
SECTION
  2
ENTITIES
  0
LINE
  8
0
 10
-165.387112
 20
-765.543746
 30
0.0
 11
-139.658214
 21
-765.543746
 31
0.0
  0
LINE
  8
0
 10
-111.900528
 20
-765.543746
 30
0.0
 11
-57.400528
 21
-765.543746
 31
0.0
  0
LINE
  8
0
 10
-222.900528
 20
-765.549662
 30
0.0
 11
-191.900528
 21
-765.543746
 31
0.0
  0
LINE
  8
0
 10
-57.400528
 20
-765.543746
 30
0.0
 11
57.099472
 21
-765.549662
 31
0.0
  0
LINE
  8
0
 10
184.010125
 20
-1040.043746
 30
0.0
 11
184.013689
 21
-1001.821673
 31
0.0
  0
LINE
  8
0
 10
187.510125
 20
-1001.786387
 30
0.0
 11
187.510125
 21
-1042.543746
 31
0.0
  0
LINE
  8
0
 10
180.217232
 20
-993.250853
 30
0.0
 11
186.631445
 21
-999.665067
 31
0.0
  0
LINE
  8
0
 10
175.151249
 20
-992.129533
 30
0.0
 11
183.427902
 21
-1000.40746
 31
0.0
  0
LINE
  8
0
 10
185.010125
 20
-990.543746
 30
0.0
 11
185.010125
 21
-988.45796
 31
0.0
  0
LINE
  8
0
 10
180.924339
 20
-991.543746
 30
0.0
 11
184.010125
 21
-991.543746
 31
0.0
  0
LINE
  8
0
 10
184.717232
 20
-987.750853
 30
0.0
 11
182.803018
 21
-985.836639
 31
0.0
  0
LINE
  8
0
 10
168.510125
 20
-991.543746
 30
0.0
 11
173.737035
 21
-991.543746
 31
0.0
  0
LINE
  8
0
 10
130.010125
 20
-990.543746
 30
0.0
 11
130.010125
 21
-986.543746
 31
0.0
  0
LINE
  8
0
 10
168.010125
 20
-994.043746
 30
0.0
 11
168.010125
 21
-992.043746
 31
0.0
  0
LINE
  8
0
 10
163.974591
 20
-992.422426
 30
0.0
 11
166.303018
 21
-994.750853
 31
0.0
  0
LINE
  8
0
 10
131.010125
 20
-991.543746
 30
0.0
 11
161.853271
 21
-991.543746
 31
0.0
  0
LINE
  8
0
 10
182.095911
 20
-985.543746
 30
0.0
 11
131.010125
 21
-985.543746
 31
0.0
  0
LINE
  8
0
 10
183.010125
 20
-988.872173
 30
0.0
 11
181.681698
 21
-987.543746
 31
0.0
  0
LINE
  8
0
 10
183.010125
 20
-989.543746
 30
0.0
 11
183.010125
 21
-988.872173
 31
0.0
  0
LINE
  8
0
 10
168.010125
 20
-989.543746
 30
0.0
 11
183.010125
 21
-989.543746
 31
0.0
  0
LINE
  8
0
 10
132.010125
 20
-987.543746
 30
0.0
 11
181.681698
 21
-987.543746
 31
0.0
  0
LINE
  8
0
 10
132.010125
 20
-987.543746
 30
0.0
 11
132.010125
 21
-989.543746
 31
0.0
  0
LINE
  8
0
 10
168.010125
 20
-988.543746
 30
0.0
 11
168.010125
 21
-989.543746
 31
0.0
  0
LINE
  8
0
 10
132.010125
 20
-989.543746
 30
0.0
 11
163.717232
 21
-989.543746
 31
0.0
  0
LINE
  8
0
 10
164.070785
 20
-989.690193
 30
0.0
 11
166.010125
 21
-991.629533
 31
0.0
  0
LINE
  8
0
 10
166.010125
 20
-988.543746
 30
0.0
 11
166.010125
 21
-991.629533
 31
0.0
  0
LINE
  8
0
 10
-112.489875
 20
-1042.543746
 30
0.0
 11
-112.489875
 21
-1001.786387
 31
0.0
  0
LINE
  8
0
 10
-111.611195
 20
-999.665067
 30
0.0
 11
-105.196982
 21
-993.250853
 31
0.0
  0
LINE
  8
0
 10
-108.407652
 20
-1000.40746
 30
0.0
 11
-100.130999
 21
-992.129533
 31
0.0
  0
LINE
  8
0
 10
-108.993439
 20
-1001.821673
 30
0.0
 11
-108.989875
 21
-1040.043746
 31
0.0
  0
LINE
  8
0
 10
-109.989875
 20
-988.45796
 30
0.0
 11
-109.989875
 21
-990.543746
 31
0.0
  0
LINE
  8
0
 10
-108.989875
 20
-991.543746
 30
0.0
 11
-105.904089
 21
-991.543746
 31
0.0
  0
LINE
  8
0
 10
-107.782768
 20
-985.836639
 30
0.0
 11
-109.696982
 21
-987.750853
 31
0.0
  0
LINE
  8
0
 10
-98.716785
 20
-991.543746
 30
0.0
 11
-93.489875
 21
-991.543746
 31
0.0
  0
LINE
  8
0
 10
-54.989875
 20
-986.543746
 30
0.0
 11
-54.989875
 21
-990.543746
 31
0.0
  0
LINE
  8
0
 10
-92.989875
 20
-992.043746
 30
0.0
 11
-92.989875
 21
-994.043746
 31
0.0
  0
LINE
  8
0
 10
-91.282768
 20
-994.750853
 30
0.0
 11
-88.954341
 21
-992.422426
 31
0.0
  0
LINE
  8
0
 10
-86.833021
 20
-991.543746
 30
0.0
 11
-55.989875
 21
-991.543746
 31
0.0
  0
LINE
  8
0
 10
-55.989875
 20
-985.543746
 30
0.0
 11
-107.075661
 21
-985.543746
 31
0.0
  0
LINE
  8
0
 10
-106.661448
 20
-987.543746
 30
0.0
 11
-107.989875
 21
-988.872173
 31
0.0
  0
LINE
  8
0
 10
-107.989875
 20
-988.872173
 30
0.0
 11
-107.989875
 21
-989.543746
 31
0.0
  0
LINE
  8
0
 10
-107.989875
 20
-989.543746
 30
0.0
 11
-92.989875
 21
-989.543746
 31
0.0
  0
LINE
  8
0
 10
-106.661448
 20
-987.543746
 30
0.0
 11
-56.989875
 21
-987.543746
 31
0.0
  0
LINE
  8
0
 10
-56.989875
 20
-989.543746
 30
0.0
 11
-56.989875
 21
-987.543746
 31
0.0
  0
LINE
  8
0
 10
-92.989875
 20
-989.543746
 30
0.0
 11
-92.989875
 21
-988.543746
 31
0.0
  0
LINE
  8
0
 10
-88.696982
 20
-989.543746
 30
0.0
 11
-56.989875
 21
-989.543746
 31
0.0
  0
LINE
  8
0
 10
-90.989875
 20
-991.629533
 30
0.0
 11
-89.050535
 21
-989.690193
 31
0.0
  0
LINE
  8
0
 10
-90.989875
 20
-991.629533
 30
0.0
 11
-90.989875
 21
-988.543746
 31
0.0
  0
LINE
  8
0
 10
-106.989875
 20
-1042.043746
 30
0.0
 11
182.010125
 21
-1042.043746
 31
0.0
  0
LINE
  8
0
 10
-109.489875
 20
-1045.543746
 30
0.0
 11
184.510125
 21
-1045.543746
 31
0.0
  0
ARC
  8
0
 10
167.010125
 20
-988.543746
 30
0.0
 40
1.0
 50
0.0
 51
180.0
  0
ARC
  8
0
 10
167.010125
 20
-994.043746
 30
0.0
 40
1.0
 50
225.0
 51
0.0
  0
ARC
  8
0
 10
-91.989875
 20
-988.543746
 30
0.0
 40
1.0
 50
0.0
 51
180.0
  0
ARC
  8
0
 10
-91.989875
 20
-994.043746
 30
0.0
 40
1.0
 50
180.0
 51
315.0
  0
ARC
  8
0
 10
184.510125
 20
-1042.543746
 30
0.0
 40
3.0
 50
270.0
 51
0.0
  0
ARC
  8
0
 10
182.010125
 20
-1040.043746
 30
0.0
 40
2.0
 50
270.0
 51
0.0
  0
ARC
  8
0
 10
180.924339
 20
-992.543746
 30
0.0
 40
1.0
 50
90.0
 51
225.0
  0
ARC
  8
0
 10
184.010125
 20
-990.543746
 30
0.0
 40
1.0
 50
270.0
 51
0.0
  0
ARC
  8
0
 10
131.010125
 20
-986.543746
 30
0.0
 40
1.0
 50
90.0
 51
180.0
  0
ARC
  8
0
 10
131.010125
 20
-990.543746
 30
0.0
 40
1.0
 50
180.0
 51
270.0
  0
ARC
  8
0
 10
163.717232
 20
-990.043746
 30
0.0
 40
0.5
 50
45.0
 51
90.0
  0
ARC
  8
0
 10
182.095911
 20
-986.543746
 30
0.0
 40
1.0
 50
45.0
 51
90.0
  0
ARC
  8
0
 10
184.010125
 20
-988.45796
 30
0.0
 40
1.0
 50
0.0
 51
45.0
  0
ARC
  8
0
 10
173.737035
 20
-993.543746
 30
0.0
 40
2.0
 50
45.0
 51
90.0
  0
ARC
  8
0
 10
168.510125
 20
-992.043746
 30
0.0
 40
0.5
 50
90.0
 51
180.0
  0
ARC
  8
0
 10
161.853271
 20
-994.543746
 30
0.0
 40
3.0
 50
45.0
 51
90.0
  0
ARC
  8
0
 10
182.013689
 20
-1001.821673
 30
0.0
 40
2.0
 50
0.0
 51
45.0
  0
ARC
  8
0
 10
184.510125
 20
-1001.786387
 30
0.0
 40
3.0
 50
0.0
 51
45.0
  0
ARC
  8
0
 10
-105.904089
 20
-992.543746
 30
0.0
 40
1.0
 50
315.0
 51
90.0
  0
ARC
  8
0
 10
-108.989875
 20
-990.543746
 30
0.0
 40
1.0
 50
180.0
 51
270.0
  0
ARC
  8
0
 10
-55.989875
 20
-986.543746
 30
0.0
 40
1.0
 50
0.0
 51
90.0
  0
ARC
  8
0
 10
-55.989875
 20
-990.543746
 30
0.0
 40
1.0
 50
270.0
 51
0.0
  0
ARC
  8
0
 10
-88.696982
 20
-990.043746
 30
0.0
 40
0.5
 50
90.0
 51
135.0
  0
ARC
  8
0
 10
-107.075661
 20
-986.543746
 30
0.0
 40
1.0
 50
90.0
 51
135.0
  0
ARC
  8
0
 10
-108.989875
 20
-988.45796
 30
0.0
 40
1.0
 50
135.0
 51
180.0
  0
ARC
  8
0
 10
-98.716785
 20
-993.543746
 30
0.0
 40
2.0
 50
90.0
 51
135.0
  0
ARC
  8
0
 10
-93.489875
 20
-992.043746
 30
0.0
 40
0.5
 50
0.0
 51
90.0
  0
ARC
  8
0
 10
-86.833021
 20
-994.543746
 30
0.0
 40
3.0
 50
90.0
 51
135.0
  0
ARC
  8
0
 10
-106.993439
 20
-1001.821673
 30
0.0
 40
2.0
 50
135.0
 51
180.0
  0
ARC
  8
0
 10
-109.489875
 20
-1042.543746
 30
0.0
 40
3.0
 50
180.0
 51
270.0
  0
ARC
  8
0
 10
-106.989875
 20
-1040.043746
 30
0.0
 40
2.0
 50
180.0
 51
270.0
  0
ARC
  8
0
 10
-109.489875
 20
-1001.786387
 30
0.0
 40
3.0
 50
135.0
 51
180.0
  0
LINE
  8
0
 10
-122.400528
 20
-1045.543746
 30
0.0
 11
192.099472
 21
-1045.543746
 31
0.0
  0
LINE
  8
0
 10
-120.900528
 20
-1045.543746
 30
0.0
 11
-120.900528
 21
-1039.043746
 31
0.0
  0
LINE
  8
0
 10
192.099472
 20
-1045.543746
 30
0.0
 11
192.099472
 21
-1055.543746
 31
0.0
  0
LINE
  8
0
 10
188.868396
 20
-1060.22038
 30
0.0
 11
-122.400528
 21
-1121.65558
 31
0.0
  0
ARC
  8
0
 10
-122.400528
 20
-1039.043746
 30
0.0
 40
1.5
 50
0.0
 51
90.0
  0
ARC
  8
0
 10
187.099472
 20
-1055.543746
 30
0.0
 40
5.0
 50
290.718978
 51
0.0
  0
LINE
  8
0
 10
-222.900528
 20
-746.159546
 30
0.0
 11
-217.290644
 21
-740.549662
 31
0.0
  0
LINE
  8
0
 10
-222.900528
 20
-760.301681
 30
0.0
 11
-203.148509
 21
-740.549662
 31
0.0
  0
LINE
  8
0
 10
-214.006373
 20
-765.549662
 30
0.0
 11
-189.006373
 21
-740.549662
 31
0.0
  0
LINE
  8
0
 10
-199.864237
 20
-765.549662
 30
0.0
 11
-174.864237
 21
-740.549662
 31
0.0
  0
LINE
  8
0
 10
-185.722102
 20
-765.549662
 30
0.0
 11
-160.722102
 21
-740.549662
 31
0.0
  0
LINE
  8
0
 10
-171.579966
 20
-765.549662
 30
0.0
 11
-146.579966
 21
-740.549662
 31
0.0
  0
LINE
  8
0
 10
-157.437831
 20
-765.549662
 30
0.0
 11
-132.437831
 21
-740.549662
 31
0.0
  0
LINE
  8
0
 10
-143.295695
 20
-765.549662
 30
0.0
 11
-118.295695
 21
-740.549662
 31
0.0
  0
LINE
  8
0
 10
-129.153559
 20
-765.549662
 30
0.0
 11
-104.153559
 21
-740.549662
 31
0.0
  0
LINE
  8
0
 10
-115.011424
 20
-765.549662
 30
0.0
 11
-90.011424
 21
-740.549662
 31
0.0
  0
LINE
  8
0
 10
-100.869288
 20
-765.549662
 30
0.0
 11
-75.869288
 21
-740.549662
 31
0.0
  0
LINE
  8
0
 10
-86.727152
 20
-765.549662
 30
0.0
 11
-61.727152
 21
-740.549662
 31
0.0
  0
LINE
  8
0
 10
-72.585017
 20
-765.549662
 30
0.0
 11
-47.585017
 21
-740.549662
 31
0.0
  0
LINE
  8
0
 10
-58.442881
 20
-765.549662
 30
0.0
 11
-33.442881
 21
-740.549662
 31
0.0
  0
LINE
  8
0
 10
-44.300746
 20
-765.549662
 30
0.0
 11
-19.300746
 21
-740.549662
 31
0.0
  0
LINE
  8
0
 10
-30.15861
 20
-765.549662
 30
0.0
 11
-5.15861
 21
-740.549662
 31
0.0
  0
LINE
  8
0
 10
-16.016474
 20
-765.549662
 30
0.0
 11
8.983526
 21
-740.549662
 31
0.0
  0
LINE
  8
0
 10
-1.874339
 20
-765.549662
 30
0.0
 11
23.125661
 21
-740.549662
 31
0.0
  0
LINE
  8
0
 10
12.267797
 20
-765.549662
 30
0.0
 11
37.267797
 21
-740.549662
 31
0.0
  0
LINE
  8
0
 10
26.409933
 20
-765.549662
 30
0.0
 11
51.409933
 21
-740.549662
 31
0.0
  0
LINE
  8
0
 10
40.552068
 20
-765.549662
 30
0.0
 11
57.099472
 21
-749.002258
 31
0.0
  0
LINE
  8
0
 10
54.694204
 20
-765.549662
 30
0.0
 11
57.099472
 21
-763.144394
 31
0.0
  0
LINE
  8
0
 10
-122.400528
 20
-848.407383
 30
0.0
 11
-122.400528
 21
-1187.830198
 31
0.0
  0
LINE
  8
0
 10
-172.400528
 20
-1187.830198
 30
0.0
 11
-172.400528
 21
-868.850225
 31
0.0
  0
LINE
  8
0
 10
-172.400528
 20
-1187.830198
 30
0.0
 11
-170.900528
 21
-1187.830198
 31
0.0
  0
LINE
  8
0
 10
-170.900528
 20
-1187.830198
 30
0.0
 11
-170.900528
 21
-871.12944
 31
0.0
  0
LINE
  8
0
 10
-170.900528
 20
-1187.830198
 30
0.0
 11
-122.400528
 21
-1187.830198
 31
0.0
  0
CIRCLE
  8
0
 10
-151.900528
 20
-862.543746
 30
0.0
 40
5.25
  0
CIRCLE
  8
0
 10
-151.900528
 20
-912.543746
 30
0.0
 40
5.25
  0
CIRCLE
  8
0
 10
-151.900528
 20
-962.543746
 30
0.0
 40
5.25
  0
CIRCLE
  8
0
 10
-151.900528
 20
-1012.543746
 30
0.0
 40
5.25
  0
CIRCLE
  8
0
 10
-151.900528
 20
-1062.543746
 30
0.0
 40
5.25
  0
CIRCLE
  8
0
 10
-151.900528
 20
-1112.543746
 30
0.0
 40
5.25
  0
CIRCLE
  8
0
 10
-151.900528
 20
-1162.543746
 30
0.0
 40
5.25
  0
LINE
  8
0
 10
-160.436426
 20
-767.543746
 30
0.0
 11
-143.900528
 21
-767.543746
 31
0.0
  0
LINE
  8
0
 10
-163.900528
 20
-765.543746
 30
0.0
 11
-191.900528
 21
-765.543746
 31
0.0
  0
LINE
  8
0
 10
-191.900528
 20
-824.543746
 30
0.0
 11
-172.528478
 21
-868.571132
 31
0.0
  0
LINE
  8
0
 10
-191.900528
 20
-765.543746
 30
0.0
 11
-191.900528
 21
-824.543746
 31
0.0
  0
LINE
  8
0
 10
-111.900528
 20
-765.543746
 30
0.0
 11
-140.436426
 21
-765.543746
 31
0.0
  0
LINE
  8
0
 10
-111.900528
 20
-824.543746
 30
0.0
 11
-111.900528
 21
-765.543746
 31
0.0
  0
LINE
  8
0
 10
-131.272578
 20
-868.571132
 30
0.0
 11
-111.900528
 21
-824.543746
 31
0.0
  0
LINE
  8
0
 10
-163.375328
 20
-874.543746
 30
0.0
 11
-140.425728
 21
-874.543746
 31
0.0
  0
ARC
  8
0
 10
-151.900528
 20
-862.543746
 30
0.0
 40
54.25
 50
90.0
 51
110.0
  0
ARC
  8
0
 10
-169.001535
 20
-815.559115
 30
0.0
 40
4.25
 50
110.0
 51
290.0
  0
ARC
  8
0
 10
-151.900528
 20
-862.543746
 30
0.0
 40
45.75
 50
90.0
 51
110.0
  0
ARC
  8
0
 10
-151.900528
 20
-812.543746
 30
0.0
 40
4.25
 50
270.0
 51
90.0
  0
CIRCLE
  8
0
 10
-151.900528
 20
-862.543746
 30
0.0
 40
4.25
  0
ARC
  8
0
 10
-140.436426
 20
-767.543746
 30
0.0
 40
2.0
 50
90.0
 51
150.0
  0
ARC
  8
0
 10
-143.900528
 20
-765.543746
 30
0.0
 40
2.0
 50
270.0
 51
330.0
  0
ARC
  8
0
 10
-160.436426
 20
-765.543746
 30
0.0
 40
2.0
 50
210.0
 51
270.0
  0
ARC
  8
0
 10
-163.900528
 20
-767.543746
 30
0.0
 40
2.0
 50
30.0
 51
90.0
  0
ARC
  8
0
 10
-163.375328
 20
-864.543746
 30
0.0
 40
10.0
 50
203.749494
 51
270.0
  0
ARC
  8
0
 10
-140.425728
 20
-864.543746
 30
0.0
 40
10.0
 50
270.0
 51
336.250506
  0
LINE
  8
0
 10
26.900473
 20
-1038.043746
 30
0.0
 11
51.900473
 21
-1038.043746
 31
0.0
  0
LINE
  8
0
 10
22.900473
 20
-1003.529028
 30
0.0
 11
22.900473
 21
-1034.043746
 31
0.0
  0
LINE
  8
0
 10
30.057328
 20
-995.543746
 30
0.0
 11
23.48626
 21
-1002.114814
 31
0.0
  0
LINE
  8
0
 10
30.900473
 20
-995.543746
 30
0.0
 11
30.057328
 21
-995.543746
 31
0.0
  0
LINE
  8
0
 10
34.900473
 20
-992.543746
 30
0.0
 11
34.900473
 21
-995.543746
 31
0.0
  0
LINE
  8
0
 10
29.2289
 20
-991.543746
 30
0.0
 11
33.900473
 21
-991.543746
 31
0.0
  0
LINE
  8
0
 10
20.657833
 20
-999.286387
 30
0.0
 11
27.814687
 21
-992.129533
 31
0.0
  0
LINE
  8
0
 10
18.900473
 20
-1034.043746
 30
0.0
 11
18.900473
 21
-1003.529028
 31
0.0
  0
LINE
  8
0
 10
51.900473
 20
-1042.043746
 30
0.0
 11
26.900473
 21
-1042.043746
 31
0.0
  0
ARC
  8
0
 10
24.900473
 20
-1003.529028
 30
0.0
 40
2.0
 50
135.0
 51
180.0
  0
ARC
  8
0
 10
26.900473
 20
-1034.043746
 30
0.0
 40
4.0
 50
180.0
 51
270.0
  0
ARC
  8
0
 10
26.900473
 20
-1034.043746
 30
0.0
 40
8.0
 50
180.0
 51
270.0
  0
ARC
  8
0
 10
24.900473
 20
-1003.529028
 30
0.0
 40
6.0
 50
135.0
 51
180.0
  0
ARC
  8
0
 10
33.900473
 20
-992.543746
 30
0.0
 40
1.0
 50
0.0
 51
90.0
  0
ARC
  8
0
 10
29.2289
 20
-993.543746
 30
0.0
 40
2.0
 50
90.0
 51
135.0
  0
ARC
  8
0
 10
32.900473
 20
-995.543746
 30
0.0
 40
2.0
 50
180.0
 51
0.0
  0
ARC
  8
0
 10
51.900473
 20
-1040.043746
 30
0.0
 40
2.0
 50
0.0
 51
90.0
  0
ARC
  8
0
 10
51.900473
 20
-1040.043746
 30
0.0
 40
2.0
 50
270.0
 51
0.0
  0
ENDSEC
  0
EOF
