  0
SECTION
  2
HEADER
  9
$ACADVER
  1
AC1009
  9
$INSBASE
 10
0.0
 20
0.0
 30
0.0
  9
$EXTMIN
 10
357.819175
 20
-562.5
 30
0.0
  9
$EXTMAX
 10
518.020365
 20
-91.5
 30
0.0
  9
$LIMMIN
 10
357.819175
 20
-562.5
  9
$LIMMAX
 10
517.813258
 20
-91.5
  9
$ORTHOMODE
 70
     0
  9
$REGENMODE
 70
     1
  9
$FILLMODE
 70
     1
  9
$QTEXTMODE
 70
     0
  9
$MIRRTEXT
 70
     1
  9
$DRAGMODE
 70
     2
  9
$LTSCALE
 40
1.0
  9
$OSMODE
 70
     0
  9
$ATTMODE
 70
     1
  9
$TEXTSIZE
 40
3.5
  9
$TRACEWID
 40
0.5
  9
$TEXTSTYLE
  7
STANDARD
  9
$CLAYER
  8
0
  9
$CELTYPE
  6
BYLAYER
  9
$CECOLOR
 62
   256
  9
$DIMSCALE
 40
1.0
  9
$DIMASZ
 40
0.18
  9
$DIMEXO
 40
0.0625
  9
$DIMDLI
 40
0.38
  9
$DIMRND
 40
0.0
  9
$DIMDLE
 40
0.0
  9
$DIMEXE
 40
0.18
  9
$DIMTP
 40
0.0
  9
$DIMTM
 40
0.0
  9
$DIMTXT
 40
0.18
  9
$DIMCEN
 40
0.09
  9
$DIMTSZ
 40
0.0
  9
$DIMTOL
 70
     0
  9
$DIMLIM
 70
     0
  9
$DIMTIH
 70
     1
  9
$DIMTOH
 70
     1
  9
$DIMSE1
 70
     0
  9
$DIMSE2
 70
     0
  9
$DIMTAD
 70
     0
  9
$DIMZIN
 70
     0
  9
$DIMBLK
  1

  9
$DIMASO
 70
     1
  9
$DIMSHO
 70
     1
  9
$DIMPOST
  1

  9
$DIMAPOST
  1

  9
$DIMALT
 70
     0
  9
$DIMALTD
 70
     2
  9
$DIMALTF
 40
25.4
  9
$DIMLFAC
 40
1.0
  9
$DIMTOFL
 70
     0
  9
$DIMTVP
 40
0.0
  9
$DIMTIX
 70
     0
  9
$DIMSOXD
 70
     0
  9
$DIMSAH
 70
     0
  9
$DIMBLK1
  1

  9
$DIMBLK2
  1

  9
$DIMSTYLE
  2
*UNNAMED
  9
$DIMCLRD
 70
     0
  9
$DIMCLRE
 70
     0
  9
$DIMCLRT
 70
     0
  9
$DIMTFAC
 40
1.0
  9
$DIMGAP
 40
0.09
  9
$LUNITS
 70
     2
  9
$LUPREC
 70
     4
  9
$SKETCHINC
 40
0.1
  9
$FILLETRAD
 40
2.0
  9
$AUNITS
 70
     0
  9
$AUPREC
 70
     0
  9
$MENU
  1
ACAD
  9
$ELEVATION
 40
0.0
  9
$PELEVATION
 40
0.0
  9
$THICKNESS
 40
0.0
  9
$LIMCHECK
 70
     0
  9
$BLIPMODE
 70
     1
  9
$CHAMFERA
 40
0.0
  9
$CHAMFERB
 40
0.0
  9
$SKPOLY
 70
     0
  9
$TDCREATE
 40
2450948.436905555
  9
$TDUPDATE
 40
2450948.437635301
  9
$TDINDWG
 40
0.0003096065
  9
$TDUSRTIMER
 40
0.0003096065
  9
$USRTIMER
 70
     1
  9
$ANGBASE
 50
0.0
  9
$ANGDIR
 70
     0
  9
$PDMODE
 70
     0
  9
$PDSIZE
 40
0.0
  9
$PLINEWID
 40
0.0
  9
$COORDS
 70
     2
  9
$SPLFRAME
 70
     0
  9
$SPLINETYPE
 70
     6
  9
$SPLINESEGS
 70
     8
  9
$ATTDIA
 70
     0
  9
$ATTREQ
 70
     1
  9
$HANDLING
 70
     0
  9
$HANDSEED
  5
0
  9
$SURFTAB1
 70
     6
  9
$SURFTAB2
 70
     6
  9
$SURFTYPE
 70
     6
  9
$SURFU
 70
     6
  9
$SURFV
 70
     6
  9
$UCSNAME
  2

  9
$UCSORG
 10
0.0
 20
0.0
 30
0.0
  9
$UCSXDIR
 10
1.0
 20
0.0
 30
0.0
  9
$UCSYDIR
 10
0.0
 20
1.0
 30
0.0
  9
$PUCSNAME
  2

  9
$PUCSORG
 10
0.0
 20
0.0
 30
0.0
  9
$PUCSXDIR
 10
1.0
 20
0.0
 30
0.0
  9
$PUCSYDIR
 10
0.0
 20
1.0
 30
0.0
  9
$USERI1
 70
     0
  9
$USERI2
 70
     0
  9
$USERI3
 70
     0
  9
$USERI4
 70
     0
  9
$USERI5
 70
     0
  9
$USERR1
 40
0.0
  9
$USERR2
 40
0.0
  9
$USERR3
 40
0.0
  9
$USERR4
 40
0.0
  9
$USERR5
 40
0.0
  9
$WORLDVIEW
 70
     1
  9
$SHADEDGE
 70
     3
  9
$SHADEDIF
 70
    70
  9
$TILEMODE
 70
     1
  9
$MAXACTVP
 70
    16
  9
$PINSBASE
 10
0.0
 20
0.0
 30
0.0
  9
$PLIMCHECK
 70
     0
  9
$PEXTMIN
 10
1.000000E+20
 20
1.000000E+20
 30
1.000000E+20
  9
$PEXTMAX
 10
-1.000000E+20
 20
-1.000000E+20
 30
-1.000000E+20
  9
$PLIMMIN
 10
0.0
 20
0.0
  9
$PLIMMAX
 10
420.0
 20
297.0
  9
$UNITMODE
 70
     0
  9
$VISRETAIN
 70
     0
  9
$PLINEGEN
 70
     0
  9
$PSLTSCALE
 70
     1
  9
$TREEDEPTH
 70
  3020
  9
$DWGCODEPAGE
  3
iso8859-1
  0
ENDSEC
  0
SECTION
  2
TABLES
  0
TABLE
  2
VPORT
 70
     2
  0
VPORT
  2
*ACTIVE
 70
     0
 10
0.0
 20
0.0
 11
1.0
 21
1.0
 12
742.670069
 22
-319.059771
 13
0.0
 23
0.0
 14
1.0
 24
1.0
 15
0.0
 25
0.0
 16
0.0
 26
0.0
 36
1.0
 17
0.0
 27
0.0
 37
0.0
 40
537.950572
 41
1.748359
 42
50.0
 43
0.0
 44
0.0
 50
0.0
 51
0.0
 71
     0
 72
   100
 73
     1
 74
     0
 75
     0
 76
     0
 77
     0
 78
     0
  0
ENDTAB
  0
TABLE
  2
LTYPE
 70
     1
  0
LTYPE
  2
CONTINUOUS
 70
    64
  3
Solid line
 72
    65
 73
     0
 40
0.0
  0
ENDTAB
  0
TABLE
  2
LAYER
 70
     1
  0
LAYER
  2
0
 70
    64
 62
     7
  6
CONTINUOUS
  0
ENDTAB
  0
TABLE
  2
STYLE
 70
     1
  0
STYLE
  2
STANDARD
 70
     0
 40
0.0
 41
1.0
 50
0.0
 71
     0
 42
3.5
  3
txt
  4

  0
ENDTAB
  0
TABLE
  2
VIEW
 70
     0
  0
ENDTAB
  0
TABLE
  2
UCS
 70
     0
  0
ENDTAB
  0
TABLE
  2
APPID
 70
     1
  0
APPID
  2
ACAD
 70
    64
  0
ENDTAB
  0
TABLE
  2
DIMSTYLE
 70
     0
  0
ENDTAB
  0
ENDSEC
  0
SECTION
  2
BLOCKS
  0
ENDSEC
  0
SECTION
  2
ENTITIES
  0
LINE
  8
0
 10
382.813258
 20
-237.0
 30
0.0
 11
382.813258
 21
-417.0
 31
0.0
  0
LINE
  8
0
 10
382.813258
 20
-477.0
 30
0.0
 11
382.819175
 21
-562.5
 31
0.0
  0
LINE
  8
0
 10
382.813258
 20
-177.0
 30
0.0
 11
382.819175
 21
-91.5
 31
0.0
  0
LINE
  8
0
 10
463.313258
 20
-473.5
 30
0.0
 11
501.535331
 21
-473.503564
 31
0.0
  0
LINE
  8
0
 10
501.570618
 20
-477.0
 30
0.0
 11
460.813258
 21
-477.0
 31
0.0
  0
LINE
  8
0
 10
510.106152
 20
-469.707107
 30
0.0
 11
503.691938
 21
-476.12132
 31
0.0
  0
LINE
  8
0
 10
511.227472
 20
-464.641124
 30
0.0
 11
502.949545
 21
-472.917777
 31
0.0
  0
LINE
  8
0
 10
512.813258
 20
-474.5
 30
0.0
 11
514.899045
 21
-474.5
 31
0.0
  0
LINE
  8
0
 10
511.813258
 20
-470.414214
 30
0.0
 11
511.813258
 21
-473.5
 31
0.0
  0
LINE
  8
0
 10
515.606152
 20
-474.207107
 30
0.0
 11
517.520365
 21
-472.292893
 31
0.0
  0
LINE
  8
0
 10
511.813258
 20
-458.0
 30
0.0
 11
511.813258
 21
-463.22691
 31
0.0
  0
LINE
  8
0
 10
512.813258
 20
-419.5
 30
0.0
 11
516.813258
 21
-419.5
 31
0.0
  0
LINE
  8
0
 10
509.313258
 20
-457.5
 30
0.0
 11
511.313258
 21
-457.5
 31
0.0
  0
LINE
  8
0
 10
510.934579
 20
-453.464466
 30
0.0
 11
508.606152
 21
-455.792893
 31
0.0
  0
LINE
  8
0
 10
511.813258
 20
-420.5
 30
0.0
 11
511.813258
 21
-451.343146
 31
0.0
  0
LINE
  8
0
 10
517.813258
 20
-471.585786
 30
0.0
 11
517.813258
 21
-420.5
 31
0.0
  0
LINE
  8
0
 10
514.484831
 20
-472.5
 30
0.0
 11
515.813258
 21
-471.171573
 31
0.0
  0
LINE
  8
0
 10
513.813258
 20
-472.5
 30
0.0
 11
514.484831
 21
-472.5
 31
0.0
  0
LINE
  8
0
 10
513.813258
 20
-457.5
 30
0.0
 11
513.813258
 21
-472.5
 31
0.0
  0
LINE
  8
0
 10
515.813258
 20
-421.5
 30
0.0
 11
515.813258
 21
-471.171573
 31
0.0
  0
LINE
  8
0
 10
515.813258
 20
-421.5
 30
0.0
 11
513.813258
 21
-421.5
 31
0.0
  0
LINE
  8
0
 10
514.813258
 20
-457.5
 30
0.0
 11
513.813258
 21
-457.5
 31
0.0
  0
LINE
  8
0
 10
513.813258
 20
-421.5
 30
0.0
 11
513.813258
 21
-453.207107
 31
0.0
  0
LINE
  8
0
 10
513.666812
 20
-453.56066
 30
0.0
 11
511.727472
 21
-455.5
 31
0.0
  0
LINE
  8
0
 10
514.813258
 20
-455.5
 30
0.0
 11
511.727472
 21
-455.5
 31
0.0
  0
LINE
  8
0
 10
460.813258
 20
-177.0
 30
0.0
 11
501.570618
 21
-177.0
 31
0.0
  0
LINE
  8
0
 10
503.691938
 20
-177.87868
 30
0.0
 11
510.106152
 21
-184.292893
 31
0.0
  0
LINE
  8
0
 10
502.949545
 20
-181.082223
 30
0.0
 11
511.227472
 21
-189.358876
 31
0.0
  0
LINE
  8
0
 10
501.535331
 20
-180.496436
 30
0.0
 11
463.313258
 21
-180.5
 31
0.0
  0
LINE
  8
0
 10
514.899045
 20
-179.5
 30
0.0
 11
512.813258
 21
-179.5
 31
0.0
  0
LINE
  8
0
 10
511.813258
 20
-180.5
 30
0.0
 11
511.813258
 21
-183.585786
 31
0.0
  0
LINE
  8
0
 10
517.520365
 20
-181.707107
 30
0.0
 11
515.606152
 21
-179.792893
 31
0.0
  0
LINE
  8
0
 10
511.813258
 20
-190.77309
 30
0.0
 11
511.813258
 21
-196.0
 31
0.0
  0
LINE
  8
0
 10
516.813258
 20
-234.5
 30
0.0
 11
512.813258
 21
-234.5
 31
0.0
  0
LINE
  8
0
 10
511.313258
 20
-196.5
 30
0.0
 11
509.313258
 21
-196.5
 31
0.0
  0
LINE
  8
0
 10
508.606152
 20
-198.207107
 30
0.0
 11
510.934579
 21
-200.535534
 31
0.0
  0
LINE
  8
0
 10
511.813258
 20
-202.656854
 30
0.0
 11
511.813258
 21
-233.5
 31
0.0
  0
LINE
  8
0
 10
517.813258
 20
-233.5
 30
0.0
 11
517.813258
 21
-182.414214
 31
0.0
  0
LINE
  8
0
 10
515.813258
 20
-182.828427
 30
0.0
 11
514.484831
 21
-181.5
 31
0.0
  0
LINE
  8
0
 10
514.484831
 20
-181.5
 30
0.0
 11
513.813258
 21
-181.5
 31
0.0
  0
LINE
  8
0
 10
513.813258
 20
-181.5
 30
0.0
 11
513.813258
 21
-196.5
 31
0.0
  0
LINE
  8
0
 10
515.813258
 20
-182.828427
 30
0.0
 11
515.813258
 21
-232.5
 31
0.0
  0
LINE
  8
0
 10
513.813258
 20
-232.5
 30
0.0
 11
515.813258
 21
-232.5
 31
0.0
  0
LINE
  8
0
 10
513.813258
 20
-196.5
 30
0.0
 11
514.813258
 21
-196.5
 31
0.0
  0
LINE
  8
0
 10
513.813258
 20
-200.792893
 30
0.0
 11
513.813258
 21
-232.5
 31
0.0
  0
LINE
  8
0
 10
511.727472
 20
-198.5
 30
0.0
 11
513.666812
 21
-200.43934
 31
0.0
  0
LINE
  8
0
 10
511.727472
 20
-198.5
 30
0.0
 11
514.813258
 21
-198.5
 31
0.0
  0
LINE
  8
0
 10
461.313258
 20
-182.5
 30
0.0
 11
461.313258
 21
-471.5
 31
0.0
  0
LINE
  8
0
 10
457.813258
 20
-180.0
 30
0.0
 11
457.813258
 21
-474.0
 31
0.0
  0
ARC
  8
0
 10
514.813258
 20
-456.5
 30
0.0
 40
1.0
 50
270.0
 51
90.0
  0
ARC
  8
0
 10
509.313258
 20
-456.5
 30
0.0
 40
1.0
 50
135.0
 51
270.0
  0
ARC
  8
0
 10
514.813258
 20
-197.5
 30
0.0
 40
1.0
 50
270.0
 51
90.0
  0
ARC
  8
0
 10
509.313258
 20
-197.5
 30
0.0
 40
1.0
 50
90.0
 51
225.0
  0
ARC
  8
0
 10
460.813258
 20
-474.0
 30
0.0
 40
3.0
 50
180.0
 51
270.0
  0
ARC
  8
0
 10
463.313258
 20
-471.5
 30
0.0
 40
2.0
 50
180.0
 51
270.0
  0
ARC
  8
0
 10
510.813258
 20
-470.414214
 30
0.0
 40
1.0
 50
0.0
 51
135.0
  0
ARC
  8
0
 10
512.813258
 20
-473.5
 30
0.0
 40
1.0
 50
180.0
 51
270.0
  0
ARC
  8
0
 10
516.813258
 20
-420.5
 30
0.0
 40
1.0
 50
0.0
 51
90.0
  0
ARC
  8
0
 10
512.813258
 20
-420.5
 30
0.0
 40
1.0
 50
90.0
 51
180.0
  0
ARC
  8
0
 10
513.313258
 20
-453.207107
 30
0.0
 40
0.5
 50
315.0
 51
0.0
  0
ARC
  8
0
 10
516.813258
 20
-471.585786
 30
0.0
 40
1.0
 50
315.0
 51
0.0
  0
ARC
  8
0
 10
514.899045
 20
-473.5
 30
0.0
 40
1.0
 50
270.0
 51
315.0
  0
ARC
  8
0
 10
509.813258
 20
-463.22691
 30
0.0
 40
2.0
 50
315.0
 51
0.0
  0
ARC
  8
0
 10
511.313258
 20
-458.0
 30
0.0
 40
0.5
 50
0.0
 51
90.0
  0
ARC
  8
0
 10
508.813258
 20
-451.343146
 30
0.0
 40
3.0
 50
315.0
 51
0.0
  0
ARC
  8
0
 10
501.535331
 20
-471.503564
 30
0.0
 40
2.0
 50
270.0
 51
315.0
  0
ARC
  8
0
 10
501.570618
 20
-474.0
 30
0.0
 40
3.0
 50
270.0
 51
315.0
  0
ARC
  8
0
 10
510.813258
 20
-183.585786
 30
0.0
 40
1.0
 50
225.0
 51
0.0
  0
ARC
  8
0
 10
512.813258
 20
-180.5
 30
0.0
 40
1.0
 50
90.0
 51
180.0
  0
ARC
  8
0
 10
516.813258
 20
-233.5
 30
0.0
 40
1.0
 50
270.0
 51
0.0
  0
ARC
  8
0
 10
512.813258
 20
-233.5
 30
0.0
 40
1.0
 50
180.0
 51
270.0
  0
ARC
  8
0
 10
513.313258
 20
-200.792893
 30
0.0
 40
0.5
 50
0.0
 51
45.0
  0
ARC
  8
0
 10
516.813258
 20
-182.414214
 30
0.0
 40
1.0
 50
0.0
 51
45.0
  0
ARC
  8
0
 10
514.899045
 20
-180.5
 30
0.0
 40
1.0
 50
45.0
 51
90.0
  0
ARC
  8
0
 10
509.813258
 20
-190.77309
 30
0.0
 40
2.0
 50
0.0
 51
45.0
  0
ARC
  8
0
 10
511.313258
 20
-196.0
 30
0.0
 40
0.5
 50
270.0
 51
0.0
  0
ARC
  8
0
 10
508.813258
 20
-202.656854
 30
0.0
 40
3.0
 50
0.0
 51
45.0
  0
ARC
  8
0
 10
501.535331
 20
-182.496436
 30
0.0
 40
2.0
 50
45.0
 51
90.0
  0
ARC
  8
0
 10
460.813258
 20
-180.0
 30
0.0
 40
3.0
 50
90.0
 51
180.0
  0
ARC
  8
0
 10
463.313258
 20
-182.5
 30
0.0
 40
2.0
 50
90.0
 51
180.0
  0
ARC
  8
0
 10
501.570618
 20
-180.0
 30
0.0
 40
3.0
 50
45.0
 51
90.0
  0
LINE
  8
0
 10
388.521178
 20
-177.0
 30
0.0
 11
382.813258
 21
-177.0
 31
0.0
  0
LINE
  8
0
 10
457.813258
 20
-446.5
 30
0.0
 11
457.813258
 21
-207.5
 31
0.0
  0
LINE
  8
0
 10
390.813258
 20
-237.0
 30
0.0
 11
382.813258
 21
-237.0
 31
0.0
  0
LINE
  8
0
 10
432.813258
 20
-327.0
 30
0.0
 11
432.813258
 21
-264.983201
 31
0.0
  0
LINE
  8
0
 10
390.813258
 20
-237.0
 30
0.0
 11
426.073712
 21
-254.197673
 31
0.0
  0
LINE
  8
0
 10
390.813258
 20
-417.0
 30
0.0
 11
426.073712
 21
-399.802328
 31
0.0
  0
LINE
  8
0
 10
432.813258
 20
-327.0
 30
0.0
 11
432.813258
 21
-389.016799
 31
0.0
  0
LINE
  8
0
 10
390.813258
 20
-417.0
 30
0.0
 11
382.813258
 21
-417.0
 31
0.0
  0
LINE
  8
0
 10
388.521178
 20
-477.0
 30
0.0
 11
382.813258
 21
-477.0
 31
0.0
  0
LINE
  8
0
 10
455.813258
 20
-448.5
 30
0.0
 11
388.521178
 21
-477.0
 31
0.0
  0
LINE
  8
0
 10
455.813258
 20
-205.5
 30
0.0
 11
388.521178
 21
-177.0
 31
0.0
  0
LINE
  8
0
 10
382.813258
 20
-237.0
 30
0.0
 11
382.813258
 21
-177.0
 31
0.0
  0
LINE
  8
0
 10
382.813258
 20
-417.0
 30
0.0
 11
382.813258
 21
-477.0
 31
0.0
  0
ARC
  8
0
 10
455.813258
 20
-207.5
 30
0.0
 40
2.0
 50
0.0
 51
90.0
  0
ARC
  8
0
 10
420.813258
 20
-264.983201
 30
0.0
 40
12.0
 50
0.0
 51
64.0
  0
ARC
  8
0
 10
420.813258
 20
-389.016799
 30
0.0
 40
12.0
 50
296.0
 51
0.0
  0
ARC
  8
0
 10
455.813258
 20
-446.5
 30
0.0
 40
2.0
 50
270.0
 51
0.0
  0
LINE
  8
0
 10
357.819175
 20
-94.729165
 30
0.0
 11
361.04834
 21
-91.5
 31
0.0
  0
LINE
  8
0
 10
357.819175
 20
-108.871301
 30
0.0
 11
375.190476
 21
-91.5
 31
0.0
  0
LINE
  8
0
 10
357.819175
 20
-123.013437
 30
0.0
 11
382.819175
 21
-98.013437
 31
0.0
  0
LINE
  8
0
 10
357.819175
 20
-137.155572
 30
0.0
 11
382.819175
 21
-112.155572
 31
0.0
  0
LINE
  8
0
 10
357.819175
 20
-151.297708
 30
0.0
 11
382.819175
 21
-126.297708
 31
0.0
  0
LINE
  8
0
 10
357.819175
 20
-165.439844
 30
0.0
 11
382.819175
 21
-140.439844
 31
0.0
  0
LINE
  8
0
 10
357.819175
 20
-179.581979
 30
0.0
 11
382.819175
 21
-154.581979
 31
0.0
  0
LINE
  8
0
 10
357.819175
 20
-193.724115
 30
0.0
 11
382.819175
 21
-168.724115
 31
0.0
  0
LINE
  8
0
 10
357.819175
 20
-207.86625
 30
0.0
 11
382.819175
 21
-182.86625
 31
0.0
  0
LINE
  8
0
 10
357.819175
 20
-222.008386
 30
0.0
 11
382.819175
 21
-197.008386
 31
0.0
  0
LINE
  8
0
 10
357.819175
 20
-236.150522
 30
0.0
 11
382.819175
 21
-211.150522
 31
0.0
  0
LINE
  8
0
 10
357.819175
 20
-250.292657
 30
0.0
 11
382.819175
 21
-225.292657
 31
0.0
  0
LINE
  8
0
 10
357.819175
 20
-264.434793
 30
0.0
 11
382.819175
 21
-239.434793
 31
0.0
  0
LINE
  8
0
 10
357.819175
 20
-278.576929
 30
0.0
 11
382.819175
 21
-253.576929
 31
0.0
  0
LINE
  8
0
 10
357.819175
 20
-292.719064
 30
0.0
 11
382.819175
 21
-267.719064
 31
0.0
  0
LINE
  8
0
 10
357.819175
 20
-306.8612
 30
0.0
 11
382.819175
 21
-281.8612
 31
0.0
  0
LINE
  8
0
 10
357.819175
 20
-321.003335
 30
0.0
 11
382.819175
 21
-296.003335
 31
0.0
  0
LINE
  8
0
 10
357.819175
 20
-335.145471
 30
0.0
 11
382.819175
 21
-310.145471
 31
0.0
  0
LINE
  8
0
 10
357.819175
 20
-349.287607
 30
0.0
 11
382.819175
 21
-324.287607
 31
0.0
  0
LINE
  8
0
 10
357.819175
 20
-363.429742
 30
0.0
 11
382.819175
 21
-338.429742
 31
0.0
  0
LINE
  8
0
 10
357.819175
 20
-377.571878
 30
0.0
 11
382.819175
 21
-352.571878
 31
0.0
  0
LINE
  8
0
 10
357.819175
 20
-391.714014
 30
0.0
 11
382.819175
 21
-366.714014
 31
0.0
  0
LINE
  8
0
 10
357.819175
 20
-405.856149
 30
0.0
 11
382.819175
 21
-380.856149
 31
0.0
  0
LINE
  8
0
 10
357.819175
 20
-419.998285
 30
0.0
 11
382.819175
 21
-394.998285
 31
0.0
  0
LINE
  8
0
 10
357.819175
 20
-434.14042
 30
0.0
 11
382.819175
 21
-409.14042
 31
0.0
  0
LINE
  8
0
 10
357.819175
 20
-448.282556
 30
0.0
 11
382.819175
 21
-423.282556
 31
0.0
  0
LINE
  8
0
 10
357.819175
 20
-462.424692
 30
0.0
 11
382.819175
 21
-437.424692
 31
0.0
  0
LINE
  8
0
 10
357.819175
 20
-476.566827
 30
0.0
 11
382.819175
 21
-451.566827
 31
0.0
  0
LINE
  8
0
 10
357.819175
 20
-490.708963
 30
0.0
 11
382.819175
 21
-465.708963
 31
0.0
  0
LINE
  8
0
 10
357.819175
 20
-504.851099
 30
0.0
 11
382.819175
 21
-479.851099
 31
0.0
  0
LINE
  8
0
 10
357.819175
 20
-518.993234
 30
0.0
 11
382.819175
 21
-493.993234
 31
0.0
  0
LINE
  8
0
 10
357.819175
 20
-533.13537
 30
0.0
 11
382.819175
 21
-508.13537
 31
0.0
  0
LINE
  8
0
 10
357.819175
 20
-547.277505
 30
0.0
 11
382.819175
 21
-522.277505
 31
0.0
  0
LINE
  8
0
 10
357.819175
 20
-561.419641
 30
0.0
 11
382.819175
 21
-536.419641
 31
0.0
  0
LINE
  8
0
 10
370.880951
 20
-562.5
 30
0.0
 11
382.819175
 21
-550.561777
 31
0.0
  0
LINE
  8
0
 10
461.313258
 20
-371.795673
 30
0.0
 11
461.313258
 21
-346.795673
 31
0.0
  0
LINE
  8
0
 10
499.827977
 20
-379.795673
 30
0.0
 11
469.313258
 21
-379.795673
 31
0.0
  0
LINE
  8
0
 10
511.227472
 20
-370.881459
 30
0.0
 11
504.070618
 21
-378.038314
 31
0.0
  0
LINE
  8
0
 10
511.813258
 20
-364.795673
 30
0.0
 11
511.813258
 21
-369.467246
 31
0.0
  0
LINE
  8
0
 10
507.813258
 20
-363.795673
 30
0.0
 11
510.813258
 21
-363.795673
 31
0.0
  0
LINE
  8
0
 10
507.813258
 20
-368.638819
 30
0.0
 11
507.813258
 21
-367.795673
 31
0.0
  0
LINE
  8
0
 10
501.242191
 20
-375.209887
 30
0.0
 11
507.813258
 21
-368.638819
 31
0.0
  0
LINE
  8
0
 10
469.313258
 20
-375.795673
 30
0.0
 11
499.827977
 21
-375.795673
 31
0.0
  0
LINE
  8
0
 10
465.313258
 20
-346.795673
 30
0.0
 11
465.313258
 21
-371.795673
 31
0.0
  0
ARC
  8
0
 10
463.313258
 20
-346.795673
 30
0.0
 40
2.0
 50
90.0
 51
180.0
  0
ARC
  8
0
 10
463.313258
 20
-346.795673
 30
0.0
 40
2.0
 50
0.0
 51
90.0
  0
ARC
  8
0
 10
507.813258
 20
-365.795673
 30
0.0
 40
2.0
 50
90.0
 51
270.0
  0
ARC
  8
0
 10
509.813258
 20
-369.467246
 30
0.0
 40
2.0
 50
315.0
 51
0.0
  0
ARC
  8
0
 10
510.813258
 20
-364.795673
 30
0.0
 40
1.0
 50
0.0
 51
90.0
  0
ARC
  8
0
 10
499.827977
 20
-373.795673
 30
0.0
 40
6.0
 50
270.0
 51
315.0
  0
ARC
  8
0
 10
469.313258
 20
-371.795673
 30
0.0
 40
8.0
 50
180.0
 51
270.0
  0
ARC
  8
0
 10
469.313258
 20
-371.795673
 30
0.0
 40
4.0
 50
180.0
 51
270.0
  0
ARC
  8
0
 10
499.827977
 20
-373.795673
 30
0.0
 40
2.0
 50
270.0
 51
315.0
  0
LINE
  8
0
 10
465.313258
 20
-263.55757
 30
0.0
 11
465.313258
 21
-288.55757
 31
0.0
  0
LINE
  8
0
 10
469.313258
 20
-292.55757
 30
0.0
 11
499.827977
 21
-292.55757
 31
0.0
  0
LINE
  8
0
 10
501.242191
 20
-291.971783
 30
0.0
 11
507.813258
 21
-285.400716
 31
0.0
  0
LINE
  8
0
 10
507.813258
 20
-285.400716
 30
0.0
 11
507.813258
 21
-284.55757
 31
0.0
  0
LINE
  8
0
 10
507.813258
 20
-280.55757
 30
0.0
 11
510.813258
 21
-280.55757
 31
0.0
  0
LINE
  8
0
 10
511.813258
 20
-281.55757
 30
0.0
 11
511.813258
 21
-286.229143
 31
0.0
  0
LINE
  8
0
 10
511.227472
 20
-287.643356
 30
0.0
 11
504.070618
 21
-294.800211
 31
0.0
  0
LINE
  8
0
 10
499.827977
 20
-296.55757
 30
0.0
 11
469.313258
 21
-296.55757
 31
0.0
  0
LINE
  8
0
 10
461.313258
 20
-288.55757
 30
0.0
 11
461.313258
 21
-263.55757
 31
0.0
  0
ARC
  8
0
 10
499.827977
 20
-290.55757
 30
0.0
 40
2.0
 50
270.0
 51
315.0
  0
ARC
  8
0
 10
469.313258
 20
-288.55757
 30
0.0
 40
4.0
 50
180.0
 51
270.0
  0
ARC
  8
0
 10
469.313258
 20
-288.55757
 30
0.0
 40
8.0
 50
180.0
 51
270.0
  0
ARC
  8
0
 10
499.827977
 20
-290.55757
 30
0.0
 40
6.0
 50
270.0
 51
315.0
  0
ARC
  8
0
 10
510.813258
 20
-281.55757
 30
0.0
 40
1.0
 50
0.0
 51
90.0
  0
ARC
  8
0
 10
509.813258
 20
-286.229143
 30
0.0
 40
2.0
 50
315.0
 51
0.0
  0
ARC
  8
0
 10
507.813258
 20
-282.55757
 30
0.0
 40
2.0
 50
90.0
 51
270.0
  0
ARC
  8
0
 10
463.313258
 20
-263.55757
 30
0.0
 40
2.0
 50
0.0
 51
90.0
  0
ARC
  8
0
 10
463.313258
 20
-263.55757
 30
0.0
 40
2.0
 50
90.0
 51
180.0
  0
ENDSEC
  0
EOF
