  0
SECTION
  2
HEADER
  9
$ACADVER
  1
AC1009
  9
$INSBASE
 10
0.0
 20
0.0
 30
0.0
  9
$EXTMIN
 10
357.819175
 20
-16.5
 30
0.0
  9
$EXTMAX
 10
747.54247
 20
263.5
 30
0.0
  9
$LIMMIN
 10
357.819175
 20
-16.5
  9
$LIMMAX
 10
746.813258
 20
263.5
  9
$ORTHOMODE
 70
     0
  9
$REGENMODE
 70
     1
  9
$FILLMODE
 70
     1
  9
$QTEXTMODE
 70
     0
  9
$MIRRTEXT
 70
     1
  9
$DRAGMODE
 70
     2
  9
$LTSCALE
 40
1.0
  9
$OSMODE
 70
     0
  9
$ATTMODE
 70
     1
  9
$TEXTSIZE
 40
3.5
  9
$TRACEWID
 40
0.5
  9
$TEXTSTYLE
  7
STANDARD
  9
$CLAYER
  8
0
  9
$CELTYPE
  6
BYLAYER
  9
$CECOLOR
 62
   256
  9
$DIMSCALE
 40
1.0
  9
$DIMASZ
 40
0.18
  9
$DIMEXO
 40
0.0625
  9
$DIMDLI
 40
0.38
  9
$DIMRND
 40
0.0
  9
$DIMDLE
 40
0.0
  9
$DIMEXE
 40
0.18
  9
$DIMTP
 40
0.0
  9
$DIMTM
 40
0.0
  9
$DIMTXT
 40
0.18
  9
$DIMCEN
 40
0.09
  9
$DIMTSZ
 40
0.0
  9
$DIMTOL
 70
     0
  9
$DIMLIM
 70
     0
  9
$DIMTIH
 70
     1
  9
$DIMTOH
 70
     1
  9
$DIMSE1
 70
     0
  9
$DIMSE2
 70
     0
  9
$DIMTAD
 70
     0
  9
$DIMZIN
 70
     0
  9
$DIMBLK
  1

  9
$DIMASO
 70
     1
  9
$DIMSHO
 70
     1
  9
$DIMPOST
  1

  9
$DIMAPOST
  1

  9
$DIMALT
 70
     0
  9
$DIMALTD
 70
     2
  9
$DIMALTF
 40
25.4
  9
$DIMLFAC
 40
1.0
  9
$DIMTOFL
 70
     0
  9
$DIMTVP
 40
0.0
  9
$DIMTIX
 70
     0
  9
$DIMSOXD
 70
     0
  9
$DIMSAH
 70
     0
  9
$DIMBLK1
  1

  9
$DIMBLK2
  1

  9
$DIMSTYLE
  2
*UNNAMED
  9
$DIMCLRD
 70
     0
  9
$DIMCLRE
 70
     0
  9
$DIMCLRT
 70
     0
  9
$DIMTFAC
 40
1.0
  9
$DIMGAP
 40
0.09
  9
$LUNITS
 70
     2
  9
$LUPREC
 70
     4
  9
$SKETCHINC
 40
0.1
  9
$FILLETRAD
 40
2.0
  9
$AUNITS
 70
     0
  9
$AUPREC
 70
     0
  9
$MENU
  1
ACAD
  9
$ELEVATION
 40
0.0
  9
$PELEVATION
 40
0.0
  9
$THICKNESS
 40
0.0
  9
$LIMCHECK
 70
     0
  9
$BLIPMODE
 70
     1
  9
$CHAMFERA
 40
0.0
  9
$CHAMFERB
 40
0.0
  9
$SKPOLY
 70
     0
  9
$TDCREATE
 40
2450948.428419444
  9
$TDUPDATE
 40
2450948.429016319
  9
$TDINDWG
 40
0.0004144676
  9
$TDUSRTIMER
 40
0.0004144676
  9
$USRTIMER
 70
     1
  9
$ANGBASE
 50
0.0
  9
$ANGDIR
 70
     0
  9
$PDMODE
 70
     0
  9
$PDSIZE
 40
0.0
  9
$PLINEWID
 40
0.0
  9
$COORDS
 70
     2
  9
$SPLFRAME
 70
     0
  9
$SPLINETYPE
 70
     6
  9
$SPLINESEGS
 70
     8
  9
$ATTDIA
 70
     0
  9
$ATTREQ
 70
     1
  9
$HANDLING
 70
     0
  9
$HANDSEED
  5
0
  9
$SURFTAB1
 70
     6
  9
$SURFTAB2
 70
     6
  9
$SURFTYPE
 70
     6
  9
$SURFU
 70
     6
  9
$SURFV
 70
     6
  9
$UCSNAME
  2

  9
$UCSORG
 10
0.0
 20
0.0
 30
0.0
  9
$UCSXDIR
 10
1.0
 20
0.0
 30
0.0
  9
$UCSYDIR
 10
0.0
 20
1.0
 30
0.0
  9
$PUCSNAME
  2

  9
$PUCSORG
 10
0.0
 20
0.0
 30
0.0
  9
$PUCSXDIR
 10
1.0
 20
0.0
 30
0.0
  9
$PUCSYDIR
 10
0.0
 20
1.0
 30
0.0
  9
$USERI1
 70
     0
  9
$USERI2
 70
     0
  9
$USERI3
 70
     0
  9
$USERI4
 70
     0
  9
$USERI5
 70
     0
  9
$USERR1
 40
0.0
  9
$USERR2
 40
0.0
  9
$USERR3
 40
0.0
  9
$USERR4
 40
0.0
  9
$USERR5
 40
0.0
  9
$WORLDVIEW
 70
     1
  9
$SHADEDGE
 70
     3
  9
$SHADEDIF
 70
    70
  9
$TILEMODE
 70
     1
  9
$MAXACTVP
 70
    16
  9
$PINSBASE
 10
0.0
 20
0.0
 30
0.0
  9
$PLIMCHECK
 70
     0
  9
$PEXTMIN
 10
1.000000E+20
 20
1.000000E+20
 30
1.000000E+20
  9
$PEXTMAX
 10
-1.000000E+20
 20
-1.000000E+20
 30
-1.000000E+20
  9
$PLIMMIN
 10
0.0
 20
0.0
  9
$PLIMMAX
 10
420.0
 20
297.0
  9
$UNITMODE
 70
     0
  9
$VISRETAIN
 70
     0
  9
$PLINEGEN
 70
     0
  9
$PSLTSCALE
 70
     1
  9
$TREEDEPTH
 70
  3020
  9
$DWGCODEPAGE
  3
iso8859-1
  0
ENDSEC
  0
SECTION
  2
TABLES
  0
TABLE
  2
VPORT
 70
     2
  0
VPORT
  2
*ACTIVE
 70
     0
 10
0.0
 20
0.0
 11
1.0
 21
1.0
 12
608.067398
 22
118.779693
 13
0.0
 23
0.0
 14
1.0
 24
1.0
 15
0.0
 25
0.0
 16
0.0
 26
0.0
 36
1.0
 17
0.0
 27
0.0
 37
0.0
 40
331.601531
 41
1.748359
 42
50.0
 43
0.0
 44
0.0
 50
0.0
 51
0.0
 71
     0
 72
   100
 73
     1
 74
     0
 75
     0
 76
     0
 77
     0
 78
     0
  0
ENDTAB
  0
TABLE
  2
LTYPE
 70
     1
  0
LTYPE
  2
CONTINUOUS
 70
    64
  3
Solid line
 72
    65
 73
     0
 40
0.0
  0
ENDTAB
  0
TABLE
  2
LAYER
 70
     3
  0
LAYER
  2
0
 70
    64
 62
     7
  6
CONTINUOUS
  0
ENDTAB
  0
TABLE
  2
STYLE
 70
     1
  0
STYLE
  2
STANDARD
 70
     0
 40
0.0
 41
1.0
 50
0.0
 71
     0
 42
3.5
  3
txt
  4

  0
ENDTAB
  0
TABLE
  2
VIEW
 70
     0
  0
ENDTAB
  0
TABLE
  2
UCS
 70
     0
  0
ENDTAB
  0
TABLE
  2
APPID
 70
     1
  0
APPID
  2
ACAD
 70
    64
  0
ENDTAB
  0
TABLE
  2
DIMSTYLE
 70
     0
  0
ENDTAB
  0
ENDSEC
  0
SECTION
  2
BLOCKS
  0
ENDSEC
  0
SECTION
  2
ENTITIES
  0
LINE
  8
0
 10
382.813258
 20
69.0
 30
0.0
 11
382.819175
 21
-16.5
 31
0.0
  0
LINE
  8
0
 10
382.813258
 20
178.0
 30
0.0
 11
382.819175
 21
263.5
 31
0.0
  0
LINE
  8
0
 10
736.374768
 20
151.5
 30
0.0
 11
736.378332
 21
189.722073
 31
0.0
  0
LINE
  8
0
 10
739.874768
 20
189.757359
 30
0.0
 11
739.874768
 21
149.0
 31
0.0
  0
LINE
  8
0
 10
732.581875
 20
198.292893
 30
0.0
 11
738.996089
 21
191.87868
 31
0.0
  0
LINE
  8
0
 10
727.515892
 20
199.414214
 30
0.0
 11
735.792546
 21
191.136286
 31
0.0
  0
LINE
  8
0
 10
737.374768
 20
201.0
 30
0.0
 11
737.374768
 21
203.085786
 31
0.0
  0
LINE
  8
0
 10
733.288982
 20
200.0
 30
0.0
 11
736.374768
 21
200.0
 31
0.0
  0
LINE
  8
0
 10
737.081875
 20
203.792893
 30
0.0
 11
735.167662
 21
205.707107
 31
0.0
  0
LINE
  8
0
 10
720.874768
 20
200.0
 30
0.0
 11
726.101679
 21
200.0
 31
0.0
  0
LINE
  8
0
 10
682.374768
 20
201.0
 30
0.0
 11
682.374768
 21
205.0
 31
0.0
  0
LINE
  8
0
 10
720.374768
 20
197.5
 30
0.0
 11
720.374768
 21
199.5
 31
0.0
  0
LINE
  8
0
 10
716.339234
 20
199.12132
 30
0.0
 11
718.667662
 21
196.792893
 31
0.0
  0
LINE
  8
0
 10
683.374768
 20
200.0
 30
0.0
 11
714.217914
 21
200.0
 31
0.0
  0
LINE
  8
0
 10
734.460555
 20
206.0
 30
0.0
 11
683.374768
 21
206.0
 31
0.0
  0
LINE
  8
0
 10
735.374768
 20
202.671573
 30
0.0
 11
734.046341
 21
204.0
 31
0.0
  0
LINE
  8
0
 10
735.374768
 20
202.0
 30
0.0
 11
735.374768
 21
202.671573
 31
0.0
  0
LINE
  8
0
 10
720.374768
 20
202.0
 30
0.0
 11
735.374768
 21
202.0
 31
0.0
  0
LINE
  8
0
 10
684.374768
 20
204.0
 30
0.0
 11
734.046341
 21
204.0
 31
0.0
  0
LINE
  8
0
 10
684.374768
 20
204.0
 30
0.0
 11
684.374768
 21
202.0
 31
0.0
  0
LINE
  8
0
 10
720.374768
 20
203.0
 30
0.0
 11
720.374768
 21
202.0
 31
0.0
  0
LINE
  8
0
 10
684.374768
 20
202.0
 30
0.0
 11
716.081875
 21
202.0
 31
0.0
  0
LINE
  8
0
 10
716.435429
 20
201.853553
 30
0.0
 11
718.374768
 21
199.914214
 31
0.0
  0
LINE
  8
0
 10
718.374768
 20
203.0
 30
0.0
 11
718.374768
 21
199.914214
 31
0.0
  0
LINE
  8
0
 10
439.874768
 20
149.0
 30
0.0
 11
439.874768
 21
189.757359
 31
0.0
  0
LINE
  8
0
 10
440.753448
 20
191.87868
 30
0.0
 11
447.167662
 21
198.292893
 31
0.0
  0
LINE
  8
0
 10
443.956991
 20
191.136286
 30
0.0
 11
452.233644
 21
199.414214
 31
0.0
  0
LINE
  8
0
 10
443.371205
 20
189.722073
 30
0.0
 11
443.374768
 21
151.5
 31
0.0
  0
LINE
  8
0
 10
442.374768
 20
203.085786
 30
0.0
 11
442.374768
 21
201.0
 31
0.0
  0
LINE
  8
0
 10
443.374768
 20
200.0
 30
0.0
 11
446.460555
 21
200.0
 31
0.0
  0
LINE
  8
0
 10
444.581875
 20
205.707107
 30
0.0
 11
442.667662
 21
203.792893
 31
0.0
  0
LINE
  8
0
 10
453.647858
 20
200.0
 30
0.0
 11
458.874768
 21
200.0
 31
0.0
  0
LINE
  8
0
 10
497.374768
 20
205.0
 30
0.0
 11
497.374768
 21
201.0
 31
0.0
  0
LINE
  8
0
 10
459.374768
 20
199.5
 30
0.0
 11
459.374768
 21
197.5
 31
0.0
  0
LINE
  8
0
 10
461.081875
 20
196.792893
 30
0.0
 11
463.410302
 21
199.12132
 31
0.0
  0
LINE
  8
0
 10
465.531623
 20
200.0
 30
0.0
 11
496.374768
 21
200.0
 31
0.0
  0
LINE
  8
0
 10
496.374768
 20
206.0
 30
0.0
 11
445.288982
 21
206.0
 31
0.0
  0
LINE
  8
0
 10
445.703195
 20
204.0
 30
0.0
 11
444.374768
 21
202.671573
 31
0.0
  0
LINE
  8
0
 10
444.374768
 20
202.671573
 30
0.0
 11
444.374768
 21
202.0
 31
0.0
  0
LINE
  8
0
 10
444.374768
 20
202.0
 30
0.0
 11
459.374768
 21
202.0
 31
0.0
  0
LINE
  8
0
 10
445.703195
 20
204.0
 30
0.0
 11
495.374768
 21
204.0
 31
0.0
  0
LINE
  8
0
 10
495.374768
 20
202.0
 30
0.0
 11
495.374768
 21
204.0
 31
0.0
  0
LINE
  8
0
 10
459.374768
 20
202.0
 30
0.0
 11
459.374768
 21
203.0
 31
0.0
  0
LINE
  8
0
 10
463.667662
 20
202.0
 30
0.0
 11
495.374768
 21
202.0
 31
0.0
  0
LINE
  8
0
 10
461.374768
 20
199.914214
 30
0.0
 11
463.314108
 21
201.853553
 31
0.0
  0
LINE
  8
0
 10
461.374768
 20
199.914214
 30
0.0
 11
461.374768
 21
203.0
 31
0.0
  0
LINE
  8
0
 10
445.374768
 20
149.5
 30
0.0
 11
734.374768
 21
149.5
 31
0.0
  0
LINE
  8
0
 10
442.874768
 20
146.0
 30
0.0
 11
736.874768
 21
146.0
 31
0.0
  0
ARC
  8
0
 10
719.374768
 20
203.0
 30
0.0
 40
1.0
 50
0.0
 51
180.0
  0
ARC
  8
0
 10
719.374768
 20
197.5
 30
0.0
 40
1.0
 50
225.0
 51
0.0
  0
ARC
  8
0
 10
460.374768
 20
203.0
 30
0.0
 40
1.0
 50
0.0
 51
180.0
  0
ARC
  8
0
 10
460.374768
 20
197.5
 30
0.0
 40
1.0
 50
180.0
 51
315.0
  0
ARC
  8
0
 10
736.874768
 20
149.0
 30
0.0
 40
3.0
 50
270.0
 51
0.0
  0
ARC
  8
0
 10
734.374768
 20
151.5
 30
0.0
 40
2.0
 50
270.0
 51
0.0
  0
ARC
  8
0
 10
733.288982
 20
199.0
 30
0.0
 40
1.0
 50
90.0
 51
225.0
  0
ARC
  8
0
 10
736.374768
 20
201.0
 30
0.0
 40
1.0
 50
270.0
 51
0.0
  0
ARC
  8
0
 10
683.374768
 20
205.0
 30
0.0
 40
1.0
 50
90.0
 51
180.0
  0
ARC
  8
0
 10
683.374768
 20
201.0
 30
0.0
 40
1.0
 50
180.0
 51
270.0
  0
ARC
  8
0
 10
716.081875
 20
201.5
 30
0.0
 40
0.5
 50
45.0
 51
90.0
  0
ARC
  8
0
 10
734.460555
 20
205.0
 30
0.0
 40
1.0
 50
45.0
 51
90.0
  0
ARC
  8
0
 10
736.374768
 20
203.085786
 30
0.0
 40
1.0
 50
0.0
 51
45.0
  0
ARC
  8
0
 10
726.101679
 20
198.0
 30
0.0
 40
2.0
 50
45.0
 51
90.0
  0
ARC
  8
0
 10
720.874768
 20
199.5
 30
0.0
 40
0.5
 50
90.0
 51
180.0
  0
ARC
  8
0
 10
714.217914
 20
197.0
 30
0.0
 40
3.0
 50
45.0
 51
90.0
  0
ARC
  8
0
 10
734.378332
 20
189.722073
 30
0.0
 40
2.0
 50
0.0
 51
45.0
  0
ARC
  8
0
 10
736.874768
 20
189.757359
 30
0.0
 40
3.0
 50
0.0
 51
45.0
  0
ARC
  8
0
 10
446.460555
 20
199.0
 30
0.0
 40
1.0
 50
315.0
 51
90.0
  0
ARC
  8
0
 10
443.374768
 20
201.0
 30
0.0
 40
1.0
 50
180.0
 51
270.0
  0
ARC
  8
0
 10
496.374768
 20
205.0
 30
0.0
 40
1.0
 50
0.0
 51
90.0
  0
ARC
  8
0
 10
496.374768
 20
201.0
 30
0.0
 40
1.0
 50
270.0
 51
0.0
  0
ARC
  8
0
 10
463.667662
 20
201.5
 30
0.0
 40
0.5
 50
90.0
 51
135.0
  0
ARC
  8
0
 10
445.288982
 20
205.0
 30
0.0
 40
1.0
 50
90.0
 51
135.0
  0
ARC
  8
0
 10
443.374768
 20
203.085786
 30
0.0
 40
1.0
 50
135.0
 51
180.0
  0
ARC
  8
0
 10
453.647858
 20
198.0
 30
0.0
 40
2.0
 50
90.0
 51
135.0
  0
ARC
  8
0
 10
458.874768
 20
199.5
 30
0.0
 40
0.5
 50
0.0
 51
90.0
  0
ARC
  8
0
 10
465.531623
 20
197.0
 30
0.0
 40
3.0
 50
90.0
 51
135.0
  0
ARC
  8
0
 10
445.371205
 20
189.722073
 30
0.0
 40
2.0
 50
135.0
 51
180.0
  0
ARC
  8
0
 10
442.874768
 20
149.0
 30
0.0
 40
3.0
 50
180.0
 51
270.0
  0
ARC
  8
0
 10
445.374768
 20
151.5
 30
0.0
 40
2.0
 50
180.0
 51
270.0
  0
ARC
  8
0
 10
442.874768
 20
189.757359
 30
0.0
 40
3.0
 50
135.0
 51
180.0
  0
LINE
  8
0
 10
538.572864
 20
153.5
 30
0.0
 11
563.572864
 21
153.5
 31
0.0
  0
LINE
  8
0
 10
534.572864
 20
188.014719
 30
0.0
 11
534.572864
 21
157.5
 31
0.0
  0
LINE
  8
0
 10
541.729719
 20
196.0
 30
0.0
 11
535.158651
 21
189.428932
 31
0.0
  0
LINE
  8
0
 10
542.572864
 20
196.0
 30
0.0
 11
541.729719
 21
196.0
 31
0.0
  0
LINE
  8
0
 10
546.572864
 20
199.0
 30
0.0
 11
546.572864
 21
196.0
 31
0.0
  0
LINE
  8
0
 10
540.901292
 20
200.0
 30
0.0
 11
545.572864
 21
200.0
 31
0.0
  0
LINE
  8
0
 10
532.330224
 20
192.257359
 30
0.0
 11
539.487078
 21
199.414214
 31
0.0
  0
LINE
  8
0
 10
530.572864
 20
157.5
 30
0.0
 11
530.572864
 21
188.014719
 31
0.0
  0
LINE
  8
0
 10
563.572864
 20
149.5
 30
0.0
 11
538.572864
 21
149.5
 31
0.0
  0
ARC
  8
0
 10
536.572864
 20
188.014719
 30
0.0
 40
2.0
 50
135.0
 51
180.0
  0
ARC
  8
0
 10
538.572864
 20
157.5
 30
0.0
 40
4.0
 50
180.0
 51
270.0
  0
ARC
  8
0
 10
538.572864
 20
157.5
 30
0.0
 40
8.0
 50
180.0
 51
270.0
  0
ARC
  8
0
 10
536.572864
 20
188.014719
 30
0.0
 40
6.0
 50
135.0
 51
180.0
  0
ARC
  8
0
 10
545.572864
 20
199.0
 30
0.0
 40
1.0
 50
0.0
 51
90.0
  0
ARC
  8
0
 10
540.901292
 20
198.0
 30
0.0
 40
2.0
 50
90.0
 51
135.0
  0
ARC
  8
0
 10
544.572864
 20
196.0
 30
0.0
 40
2.0
 50
180.0
 51
0.0
  0
ARC
  8
0
 10
563.572864
 20
151.5
 30
0.0
 40
2.0
 50
0.0
 51
90.0
  0
ARC
  8
0
 10
563.572864
 20
151.5
 30
0.0
 40
2.0
 50
270.0
 51
0.0
  0
LINE
  8
0
 10
394.813258
 20
146.0
 30
0.0
 11
746.813258
 21
146.0
 31
0.0
  0
LINE
  8
0
 10
382.813258
 20
69.0
 30
0.0
 11
382.813258
 21
178.0
 31
0.0
  0
LINE
  8
0
 10
382.813258
 20
69.0
 30
0.0
 11
427.813258
 21
69.0
 31
0.0
  0
LINE
  8
0
 10
382.813258
 20
178.0
 30
0.0
 11
387.813258
 21
178.0
 31
0.0
  0
LINE
  8
0
 10
387.813258
 20
178.0
 30
0.0
 11
387.813258
 21
153.0
 31
0.0
  0
LINE
  8
0
 10
397.663448
 20
130.931178
 30
0.0
 11
394.663448
 21
122.931178
 31
0.0
  0
LINE
  8
0
 10
407.963068
 20
127.068822
 30
0.0
 11
404.963068
 21
119.068822
 31
0.0
  0
LINE
  8
0
 10
433.813258
 20
146.0
 30
0.0
 11
433.813258
 21
152.5
 31
0.0
  0
LINE
  8
0
 10
746.813258
 20
146.0
 30
0.0
 11
746.813258
 21
136.0
 31
0.0
  0
LINE
  8
0
 10
743.582182
 20
131.323366
 30
0.0
 11
427.813258
 21
69.0
 31
0.0
  0
LINE
  8
0
 10
430.813258
 20
146.0
 30
0.0
 11
430.813258
 21
152.5
 31
0.0
  0
LINE
  8
0
 10
405.918988
 20
154.998255
 30
0.0
 11
387.813258
 21
175.209302
 31
0.0
  0
LINE
  8
0
 10
432.813258
 20
154.0
 30
0.0
 11
432.313258
 21
154.0
 31
0.0
  0
LINE
  8
0
 10
432.313258
 20
154.0
 30
0.0
 11
408.153494
 21
154.0
 31
0.0
  0
ARC
  8
0
 10
402.813258
 20
129.0
 30
0.0
 40
5.5
 50
339.443955
 51
159.443955
  0
ARC
  8
0
 10
399.813258
 20
121.0
 30
0.0
 40
5.5
 50
159.443955
 51
339.443955
  0
ARC
  8
0
 10
394.813258
 20
153.0
 30
0.0
 40
7.0
 50
180.0
 51
270.0
  0
ARC
  8
0
 10
741.813258
 20
136.0
 30
0.0
 40
5.0
 50
290.718978
 51
0.0
  0
ARC
  8
0
 10
432.313258
 20
152.5
 30
0.0
 40
1.5
 50
0.0
 51
180.0
  0
ARC
  8
0
 10
408.153494
 20
157.0
 30
0.0
 40
3.0
 50
221.855043
 51
270.0
  0
LINE
  8
0
 10
357.819175
 20
258.824225
 30
0.0
 11
362.494949
 21
263.5
 31
0.0
  0
LINE
  8
0
 10
357.819175
 20
244.68209
 30
0.0
 11
376.637085
 21
263.5
 31
0.0
  0
LINE
  8
0
 10
357.819175
 20
230.539954
 30
0.0
 11
382.819175
 21
255.539954
 31
0.0
  0
LINE
  8
0
 10
357.819175
 20
216.397818
 30
0.0
 11
382.819175
 21
241.397818
 31
0.0
  0
LINE
  8
0
 10
357.819175
 20
202.255683
 30
0.0
 11
382.819175
 21
227.255683
 31
0.0
  0
LINE
  8
0
 10
357.819175
 20
188.113547
 30
0.0
 11
382.819175
 21
213.113547
 31
0.0
  0
LINE
  8
0
 10
357.819175
 20
173.971411
 30
0.0
 11
382.819175
 21
198.971411
 31
0.0
  0
LINE
  8
0
 10
357.819175
 20
159.829276
 30
0.0
 11
382.819175
 21
184.829276
 31
0.0
  0
LINE
  8
0
 10
357.819175
 20
145.68714
 30
0.0
 11
382.819175
 21
170.68714
 31
0.0
  0
LINE
  8
0
 10
357.819175
 20
131.545005
 30
0.0
 11
382.819175
 21
156.545005
 31
0.0
  0
LINE
  8
0
 10
357.819175
 20
117.402869
 30
0.0
 11
382.819175
 21
142.402869
 31
0.0
  0
LINE
  8
0
 10
357.819175
 20
103.260733
 30
0.0
 11
382.819175
 21
128.260733
 31
0.0
  0
LINE
  8
0
 10
357.819175
 20
89.118598
 30
0.0
 11
382.819175
 21
114.118598
 31
0.0
  0
LINE
  8
0
 10
357.819175
 20
74.976462
 30
0.0
 11
382.819175
 21
99.976462
 31
0.0
  0
LINE
  8
0
 10
357.819175
 20
60.834326
 30
0.0
 11
382.819175
 21
85.834326
 31
0.0
  0
LINE
  8
0
 10
357.819175
 20
46.692191
 30
0.0
 11
382.819175
 21
71.692191
 31
0.0
  0
LINE
  8
0
 10
357.819175
 20
32.550055
 30
0.0
 11
382.819175
 21
57.550055
 31
0.0
  0
LINE
  8
0
 10
357.819175
 20
18.40792
 30
0.0
 11
382.819175
 21
43.40792
 31
0.0
  0
LINE
  8
0
 10
357.819175
 20
4.265784
 30
0.0
 11
382.819175
 21
29.265784
 31
0.0
  0
LINE
  8
0
 10
357.819175
 20
-9.876352
 30
0.0
 11
382.819175
 21
15.123648
 31
0.0
  0
LINE
  8
0
 10
365.337662
 20
-16.5
 30
0.0
 11
382.819175
 21
0.981513
 31
0.0
  0
LINE
  8
0
 10
379.479797
 20
-16.5
 30
0.0
 11
382.819175
 21
-13.160623
 31
0.0
  0
LINE
  8
0
 10
650.773107
 20
149.5
 30
0.0
 11
625.773107
 21
149.5
 31
0.0
  0
LINE
  8
0
 10
617.773107
 20
157.5
 30
0.0
 11
617.773107
 21
188.014719
 31
0.0
  0
LINE
  8
0
 10
619.530466
 20
192.257359
 30
0.0
 11
626.687321
 21
199.414214
 31
0.0
  0
LINE
  8
0
 10
628.101534
 20
200.0
 30
0.0
 11
632.773107
 21
200.0
 31
0.0
  0
LINE
  8
0
 10
633.773107
 20
199.0
 30
0.0
 11
633.773107
 21
196.0
 31
0.0
  0
LINE
  8
0
 10
629.773107
 20
196.0
 30
0.0
 11
628.929961
 21
196.0
 31
0.0
  0
LINE
  8
0
 10
628.929961
 20
196.0
 30
0.0
 11
622.358894
 21
189.428932
 31
0.0
  0
LINE
  8
0
 10
621.773107
 20
188.014719
 30
0.0
 11
621.773107
 21
157.5
 31
0.0
  0
LINE
  8
0
 10
625.773107
 20
153.5
 30
0.0
 11
650.773107
 21
153.5
 31
0.0
  0
ARC
  8
0
 10
650.773107
 20
151.5
 30
0.0
 40
2.0
 50
270.0
 51
0.0
  0
ARC
  8
0
 10
650.773107
 20
151.5
 30
0.0
 40
2.0
 50
0.0
 51
90.0
  0
ARC
  8
0
 10
631.773107
 20
196.0
 30
0.0
 40
2.0
 50
180.0
 51
0.0
  0
ARC
  8
0
 10
628.101534
 20
198.0
 30
0.0
 40
2.0
 50
90.0
 51
135.0
  0
ARC
  8
0
 10
632.773107
 20
199.0
 30
0.0
 40
1.0
 50
0.0
 51
90.0
  0
ARC
  8
0
 10
623.773107
 20
188.014719
 30
0.0
 40
6.0
 50
135.0
 51
180.0
  0
ARC
  8
0
 10
625.773107
 20
157.5
 30
0.0
 40
8.0
 50
180.0
 51
270.0
  0
ARC
  8
0
 10
625.773107
 20
157.5
 30
0.0
 40
4.0
 50
180.0
 51
270.0
  0
ARC
  8
0
 10
623.773107
 20
188.014719
 30
0.0
 40
2.0
 50
135.0
 51
180.0
  0
ENDSEC
  0
EOF
