  0
SECTION
  2
HEADER
  9
$ACADVER
  1
AC1009
  9
$INSBASE
 10
0.0
 20
0.0
 30
0.0
  9
$EXTMIN
 10
-785.81373
 20
-16.5
 30
0.0
  9
$EXTMAX
 10
-396.090435
 20
263.5
 30
0.0
  9
$LIMMIN
 10
-785.81373
 20
-16.5
  9
$LIMMAX
 10
-396.819647
 20
263.5
  9
$ORTHOMODE
 70
     0
  9
$REGENMODE
 70
     1
  9
$FILLMODE
 70
     1
  9
$QTEXTMODE
 70
     0
  9
$MIRRTEXT
 70
     1
  9
$DRAGMODE
 70
     2
  9
$LTSCALE
 40
1.0
  9
$OSMODE
 70
     0
  9
$ATTMODE
 70
     1
  9
$TEXTSIZE
 40
3.5
  9
$TRACEWID
 40
0.5
  9
$TEXTSTYLE
  7
STANDARD
  9
$CLAYER
  8
0
  9
$CELTYPE
  6
BYLAYER
  9
$CECOLOR
 62
   256
  9
$DIMSCALE
 40
1.0
  9
$DIMASZ
 40
0.18
  9
$DIMEXO
 40
0.0625
  9
$DIMDLI
 40
0.38
  9
$DIMRND
 40
0.0
  9
$DIMDLE
 40
0.0
  9
$DIMEXE
 40
0.18
  9
$DIMTP
 40
0.0
  9
$DIMTM
 40
0.0
  9
$DIMTXT
 40
0.18
  9
$DIMCEN
 40
0.09
  9
$DIMTSZ
 40
0.0
  9
$DIMTOL
 70
     0
  9
$DIMLIM
 70
     0
  9
$DIMTIH
 70
     1
  9
$DIMTOH
 70
     1
  9
$DIMSE1
 70
     0
  9
$DIMSE2
 70
     0
  9
$DIMTAD
 70
     0
  9
$DIMZIN
 70
     0
  9
$DIMBLK
  1

  9
$DIMASO
 70
     1
  9
$DIMSHO
 70
     1
  9
$DIMPOST
  1

  9
$DIMAPOST
  1

  9
$DIMALT
 70
     0
  9
$DIMALTD
 70
     2
  9
$DIMALTF
 40
25.4
  9
$DIMLFAC
 40
1.0
  9
$DIMTOFL
 70
     0
  9
$DIMTVP
 40
0.0
  9
$DIMTIX
 70
     0
  9
$DIMSOXD
 70
     0
  9
$DIMSAH
 70
     0
  9
$DIMBLK1
  1

  9
$DIMBLK2
  1

  9
$DIMSTYLE
  2
*UNNAMED
  9
$DIMCLRD
 70
     0
  9
$DIMCLRE
 70
     0
  9
$DIMCLRT
 70
     0
  9
$DIMTFAC
 40
1.0
  9
$DIMGAP
 40
0.09
  9
$LUNITS
 70
     2
  9
$LUPREC
 70
     4
  9
$SKETCHINC
 40
0.1
  9
$FILLETRAD
 40
2.0
  9
$AUNITS
 70
     0
  9
$AUPREC
 70
     0
  9
$MENU
  1
ACAD
  9
$ELEVATION
 40
0.0
  9
$PELEVATION
 40
0.0
  9
$THICKNESS
 40
0.0
  9
$LIMCHECK
 70
     0
  9
$BLIPMODE
 70
     1
  9
$CHAMFERA
 40
0.0
  9
$CHAMFERB
 40
0.0
  9
$SKPOLY
 70
     0
  9
$TDCREATE
 40
2450948.423364931
  9
$TDUPDATE
 40
2450948.423853125
  9
$TDINDWG
 40
0.0002581019
  9
$TDUSRTIMER
 40
0.0002581019
  9
$USRTIMER
 70
     1
  9
$ANGBASE
 50
0.0
  9
$ANGDIR
 70
     0
  9
$PDMODE
 70
     0
  9
$PDSIZE
 40
0.0
  9
$PLINEWID
 40
0.0
  9
$COORDS
 70
     2
  9
$SPLFRAME
 70
     0
  9
$SPLINETYPE
 70
     6
  9
$SPLINESEGS
 70
     8
  9
$ATTDIA
 70
     0
  9
$ATTREQ
 70
     1
  9
$HANDLING
 70
     0
  9
$HANDSEED
  5
0
  9
$SURFTAB1
 70
     6
  9
$SURFTAB2
 70
     6
  9
$SURFTYPE
 70
     6
  9
$SURFU
 70
     6
  9
$SURFV
 70
     6
  9
$UCSNAME
  2

  9
$UCSORG
 10
0.0
 20
0.0
 30
0.0
  9
$UCSXDIR
 10
1.0
 20
0.0
 30
0.0
  9
$UCSYDIR
 10
0.0
 20
1.0
 30
0.0
  9
$PUCSNAME
  2

  9
$PUCSORG
 10
0.0
 20
0.0
 30
0.0
  9
$PUCSXDIR
 10
1.0
 20
0.0
 30
0.0
  9
$PUCSYDIR
 10
0.0
 20
1.0
 30
0.0
  9
$USERI1
 70
     0
  9
$USERI2
 70
     0
  9
$USERI3
 70
     0
  9
$USERI4
 70
     0
  9
$USERI5
 70
     0
  9
$USERR1
 40
0.0
  9
$USERR2
 40
0.0
  9
$USERR3
 40
0.0
  9
$USERR4
 40
0.0
  9
$USERR5
 40
0.0
  9
$WORLDVIEW
 70
     1
  9
$SHADEDGE
 70
     3
  9
$SHADEDIF
 70
    70
  9
$TILEMODE
 70
     1
  9
$MAXACTVP
 70
    16
  9
$PINSBASE
 10
0.0
 20
0.0
 30
0.0
  9
$PLIMCHECK
 70
     0
  9
$PEXTMIN
 10
1.000000E+20
 20
1.000000E+20
 30
1.000000E+20
  9
$PEXTMAX
 10
-1.000000E+20
 20
-1.000000E+20
 30
-1.000000E+20
  9
$PLIMMIN
 10
0.0
 20
0.0
  9
$PLIMMAX
 10
420.0
 20
297.0
  9
$UNITMODE
 70
     0
  9
$VISRETAIN
 70
     0
  9
$PLINEGEN
 70
     0
  9
$PSLTSCALE
 70
     1
  9
$TREEDEPTH
 70
  3020
  9
$DWGCODEPAGE
  3
iso8859-1
  0
ENDSEC
  0
SECTION
  2
TABLES
  0
TABLE
  2
VPORT
 70
     2
  0
VPORT
  2
*ACTIVE
 70
     0
 10
0.0
 20
0.0
 11
1.0
 21
1.0
 12
-611.006768
 22
90.025184
 13
0.0
 23
0.0
 14
1.0
 24
1.0
 15
0.0
 25
0.0
 16
0.0
 26
0.0
 36
1.0
 17
0.0
 27
0.0
 37
0.0
 40
365.823754
 41
1.748359
 42
50.0
 43
0.0
 44
0.0
 50
0.0
 51
0.0
 71
     0
 72
   100
 73
     1
 74
     0
 75
     0
 76
     0
 77
     0
 78
     0
  0
ENDTAB
  0
TABLE
  2
LTYPE
 70
     1
  0
LTYPE
  2
CONTINUOUS
 70
    64
  3
Solid line
 72
    65
 73
     0
 40
0.0
  0
ENDTAB
  0
TABLE
  2
LAYER
 70
     1
  0
LAYER
  2
0
 70
    64
 62
     7
  6
CONTINUOUS
  0
ENDTAB
  0
TABLE
  2
STYLE
 70
     1
  0
STYLE
  2
STANDARD
 70
     0
 40
0.0
 41
1.0
 50
0.0
 71
     0
 42
3.5
  3
txt
  4

  0
ENDTAB
  0
TABLE
  2
VIEW
 70
     0
  0
ENDTAB
  0
TABLE
  2
UCS
 70
     0
  0
ENDTAB
  0
TABLE
  2
APPID
 70
     1
  0
APPID
  2
ACAD
 70
    64
  0
ENDTAB
  0
TABLE
  2
DIMSTYLE
 70
     0
  0
ENDTAB
  0
ENDSEC
  0
SECTION
  2
BLOCKS
  0
ENDSEC
  0
SECTION
  2
ENTITIES
  0
LINE
  8
0
 10
-760.819647
 20
69.0
 30
0.0
 11
-760.81373
 21
-16.5
 31
0.0
  0
LINE
  8
0
 10
-760.819647
 20
178.0
 30
0.0
 11
-760.81373
 21
263.5
 31
0.0
  0
LINE
  8
0
 10
-702.819647
 20
146.0
 30
0.0
 11
-508.819647
 21
146.0
 31
0.0
  0
LINE
  8
0
 10
-407.258137
 20
151.5
 30
0.0
 11
-407.254573
 21
189.722073
 31
0.0
  0
LINE
  8
0
 10
-403.758137
 20
189.757359
 30
0.0
 11
-403.758137
 21
149.0
 31
0.0
  0
LINE
  8
0
 10
-411.05103
 20
198.292893
 30
0.0
 11
-404.636816
 21
191.87868
 31
0.0
  0
LINE
  8
0
 10
-416.117013
 20
199.414214
 30
0.0
 11
-407.840359
 21
191.136286
 31
0.0
  0
LINE
  8
0
 10
-406.258137
 20
201.0
 30
0.0
 11
-406.258137
 21
203.085786
 31
0.0
  0
LINE
  8
0
 10
-410.343923
 20
200.0
 30
0.0
 11
-407.258137
 21
200.0
 31
0.0
  0
LINE
  8
0
 10
-406.55103
 20
203.792893
 30
0.0
 11
-408.465243
 21
205.707107
 31
0.0
  0
LINE
  8
0
 10
-422.758137
 20
200.0
 30
0.0
 11
-417.531226
 21
200.0
 31
0.0
  0
LINE
  8
0
 10
-461.258137
 20
201.0
 30
0.0
 11
-461.258137
 21
205.0
 31
0.0
  0
LINE
  8
0
 10
-423.258137
 20
197.5
 30
0.0
 11
-423.258137
 21
199.5
 31
0.0
  0
LINE
  8
0
 10
-427.29367
 20
199.12132
 30
0.0
 11
-424.965243
 21
196.792893
 31
0.0
  0
LINE
  8
0
 10
-460.258137
 20
200.0
 30
0.0
 11
-429.414991
 21
200.0
 31
0.0
  0
LINE
  8
0
 10
-409.17235
 20
206.0
 30
0.0
 11
-460.258137
 21
206.0
 31
0.0
  0
LINE
  8
0
 10
-408.258137
 20
202.671573
 30
0.0
 11
-409.586564
 21
204.0
 31
0.0
  0
LINE
  8
0
 10
-408.258137
 20
202.0
 30
0.0
 11
-408.258137
 21
202.671573
 31
0.0
  0
LINE
  8
0
 10
-423.258137
 20
202.0
 30
0.0
 11
-408.258137
 21
202.0
 31
0.0
  0
LINE
  8
0
 10
-459.258137
 20
204.0
 30
0.0
 11
-409.586564
 21
204.0
 31
0.0
  0
LINE
  8
0
 10
-459.258137
 20
204.0
 30
0.0
 11
-459.258137
 21
202.0
 31
0.0
  0
LINE
  8
0
 10
-423.258137
 20
203.0
 30
0.0
 11
-423.258137
 21
202.0
 31
0.0
  0
LINE
  8
0
 10
-459.258137
 20
202.0
 30
0.0
 11
-427.55103
 21
202.0
 31
0.0
  0
LINE
  8
0
 10
-427.197476
 20
201.853553
 30
0.0
 11
-425.258137
 21
199.914214
 31
0.0
  0
LINE
  8
0
 10
-425.258137
 20
203.0
 30
0.0
 11
-425.258137
 21
199.914214
 31
0.0
  0
LINE
  8
0
 10
-703.758137
 20
149.0
 30
0.0
 11
-703.758137
 21
189.757359
 31
0.0
  0
LINE
  8
0
 10
-702.879457
 20
191.87868
 30
0.0
 11
-696.465243
 21
198.292893
 31
0.0
  0
LINE
  8
0
 10
-699.675914
 20
191.136286
 30
0.0
 11
-691.399261
 21
199.414214
 31
0.0
  0
LINE
  8
0
 10
-700.2617
 20
189.722073
 30
0.0
 11
-700.258137
 21
151.5
 31
0.0
  0
LINE
  8
0
 10
-701.258137
 20
203.085786
 30
0.0
 11
-701.258137
 21
201.0
 31
0.0
  0
LINE
  8
0
 10
-700.258137
 20
200.0
 30
0.0
 11
-697.17235
 21
200.0
 31
0.0
  0
LINE
  8
0
 10
-699.05103
 20
205.707107
 30
0.0
 11
-700.965243
 21
203.792893
 31
0.0
  0
LINE
  8
0
 10
-689.985047
 20
200.0
 30
0.0
 11
-684.758137
 21
200.0
 31
0.0
  0
LINE
  8
0
 10
-646.258137
 20
205.0
 30
0.0
 11
-646.258137
 21
201.0
 31
0.0
  0
LINE
  8
0
 10
-684.258137
 20
199.5
 30
0.0
 11
-684.258137
 21
197.5
 31
0.0
  0
LINE
  8
0
 10
-682.55103
 20
196.792893
 30
0.0
 11
-680.222603
 21
199.12132
 31
0.0
  0
LINE
  8
0
 10
-678.101282
 20
200.0
 30
0.0
 11
-647.258137
 21
200.0
 31
0.0
  0
LINE
  8
0
 10
-647.258137
 20
206.0
 30
0.0
 11
-698.343923
 21
206.0
 31
0.0
  0
LINE
  8
0
 10
-697.929709
 20
204.0
 30
0.0
 11
-699.258137
 21
202.671573
 31
0.0
  0
LINE
  8
0
 10
-699.258137
 20
202.671573
 30
0.0
 11
-699.258137
 21
202.0
 31
0.0
  0
LINE
  8
0
 10
-699.258137
 20
202.0
 30
0.0
 11
-684.258137
 21
202.0
 31
0.0
  0
LINE
  8
0
 10
-697.929709
 20
204.0
 30
0.0
 11
-648.258137
 21
204.0
 31
0.0
  0
LINE
  8
0
 10
-648.258137
 20
202.0
 30
0.0
 11
-648.258137
 21
204.0
 31
0.0
  0
LINE
  8
0
 10
-684.258137
 20
202.0
 30
0.0
 11
-684.258137
 21
203.0
 31
0.0
  0
LINE
  8
0
 10
-679.965243
 20
202.0
 30
0.0
 11
-648.258137
 21
202.0
 31
0.0
  0
LINE
  8
0
 10
-682.258137
 20
199.914214
 30
0.0
 11
-680.318797
 21
201.853553
 31
0.0
  0
LINE
  8
0
 10
-682.258137
 20
199.914214
 30
0.0
 11
-682.258137
 21
203.0
 31
0.0
  0
LINE
  8
0
 10
-698.258137
 20
149.5
 30
0.0
 11
-409.258137
 21
149.5
 31
0.0
  0
LINE
  8
0
 10
-700.758137
 20
146.0
 30
0.0
 11
-406.758137
 21
146.0
 31
0.0
  0
ARC
  8
0
 10
-424.258137
 20
203.0
 30
0.0
 40
1.0
 50
0.0
 51
180.0
  0
ARC
  8
0
 10
-424.258137
 20
197.5
 30
0.0
 40
1.0
 50
225.0
 51
0.0
  0
ARC
  8
0
 10
-683.258137
 20
203.0
 30
0.0
 40
1.0
 50
0.0
 51
180.0
  0
ARC
  8
0
 10
-683.258137
 20
197.5
 30
0.0
 40
1.0
 50
180.0
 51
315.0
  0
ARC
  8
0
 10
-406.758137
 20
149.0
 30
0.0
 40
3.0
 50
270.0
 51
0.0
  0
ARC
  8
0
 10
-409.258137
 20
151.5
 30
0.0
 40
2.0
 50
270.0
 51
0.0
  0
ARC
  8
0
 10
-410.343923
 20
199.0
 30
0.0
 40
1.0
 50
90.0
 51
225.0
  0
ARC
  8
0
 10
-407.258137
 20
201.0
 30
0.0
 40
1.0
 50
270.0
 51
0.0
  0
ARC
  8
0
 10
-460.258137
 20
205.0
 30
0.0
 40
1.0
 50
90.0
 51
180.0
  0
ARC
  8
0
 10
-460.258137
 20
201.0
 30
0.0
 40
1.0
 50
180.0
 51
270.0
  0
ARC
  8
0
 10
-427.55103
 20
201.5
 30
0.0
 40
0.5
 50
45.0
 51
90.0
  0
ARC
  8
0
 10
-409.17235
 20
205.0
 30
0.0
 40
1.0
 50
45.0
 51
90.0
  0
ARC
  8
0
 10
-407.258137
 20
203.085786
 30
0.0
 40
1.0
 50
0.0
 51
45.0
  0
ARC
  8
0
 10
-417.531226
 20
198.0
 30
0.0
 40
2.0
 50
45.0
 51
90.0
  0
ARC
  8
0
 10
-422.758137
 20
199.5
 30
0.0
 40
0.5
 50
90.0
 51
180.0
  0
ARC
  8
0
 10
-429.414991
 20
197.0
 30
0.0
 40
3.0
 50
45.0
 51
90.0
  0
ARC
  8
0
 10
-409.254573
 20
189.722073
 30
0.0
 40
2.0
 50
0.0
 51
45.0
  0
ARC
  8
0
 10
-406.758137
 20
189.757359
 30
0.0
 40
3.0
 50
0.0
 51
45.0
  0
ARC
  8
0
 10
-697.17235
 20
199.0
 30
0.0
 40
1.0
 50
315.0
 51
90.0
  0
ARC
  8
0
 10
-700.258137
 20
201.0
 30
0.0
 40
1.0
 50
180.0
 51
270.0
  0
ARC
  8
0
 10
-647.258137
 20
205.0
 30
0.0
 40
1.0
 50
0.0
 51
90.0
  0
ARC
  8
0
 10
-647.258137
 20
201.0
 30
0.0
 40
1.0
 50
270.0
 51
0.0
  0
ARC
  8
0
 10
-679.965243
 20
201.5
 30
0.0
 40
0.5
 50
90.0
 51
135.0
  0
ARC
  8
0
 10
-698.343923
 20
205.0
 30
0.0
 40
1.0
 50
90.0
 51
135.0
  0
ARC
  8
0
 10
-700.258137
 20
203.085786
 30
0.0
 40
1.0
 50
135.0
 51
180.0
  0
ARC
  8
0
 10
-689.985047
 20
198.0
 30
0.0
 40
2.0
 50
90.0
 51
135.0
  0
ARC
  8
0
 10
-684.758137
 20
199.5
 30
0.0
 40
0.5
 50
0.0
 51
90.0
  0
ARC
  8
0
 10
-678.101282
 20
197.0
 30
0.0
 40
3.0
 50
90.0
 51
135.0
  0
ARC
  8
0
 10
-698.2617
 20
189.722073
 30
0.0
 40
2.0
 50
135.0
 51
180.0
  0
ARC
  8
0
 10
-700.758137
 20
149.0
 30
0.0
 40
3.0
 50
180.0
 51
270.0
  0
ARC
  8
0
 10
-698.258137
 20
151.5
 30
0.0
 40
2.0
 50
180.0
 51
270.0
  0
ARC
  8
0
 10
-700.758137
 20
189.757359
 30
0.0
 40
3.0
 50
135.0
 51
180.0
  0
LINE
  8
0
 10
-748.819647
 20
146.0
 30
0.0
 11
-396.819647
 21
146.0
 31
0.0
  0
LINE
  8
0
 10
-760.819647
 20
69.0
 30
0.0
 11
-760.819647
 21
178.0
 31
0.0
  0
LINE
  8
0
 10
-760.819647
 20
69.0
 30
0.0
 11
-715.819647
 21
69.0
 31
0.0
  0
LINE
  8
0
 10
-760.819647
 20
178.0
 30
0.0
 11
-755.819647
 21
178.0
 31
0.0
  0
LINE
  8
0
 10
-755.819647
 20
178.0
 30
0.0
 11
-755.819647
 21
153.0
 31
0.0
  0
LINE
  8
0
 10
-745.969457
 20
130.931178
 30
0.0
 11
-748.969457
 21
122.931178
 31
0.0
  0
LINE
  8
0
 10
-735.669837
 20
127.068822
 30
0.0
 11
-738.669837
 21
119.068822
 31
0.0
  0
LINE
  8
0
 10
-709.819647
 20
146.0
 30
0.0
 11
-709.819647
 21
152.5
 31
0.0
  0
LINE
  8
0
 10
-396.819647
 20
146.0
 30
0.0
 11
-396.819647
 21
136.0
 31
0.0
  0
LINE
  8
0
 10
-400.050723
 20
131.323366
 30
0.0
 11
-715.819647
 21
69.0
 31
0.0
  0
LINE
  8
0
 10
-712.819647
 20
146.0
 30
0.0
 11
-712.819647
 21
152.5
 31
0.0
  0
LINE
  8
0
 10
-737.713917
 20
154.998255
 30
0.0
 11
-755.819647
 21
175.209302
 31
0.0
  0
LINE
  8
0
 10
-710.819647
 20
154.0
 30
0.0
 11
-711.319647
 21
154.0
 31
0.0
  0
LINE
  8
0
 10
-711.319647
 20
154.0
 30
0.0
 11
-735.479411
 21
154.0
 31
0.0
  0
ARC
  8
0
 10
-740.819647
 20
129.0
 30
0.0
 40
5.5
 50
339.443955
 51
159.443955
  0
ARC
  8
0
 10
-743.819647
 20
121.0
 30
0.0
 40
5.5
 50
159.443955
 51
339.443955
  0
ARC
  8
0
 10
-748.819647
 20
153.0
 30
0.0
 40
7.0
 50
180.0
 51
270.0
  0
ARC
  8
0
 10
-401.819647
 20
136.0
 30
0.0
 40
5.0
 50
290.718978
 51
0.0
  0
ARC
  8
0
 10
-711.319647
 20
152.5
 30
0.0
 40
1.5
 50
0.0
 51
180.0
  0
ARC
  8
0
 10
-735.479411
 20
157.0
 30
0.0
 40
3.0
 50
221.855043
 51
270.0
  0
LINE
  8
0
 10
-785.81373
 20
260.704306
 30
0.0
 11
-783.018036
 21
263.5
 31
0.0
  0
LINE
  8
0
 10
-785.81373
 20
246.56217
 30
0.0
 11
-768.875901
 21
263.5
 31
0.0
  0
LINE
  8
0
 10
-785.81373
 20
232.420035
 30
0.0
 11
-760.81373
 21
257.420035
 31
0.0
  0
LINE
  8
0
 10
-785.81373
 20
218.277899
 30
0.0
 11
-760.81373
 21
243.277899
 31
0.0
  0
LINE
  8
0
 10
-785.81373
 20
204.135763
 30
0.0
 11
-760.81373
 21
229.135763
 31
0.0
  0
LINE
  8
0
 10
-785.81373
 20
189.993628
 30
0.0
 11
-760.81373
 21
214.993628
 31
0.0
  0
LINE
  8
0
 10
-785.81373
 20
175.851492
 30
0.0
 11
-760.81373
 21
200.851492
 31
0.0
  0
LINE
  8
0
 10
-785.81373
 20
161.709356
 30
0.0
 11
-760.81373
 21
186.709356
 31
0.0
  0
LINE
  8
0
 10
-785.81373
 20
147.567221
 30
0.0
 11
-760.81373
 21
172.567221
 31
0.0
  0
LINE
  8
0
 10
-785.81373
 20
133.425085
 30
0.0
 11
-760.81373
 21
158.425085
 31
0.0
  0
LINE
  8
0
 10
-785.81373
 20
119.28295
 30
0.0
 11
-760.81373
 21
144.28295
 31
0.0
  0
LINE
  8
0
 10
-785.81373
 20
105.140814
 30
0.0
 11
-760.81373
 21
130.140814
 31
0.0
  0
LINE
  8
0
 10
-785.81373
 20
90.998678
 30
0.0
 11
-760.81373
 21
115.998678
 31
0.0
  0
LINE
  8
0
 10
-785.81373
 20
76.856543
 30
0.0
 11
-760.81373
 21
101.856543
 31
0.0
  0
LINE
  8
0
 10
-785.81373
 20
62.714407
 30
0.0
 11
-760.81373
 21
87.714407
 31
0.0
  0
LINE
  8
0
 10
-785.81373
 20
48.572271
 30
0.0
 11
-760.81373
 21
73.572271
 31
0.0
  0
LINE
  8
0
 10
-785.81373
 20
34.430136
 30
0.0
 11
-760.81373
 21
59.430136
 31
0.0
  0
LINE
  8
0
 10
-785.81373
 20
20.288
 30
0.0
 11
-760.81373
 21
45.288
 31
0.0
  0
LINE
  8
0
 10
-785.81373
 20
6.145865
 30
0.0
 11
-760.81373
 21
31.145865
 31
0.0
  0
LINE
  8
0
 10
-785.81373
 20
-7.996271
 30
0.0
 11
-760.81373
 21
17.003729
 31
0.0
  0
LINE
  8
0
 10
-780.175324
 20
-16.5
 30
0.0
 11
-760.81373
 21
2.861593
 31
0.0
  0
LINE
  8
0
 10
-766.033188
 20
-16.5
 30
0.0
 11
-760.81373
 21
-11.280542
 31
0.0
  0
ENDSEC
  0
EOF
