  0
SECTION
  2
HEADER
  9
$ACADVER
  1
AC1009
  9
$INSBASE
 10
0.0
 20
0.0
 30
0.0
  9
$EXTMIN
 10
-785.81373
 20
377.5
 30
0.0
  9
$EXTMAX
 10
-700.819647
 20
842.5
 30
0.0
  9
$LIMMIN
 10
-785.81373
 20
377.5
  9
$LIMMAX
 10
-700.819647
 20
842.5
  9
$ORTHOMODE
 70
     0
  9
$REGENMODE
 70
     1
  9
$FILLMODE
 70
     1
  9
$QTEXTMODE
 70
     0
  9
$MIRRTEXT
 70
     1
  9
$DRAGMODE
 70
     2
  9
$LTSCALE
 40
1.0
  9
$OSMODE
 70
     0
  9
$ATTMODE
 70
     1
  9
$TEXTSIZE
 40
3.5
  9
$TRACEWID
 40
0.5
  9
$TEXTSTYLE
  7
STANDARD
  9
$CLAYER
  8
0
  9
$CELTYPE
  6
BYLAYER
  9
$CECOLOR
 62
   256
  9
$DIMSCALE
 40
1.0
  9
$DIMASZ
 40
0.18
  9
$DIMEXO
 40
0.0625
  9
$DIMDLI
 40
0.38
  9
$DIMRND
 40
0.0
  9
$DIMDLE
 40
0.0
  9
$DIMEXE
 40
0.18
  9
$DIMTP
 40
0.0
  9
$DIMTM
 40
0.0
  9
$DIMTXT
 40
0.18
  9
$DIMCEN
 40
0.09
  9
$DIMTSZ
 40
0.0
  9
$DIMTOL
 70
     0
  9
$DIMLIM
 70
     0
  9
$DIMTIH
 70
     1
  9
$DIMTOH
 70
     1
  9
$DIMSE1
 70
     0
  9
$DIMSE2
 70
     0
  9
$DIMTAD
 70
     0
  9
$DIMZIN
 70
     0
  9
$DIMBLK
  1

  9
$DIMASO
 70
     1
  9
$DIMSHO
 70
     1
  9
$DIMPOST
  1

  9
$DIMAPOST
  1

  9
$DIMALT
 70
     0
  9
$DIMALTD
 70
     2
  9
$DIMALTF
 40
25.4
  9
$DIMLFAC
 40
1.0
  9
$DIMTOFL
 70
     0
  9
$DIMTVP
 40
0.0
  9
$DIMTIX
 70
     0
  9
$DIMSOXD
 70
     0
  9
$DIMSAH
 70
     0
  9
$DIMBLK1
  1

  9
$DIMBLK2
  1

  9
$DIMSTYLE
  2
*UNNAMED
  9
$DIMCLRD
 70
     0
  9
$DIMCLRE
 70
     0
  9
$DIMCLRT
 70
     0
  9
$DIMTFAC
 40
1.0
  9
$DIMGAP
 40
0.09
  9
$LUNITS
 70
     2
  9
$LUPREC
 70
     4
  9
$SKETCHINC
 40
0.1
  9
$FILLETRAD
 40
2.0
  9
$AUNITS
 70
     0
  9
$AUPREC
 70
     0
  9
$MENU
  1
ACAD
  9
$ELEVATION
 40
0.0
  9
$PELEVATION
 40
0.0
  9
$THICKNESS
 40
0.0
  9
$LIMCHECK
 70
     0
  9
$BLIPMODE
 70
     1
  9
$CHAMFERA
 40
0.0
  9
$CHAMFERB
 40
0.0
  9
$SKPOLY
 70
     0
  9
$TDCREATE
 40
2450948.403770949
  9
$TDUPDATE
 40
2450948.403770949
  9
$TDINDWG
 40
0.0000000000
  9
$TDUSRTIMER
 40
0.0000000000
  9
$USRTIMER
 70
     1
  9
$ANGBASE
 50
0.0
  9
$ANGDIR
 70
     0
  9
$PDMODE
 70
     0
  9
$PDSIZE
 40
0.0
  9
$PLINEWID
 40
0.0
  9
$COORDS
 70
     2
  9
$SPLFRAME
 70
     0
  9
$SPLINETYPE
 70
     6
  9
$SPLINESEGS
 70
     8
  9
$ATTDIA
 70
     0
  9
$ATTREQ
 70
     1
  9
$HANDLING
 70
     0
  9
$HANDSEED
  5
0
  9
$SURFTAB1
 70
     6
  9
$SURFTAB2
 70
     6
  9
$SURFTYPE
 70
     6
  9
$SURFU
 70
     6
  9
$SURFV
 70
     6
  9
$UCSNAME
  2

  9
$UCSORG
 10
0.0
 20
0.0
 30
0.0
  9
$UCSXDIR
 10
1.0
 20
0.0
 30
0.0
  9
$UCSYDIR
 10
0.0
 20
1.0
 30
0.0
  9
$PUCSNAME
  2

  9
$PUCSORG
 10
0.0
 20
0.0
 30
0.0
  9
$PUCSXDIR
 10
1.0
 20
0.0
 30
0.0
  9
$PUCSYDIR
 10
0.0
 20
1.0
 30
0.0
  9
$USERI1
 70
     0
  9
$USERI2
 70
     0
  9
$USERI3
 70
     0
  9
$USERI4
 70
     0
  9
$USERI5
 70
     0
  9
$USERR1
 40
0.0
  9
$USERR2
 40
0.0
  9
$USERR3
 40
0.0
  9
$USERR4
 40
0.0
  9
$USERR5
 40
0.0
  9
$WORLDVIEW
 70
     1
  9
$SHADEDGE
 70
     3
  9
$SHADEDIF
 70
    70
  9
$TILEMODE
 70
     1
  9
$MAXACTVP
 70
    16
  9
$PINSBASE
 10
0.0
 20
0.0
 30
0.0
  9
$PLIMCHECK
 70
     0
  9
$PEXTMIN
 10
1.000000E+20
 20
1.000000E+20
 30
1.000000E+20
  9
$PEXTMAX
 10
-1.000000E+20
 20
-1.000000E+20
 30
-1.000000E+20
  9
$PLIMMIN
 10
0.0
 20
0.0
  9
$PLIMMAX
 10
420.0
 20
297.0
  9
$UNITMODE
 70
     0
  9
$VISRETAIN
 70
     0
  9
$PLINEGEN
 70
     0
  9
$PSLTSCALE
 70
     1
  9
$TREEDEPTH
 70
  3020
  9
$DWGCODEPAGE
  3
iso8859-1
  0
ENDSEC
  0
SECTION
  2
TABLES
  0
TABLE
  2
VPORT
 70
     3
  0
VPORT
  2
*ACTIVE
 70
     0
 10
0.0
 20
0.0
 11
1.0
 21
1.0
 12
-379.320295
 22
610.0
 13
0.0
 23
0.0
 14
1.0
 24
1.0
 15
0.0
 25
0.0
 16
0.0
 26
0.0
 36
1.0
 17
0.0
 27
0.0
 37
0.0
 40
465.0
 41
1.748359
 42
50.0
 43
0.0
 44
0.0
 50
0.0
 51
0.0
 71
     0
 72
   100
 73
     1
 74
     0
 75
     0
 76
     0
 77
     0
 78
     0
  0
ENDTAB
  0
TABLE
  2
LTYPE
 70
     1
  0
LTYPE
  2
CONTINUOUS
 70
    64
  3
Solid line
 72
    65
 73
     0
 40
0.0
  0
ENDTAB
  0
TABLE
  2
LAYER
 70
     1
  0
LAYER
  2
0
 70
    64
 62
     7
  6
CONTINUOUS
  0
ENDTAB
  0
TABLE
  2
STYLE
 70
     1
  0
STYLE
  2
STANDARD
 70
     0
 40
0.0
 41
1.0
 50
0.0
 71
     0
 42
3.5
  3
txt
  4

  0
ENDTAB
  0
TABLE
  2
VIEW
 70
     0
  0
ENDTAB
  0
TABLE
  2
UCS
 70
     0
  0
ENDTAB
  0
TABLE
  2
APPID
 70
     1
  0
APPID
  2
ACAD
 70
    64
  0
ENDTAB
  0
TABLE
  2
DIMSTYLE
 70
     0
  0
ENDTAB
  0
ENDSEC
  0
SECTION
  2
BLOCKS
  0
ENDSEC
  0
SECTION
  2
ENTITIES
  0
LINE
  8
0
 10
-760.819647
 20
463.0
 30
0.0
 11
-760.81373
 21
377.5
 31
0.0
  0
LINE
  8
0
 10
-760.819647
 20
757.0
 30
0.0
 11
-760.81373
 21
842.5
 31
0.0
  0
LINE
  8
0
 10
-755.319647
 20
463.5
 30
0.0
 11
-717.097574
 21
463.496436
 31
0.0
  0
LINE
  8
0
 10
-717.062287
 20
460.0
 30
0.0
 11
-757.819647
 21
460.0
 31
0.0
  0
LINE
  8
0
 10
-708.526753
 20
467.292893
 30
0.0
 11
-714.940967
 21
460.87868
 31
0.0
  0
LINE
  8
0
 10
-707.405433
 20
472.358876
 30
0.0
 11
-715.68336
 21
464.082223
 31
0.0
  0
LINE
  8
0
 10
-705.819647
 20
462.5
 30
0.0
 11
-703.73386
 21
462.5
 31
0.0
  0
LINE
  8
0
 10
-706.819647
 20
466.585786
 30
0.0
 11
-706.819647
 21
463.5
 31
0.0
  0
LINE
  8
0
 10
-703.026753
 20
462.792893
 30
0.0
 11
-701.11254
 21
464.707107
 31
0.0
  0
LINE
  8
0
 10
-706.819647
 20
479.0
 30
0.0
 11
-706.819647
 21
473.77309
 31
0.0
  0
LINE
  8
0
 10
-705.819647
 20
517.5
 30
0.0
 11
-701.819647
 21
517.5
 31
0.0
  0
LINE
  8
0
 10
-709.319647
 20
479.5
 30
0.0
 11
-707.319647
 21
479.5
 31
0.0
  0
LINE
  8
0
 10
-707.698326
 20
483.535534
 30
0.0
 11
-710.026753
 21
481.207107
 31
0.0
  0
LINE
  8
0
 10
-706.819647
 20
516.5
 30
0.0
 11
-706.819647
 21
485.656854
 31
0.0
  0
LINE
  8
0
 10
-700.819647
 20
465.414214
 30
0.0
 11
-700.819647
 21
516.5
 31
0.0
  0
LINE
  8
0
 10
-704.148074
 20
464.5
 30
0.0
 11
-702.819647
 21
465.828427
 31
0.0
  0
LINE
  8
0
 10
-704.819647
 20
464.5
 30
0.0
 11
-704.148074
 21
464.5
 31
0.0
  0
LINE
  8
0
 10
-704.819647
 20
479.5
 30
0.0
 11
-704.819647
 21
464.5
 31
0.0
  0
LINE
  8
0
 10
-702.819647
 20
515.5
 30
0.0
 11
-702.819647
 21
465.828427
 31
0.0
  0
LINE
  8
0
 10
-702.819647
 20
515.5
 30
0.0
 11
-704.819647
 21
515.5
 31
0.0
  0
LINE
  8
0
 10
-703.819647
 20
479.5
 30
0.0
 11
-704.819647
 21
479.5
 31
0.0
  0
LINE
  8
0
 10
-704.819647
 20
515.5
 30
0.0
 11
-704.819647
 21
483.792893
 31
0.0
  0
LINE
  8
0
 10
-704.966093
 20
483.43934
 30
0.0
 11
-706.905433
 21
481.5
 31
0.0
  0
LINE
  8
0
 10
-703.819647
 20
481.5
 30
0.0
 11
-706.905433
 21
481.5
 31
0.0
  0
LINE
  8
0
 10
-757.819647
 20
760.0
 30
0.0
 11
-717.062287
 21
760.0
 31
0.0
  0
LINE
  8
0
 10
-714.940967
 20
759.12132
 30
0.0
 11
-708.526753
 21
752.707107
 31
0.0
  0
LINE
  8
0
 10
-715.68336
 20
755.917777
 30
0.0
 11
-707.405433
 21
747.641124
 31
0.0
  0
LINE
  8
0
 10
-717.097574
 20
756.503564
 30
0.0
 11
-755.319647
 21
756.5
 31
0.0
  0
LINE
  8
0
 10
-703.73386
 20
757.5
 30
0.0
 11
-705.819647
 21
757.5
 31
0.0
  0
LINE
  8
0
 10
-706.819647
 20
756.5
 30
0.0
 11
-706.819647
 21
753.414214
 31
0.0
  0
LINE
  8
0
 10
-701.11254
 20
755.292893
 30
0.0
 11
-703.026753
 21
757.207107
 31
0.0
  0
LINE
  8
0
 10
-706.819647
 20
746.22691
 30
0.0
 11
-706.819647
 21
741.0
 31
0.0
  0
LINE
  8
0
 10
-701.819647
 20
702.5
 30
0.0
 11
-705.819647
 21
702.5
 31
0.0
  0
LINE
  8
0
 10
-707.319647
 20
740.5
 30
0.0
 11
-709.319647
 21
740.5
 31
0.0
  0
LINE
  8
0
 10
-710.026753
 20
738.792893
 30
0.0
 11
-707.698326
 21
736.464466
 31
0.0
  0
LINE
  8
0
 10
-706.819647
 20
734.343146
 30
0.0
 11
-706.819647
 21
703.5
 31
0.0
  0
LINE
  8
0
 10
-700.819647
 20
703.5
 30
0.0
 11
-700.819647
 21
754.585786
 31
0.0
  0
LINE
  8
0
 10
-702.819647
 20
754.171573
 30
0.0
 11
-704.148074
 21
755.5
 31
0.0
  0
LINE
  8
0
 10
-704.148074
 20
755.5
 30
0.0
 11
-704.819647
 21
755.5
 31
0.0
  0
LINE
  8
0
 10
-704.819647
 20
755.5
 30
0.0
 11
-704.819647
 21
740.5
 31
0.0
  0
LINE
  8
0
 10
-702.819647
 20
754.171573
 30
0.0
 11
-702.819647
 21
704.5
 31
0.0
  0
LINE
  8
0
 10
-704.819647
 20
704.5
 30
0.0
 11
-702.819647
 21
704.5
 31
0.0
  0
LINE
  8
0
 10
-704.819647
 20
740.5
 30
0.0
 11
-703.819647
 21
740.5
 31
0.0
  0
LINE
  8
0
 10
-704.819647
 20
736.207107
 30
0.0
 11
-704.819647
 21
704.5
 31
0.0
  0
LINE
  8
0
 10
-706.905433
 20
738.5
 30
0.0
 11
-704.966093
 21
736.56066
 31
0.0
  0
LINE
  8
0
 10
-706.905433
 20
738.5
 30
0.0
 11
-703.819647
 21
738.5
 31
0.0
  0
LINE
  8
0
 10
-757.319647
 20
754.5
 30
0.0
 11
-757.319647
 21
465.5
 31
0.0
  0
LINE
  8
0
 10
-760.819647
 20
757.0
 30
0.0
 11
-760.819647
 21
463.0
 31
0.0
  0
ARC
  8
0
 10
-703.819647
 20
480.5
 30
0.0
 40
1.0
 50
270.0
 51
90.0
  0
ARC
  8
0
 10
-709.319647
 20
480.5
 30
0.0
 40
1.0
 50
135.0
 51
270.0
  0
ARC
  8
0
 10
-703.819647
 20
739.5
 30
0.0
 40
1.0
 50
270.0
 51
90.0
  0
ARC
  8
0
 10
-709.319647
 20
739.5
 30
0.0
 40
1.0
 50
90.0
 51
225.0
  0
ARC
  8
0
 10
-757.819647
 20
463.0
 30
0.0
 40
3.0
 50
180.0
 51
270.0
  0
ARC
  8
0
 10
-755.319647
 20
465.5
 30
0.0
 40
2.0
 50
180.0
 51
270.0
  0
ARC
  8
0
 10
-707.819647
 20
466.585786
 30
0.0
 40
1.0
 50
0.0
 51
135.0
  0
ARC
  8
0
 10
-705.819647
 20
463.5
 30
0.0
 40
1.0
 50
180.0
 51
270.0
  0
ARC
  8
0
 10
-701.819647
 20
516.5
 30
0.0
 40
1.0
 50
0.0
 51
90.0
  0
ARC
  8
0
 10
-705.819647
 20
516.5
 30
0.0
 40
1.0
 50
90.0
 51
180.0
  0
ARC
  8
0
 10
-705.319647
 20
483.792893
 30
0.0
 40
0.5
 50
315.0
 51
0.0
  0
ARC
  8
0
 10
-701.819647
 20
465.414214
 30
0.0
 40
1.0
 50
315.0
 51
0.0
  0
ARC
  8
0
 10
-703.73386
 20
463.5
 30
0.0
 40
1.0
 50
270.0
 51
315.0
  0
ARC
  8
0
 10
-708.819647
 20
473.77309
 30
0.0
 40
2.0
 50
315.0
 51
0.0
  0
ARC
  8
0
 10
-707.319647
 20
479.0
 30
0.0
 40
0.5
 50
0.0
 51
90.0
  0
ARC
  8
0
 10
-709.819647
 20
485.656854
 30
0.0
 40
3.0
 50
315.0
 51
0.0
  0
ARC
  8
0
 10
-717.097574
 20
465.496436
 30
0.0
 40
2.0
 50
270.0
 51
315.0
  0
ARC
  8
0
 10
-717.062287
 20
463.0
 30
0.0
 40
3.0
 50
270.0
 51
315.0
  0
ARC
  8
0
 10
-707.819647
 20
753.414214
 30
0.0
 40
1.0
 50
225.0
 51
0.0
  0
ARC
  8
0
 10
-705.819647
 20
756.5
 30
0.0
 40
1.0
 50
90.0
 51
180.0
  0
ARC
  8
0
 10
-701.819647
 20
703.5
 30
0.0
 40
1.0
 50
270.0
 51
0.0
  0
ARC
  8
0
 10
-705.819647
 20
703.5
 30
0.0
 40
1.0
 50
180.0
 51
270.0
  0
ARC
  8
0
 10
-705.319647
 20
736.207107
 30
0.0
 40
0.5
 50
0.0
 51
45.0
  0
ARC
  8
0
 10
-701.819647
 20
754.585786
 30
0.0
 40
1.0
 50
0.0
 51
45.0
  0
ARC
  8
0
 10
-703.73386
 20
756.5
 30
0.0
 40
1.0
 50
45.0
 51
90.0
  0
ARC
  8
0
 10
-708.819647
 20
746.22691
 30
0.0
 40
2.0
 50
0.0
 51
45.0
  0
ARC
  8
0
 10
-707.319647
 20
741.0
 30
0.0
 40
0.5
 50
270.0
 51
0.0
  0
ARC
  8
0
 10
-709.819647
 20
734.343146
 30
0.0
 40
3.0
 50
0.0
 51
45.0
  0
ARC
  8
0
 10
-717.097574
 20
754.503564
 30
0.0
 40
2.0
 50
45.0
 51
90.0
  0
ARC
  8
0
 10
-757.819647
 20
757.0
 30
0.0
 40
3.0
 50
90.0
 51
180.0
  0
ARC
  8
0
 10
-755.319647
 20
754.5
 30
0.0
 40
2.0
 50
90.0
 51
180.0
  0
ARC
  8
0
 10
-717.062287
 20
757.0
 30
0.0
 40
3.0
 50
45.0
 51
90.0
  0
LINE
  8
0
 10
-785.81373
 20
840.531866
 30
0.0
 11
-783.845597
 21
842.5
 31
0.0
  0
LINE
  8
0
 10
-785.81373
 20
826.389731
 30
0.0
 11
-769.703461
 21
842.5
 31
0.0
  0
LINE
  8
0
 10
-785.81373
 20
812.247595
 30
0.0
 11
-760.81373
 21
837.247595
 31
0.0
  0
LINE
  8
0
 10
-785.81373
 20
798.105459
 30
0.0
 11
-760.81373
 21
823.105459
 31
0.0
  0
LINE
  8
0
 10
-785.81373
 20
783.963324
 30
0.0
 11
-760.81373
 21
808.963324
 31
0.0
  0
LINE
  8
0
 10
-785.81373
 20
769.821188
 30
0.0
 11
-760.81373
 21
794.821188
 31
0.0
  0
LINE
  8
0
 10
-785.81373
 20
755.679053
 30
0.0
 11
-760.81373
 21
780.679053
 31
0.0
  0
LINE
  8
0
 10
-785.81373
 20
741.536917
 30
0.0
 11
-760.81373
 21
766.536917
 31
0.0
  0
LINE
  8
0
 10
-785.81373
 20
727.394781
 30
0.0
 11
-760.81373
 21
752.394781
 31
0.0
  0
LINE
  8
0
 10
-785.81373
 20
713.252646
 30
0.0
 11
-760.81373
 21
738.252646
 31
0.0
  0
LINE
  8
0
 10
-785.81373
 20
699.11051
 30
0.0
 11
-760.81373
 21
724.11051
 31
0.0
  0
LINE
  8
0
 10
-785.81373
 20
684.968375
 30
0.0
 11
-760.81373
 21
709.968375
 31
0.0
  0
LINE
  8
0
 10
-785.81373
 20
670.826239
 30
0.0
 11
-760.81373
 21
695.826239
 31
0.0
  0
LINE
  8
0
 10
-785.81373
 20
656.684103
 30
0.0
 11
-760.81373
 21
681.684103
 31
0.0
  0
LINE
  8
0
 10
-785.81373
 20
642.541968
 30
0.0
 11
-760.81373
 21
667.541968
 31
0.0
  0
LINE
  8
0
 10
-785.81373
 20
628.399832
 30
0.0
 11
-760.81373
 21
653.399832
 31
0.0
  0
LINE
  8
0
 10
-785.81373
 20
614.257696
 30
0.0
 11
-760.81373
 21
639.257696
 31
0.0
  0
LINE
  8
0
 10
-785.81373
 20
600.115561
 30
0.0
 11
-760.81373
 21
625.115561
 31
0.0
  0
LINE
  8
0
 10
-785.81373
 20
585.973425
 30
0.0
 11
-760.81373
 21
610.973425
 31
0.0
  0
LINE
  8
0
 10
-785.81373
 20
571.83129
 30
0.0
 11
-760.81373
 21
596.83129
 31
0.0
  0
LINE
  8
0
 10
-785.81373
 20
557.689154
 30
0.0
 11
-760.81373
 21
582.689154
 31
0.0
  0
LINE
  8
0
 10
-785.81373
 20
543.547018
 30
0.0
 11
-760.81373
 21
568.547018
 31
0.0
  0
LINE
  8
0
 10
-785.81373
 20
529.404883
 30
0.0
 11
-760.81373
 21
554.404883
 31
0.0
  0
LINE
  8
0
 10
-785.81373
 20
515.262747
 30
0.0
 11
-760.81373
 21
540.262747
 31
0.0
  0
LINE
  8
0
 10
-785.81373
 20
501.120611
 30
0.0
 11
-760.81373
 21
526.120611
 31
0.0
  0
LINE
  8
0
 10
-785.81373
 20
486.978476
 30
0.0
 11
-760.81373
 21
511.978476
 31
0.0
  0
LINE
  8
0
 10
-785.81373
 20
472.83634
 30
0.0
 11
-760.81373
 21
497.83634
 31
0.0
  0
LINE
  8
0
 10
-785.81373
 20
458.694205
 30
0.0
 11
-760.81373
 21
483.694205
 31
0.0
  0
LINE
  8
0
 10
-785.81373
 20
444.552069
 30
0.0
 11
-760.81373
 21
469.552069
 31
0.0
  0
LINE
  8
0
 10
-785.81373
 20
430.409933
 30
0.0
 11
-760.81373
 21
455.409933
 31
0.0
  0
LINE
  8
0
 10
-785.81373
 20
416.267798
 30
0.0
 11
-760.81373
 21
441.267798
 31
0.0
  0
LINE
  8
0
 10
-785.81373
 20
402.125662
 30
0.0
 11
-760.81373
 21
427.125662
 31
0.0
  0
LINE
  8
0
 10
-785.81373
 20
387.983526
 30
0.0
 11
-760.81373
 21
412.983526
 31
0.0
  0
LINE
  8
0
 10
-782.155121
 20
377.5
 30
0.0
 11
-760.81373
 21
398.841391
 31
0.0
  0
LINE
  8
0
 10
-768.012986
 20
377.5
 30
0.0
 11
-760.81373
 21
384.699255
 31
0.0
  0
ENDSEC
  0
EOF
