  0
SECTION
  2
HEADER
  9
$EXTMIN
 10
2.6081261696115
 20
9.1844057006056
  9
$EXTMAX
 10
4.1829293192178
 20
10.759208850212
  9
$LIMMIN
 10
0
 20
0
  9
$LIMMAX
 10
8.2666666666667
 20
11.69
  0
ENDSEC
  0
SECTION
  2
TABLES
  0
TABLE
  2
LTYPE
 70
9
  0
LTYPE
  2
CONTINUOUS
  3
___________________________
 70
64
 72
65
 73
0
 40
0
  0
LTYPE
  2
HIDDEN
  3
_ _ _ _ _ _ _ _ _ _ _ _ _ _ 
 70
64
 72
65
 73
2
 49
0.25
 49
-0.125
 40
0.375
  0
LTYPE
  2
DASHED
  3
__ __ __ __ __ __ __ __ __ 
 70
64
 72
65
 73
2
 49
0.5
 49
-0.25
 40
0.75
  0
LTYPE
  2
CENTER
  3
____ _ ____ _ ____ _ ____ _ 
 70
64
 72
65
 73
4
 49
1.25
 49
-0.25
 49
0.25
 49
-0.25
 40
2
  0
LTYPE
  2
PHANTOM
  3
_____ _ _ _____ _ _ _____ _ _ 
 70
64
 72
65
 73
6
 49
1.25
 49
-0.25
 49
0.25
 49
-0.25
 49
0.25
 49
-0.25
 40
2.5
  0
LTYPE
  2
DOT
  3
...........................
 70
64
 72
65
 73
2
 49
0
 49
-0.25
 40
0.25
  0
LTYPE
  2
DASHDOT
  3
__ . __ . __ . __ . __ . __ . 
 70
64
 72
65
 73
4
 49
0.5
 49
-0.25
 49
0
 49
-0.25
 40
1
  0
LTYPE
  2
DIVIDE
  3
__ . . __ . . __ . . __ . . 
 70
64
 72
65
 73
6
 49
0.5
 49
-0.25
 49
0
 49
-0.25
 49
0
 49
-0.25
 40
1.25
  0
LTYPE
  2
BORDER
  3
__ __ . __ __ . __ __ . __ __ . 
 70
64
 72
65
 73
6
 49
0.5
 49
-0.25
 49
0.5
 49
-0.25
 49
0
 49
-0.25
 40
1.75
  0
ENDTAB
  0
TABLE
  2
LAYER
 70
1
  0
LAYER
  2
ERSR.12
 62
7
  6
CONTINUOUS
 70
0
  0
ENDTAB
  0
TABLE
  2
STYLE
 70
5
  0
STYLE
  2
ptmarker
 70
1
 40
0
 50
0
 71
0
 41
0
 42
0
  3
ptmarks
  0
STYLE
  2
TXT
 70
0
 40
0
 50
0
 71
0
 41
0
 42
0
  3
TXT
  0
STYLE
  2
ITALIC
 70
0
 40
0
 50
0
 71
0
 41
0
 42
0
  3
ITALIC
  0
STYLE
  2
SIMPLEX
 70
0
 40
0
 50
0
 71
0
 41
0
 42
0
  3
SIMPLEX
  0
STYLE
  2
COMPLEX
 70
0
 40
0
 50
0
 71
0
 41
0
 42
0
  3
COMPLEX
  0
ENDTAB
  0
ENDSEC
  0
SECTION
  2
BLOCKS
  0
ENDSEC
  0
SECTION
  2
ENTITIES
  0
LINE
  8
ERSR.12
  6
CONTINUOUS
 62
8
 10
3.6671278299856
 20
9.9353461264609
 11
4.1829293192178
 21
10.233144255117
  0
LINE
  8
ERSR.12
  6
CONTINUOUS
 62
8
 10
3.6842585799856
 20
9.9254556833369
 11
4.1829293192178
 21
10.21336336887
  0
LINE
  8
ERSR.12
  6
CONTINUOUS
 62
8
 10
3.6842585799856
 20
9.9254556833369
 11
4.1829293192178
 21
9.6375479978043
  0
LINE
  8
ERSR.12
  6
CONTINUOUS
 62
8
 10
2.8968570051825
 20
10.38006219451
 11
3.6671278299856
 21
9.9353461264609
  0
LINE
  8
ERSR.12
  6
CONTINUOUS
 62
8
 10
3.6842585799856
 20
9.8359985950766
 11
3.6842585799856
 21
9.9254556833369
  0
LINE
  8
ERSR.12
  6
CONTINUOUS
 62
8
 10
3.6671278299856
 20
9.8458890382006
 11
3.6671278299856
 21
9.9353461264609
  0
LINE
  8
ERSR.12
  6
CONTINUOUS
 62
8
 10
2.8968570051825
 20
10.29060510625
 11
3.6671278299856
 21
9.8458890382006
  0
LINE
  8
ERSR.12
  6
CONTINUOUS
 62
8
 10
4.1829293192178
 20
9.4117089561921
 11
2.6081261696115
 21
10.320921978538
  0
LINE
  8
ERSR.12
  6
CONTINUOUS
 62
8
 10
4.1829293192178
 20
9.1844057006056
 11
2.6081261696115
 21
10.093618722951
  0
LINE
  8
ERSR.12
  6
CONTINUOUS
 62
8
 10
2.9165420445525
 20
10.142857990118
 11
2.9165420445525
 21
10.27923994347
  0
LINE
  8
ERSR.12
  6
CONTINUOUS
 62
8
 10
2.9362270839226
 20
10.131492827339
 11
2.9362270839226
 21
10.267874780691
  0
LINE
  8
ERSR.12
  6
CONTINUOUS
 62
8
 10
2.9559121232927
 20
10.12012766456
 11
2.9559121232927
 21
10.256509617912
  0
LINE
  8
ERSR.12
  6
CONTINUOUS
 62
8
 10
2.9755971626628
 20
10.10876250178
 11
2.9755971626628
 21
10.245144455132
  0
LINE
  8
ERSR.12
  6
CONTINUOUS
 62
8
 10
2.9952822020329
 20
10.097397339001
 11
2.9952822020329
 21
10.233779292353
  0
LINE
  8
ERSR.12
  6
CONTINUOUS
 62
8
 10
3.0149672414029
 20
10.086032176222
 11
3.0149672414029
 21
10.222414129574
  0
LINE
  8
ERSR.12
  6
CONTINUOUS
 62
8
 10
3.034652280773
 20
10.074667013442
 11
3.034652280773
 21
10.211048966794
  0
LINE
  8
ERSR.12
  6
CONTINUOUS
 62
8
 10
3.0543373201431
 20
10.063301850663
 11
3.0543373201431
 21
10.199683804015
  0
LINE
  8
ERSR.12
  6
CONTINUOUS
 62
8
 10
3.0740223595132
 20
10.051936687884
 11
3.0740223595132
 21
10.188318641236
  0
LINE
  8
ERSR.12
  6
CONTINUOUS
 62
8
 10
3.0937073988833
 20
10.040571525104
 11
3.0937073988833
 21
10.176953478456
  0
LINE
  8
ERSR.12
  6
CONTINUOUS
 62
8
 10
3.1133924382533
 20
10.029206362325
 11
3.1133924382533
 21
10.165588315677
  0
LINE
  8
ERSR.12
  6
CONTINUOUS
 62
8
 10
3.1330774776234
 20
10.017841199546
 11
3.1330774776234
 21
10.154223152898
  0
LINE
  8
ERSR.12
  6
CONTINUOUS
 62
8
 10
3.1527625169935
 20
10.006476036766
 11
3.1527625169935
 21
10.142857990118
  0
LINE
  8
ERSR.12
  6
CONTINUOUS
 62
8
 10
3.1724475563636
 20
9.9951108739872
 11
3.1724475563636
 21
10.131492827339
  0
LINE
  8
ERSR.12
  6
CONTINUOUS
 62
8
 10
3.1921325957336
 20
9.9837457112078
 11
3.1921325957336
 21
10.12012766456
  0
LINE
  8
ERSR.12
  6
CONTINUOUS
 62
8
 10
3.2118176351037
 20
9.9723805484285
 11
3.2118176351037
 21
10.10876250178
  0
LINE
  8
ERSR.12
  6
CONTINUOUS
 62
8
 10
3.2315026744738
 20
9.9610153856492
 11
3.2315026744738
 21
10.097397339001
  0
LINE
  8
ERSR.12
  6
CONTINUOUS
 62
8
 10
3.2511877138439
 20
9.9496502228699
 11
3.2511877138439
 21
10.086032176222
  0
LINE
  8
ERSR.12
  6
CONTINUOUS
 62
8
 10
3.270872753214
 20
9.9382850600905
 11
3.270872753214
 21
10.074667013442
  0
LINE
  8
ERSR.12
  6
CONTINUOUS
 62
8
 10
3.290557792584
 20
9.9269198973112
 11
3.290557792584
 21
10.063301850663
  0
LINE
  8
ERSR.12
  6
CONTINUOUS
 62
8
 10
3.3102428319541
 20
9.9155547345319
 11
3.3102428319541
 21
10.051936687884
  0
LINE
  8
ERSR.12
  6
CONTINUOUS
 62
8
 10
3.3299278713242
 20
9.9041895717526
 11
3.3299278713242
 21
10.040571525104
  0
LINE
  8
ERSR.12
  6
CONTINUOUS
 62
8
 10
3.3496129106943
 20
9.8928244089732
 11
3.3496129106943
 21
10.029206362325
  0
LINE
  8
ERSR.12
  6
CONTINUOUS
 62
8
 10
3.3692979500644
 20
9.8814592461939
 11
3.3692979500644
 21
10.017841199546
  0
LINE
  8
ERSR.12
  6
CONTINUOUS
 62
8
 10
3.3889829894344
 20
9.8700940834146
 11
3.3889829894344
 21
10.006476036766
  0
LINE
  8
ERSR.12
  6
CONTINUOUS
 62
8
 10
3.4086680288045
 20
9.8587289206353
 11
3.4086680288045
 21
9.9951108739872
  0
LINE
  8
ERSR.12
  6
CONTINUOUS
 62
8
 10
3.4283530681746
 20
9.8473637578559
 11
3.4283530681746
 21
9.9837457112078
  0
LINE
  8
ERSR.12
  6
CONTINUOUS
 62
8
 10
3.4480381075447
 20
9.8359985950766
 11
3.4480381075447
 21
9.9723805484285
  0
LINE
  8
ERSR.12
  6
CONTINUOUS
 62
8
 10
3.4677231469147
 20
9.8246334322973
 11
3.4677231469147
 21
9.9610153856492
  0
LINE
  8
ERSR.12
  6
CONTINUOUS
 62
8
 10
3.4874081862848
 20
9.813268269518
 11
3.4874081862848
 21
9.9496502228699
  0
LINE
  8
ERSR.12
  6
CONTINUOUS
 62
8
 10
3.5070932256549
 20
9.8019031067386
 11
3.5070932256549
 21
9.9382850600905
  0
LINE
  8
ERSR.12
  6
CONTINUOUS
 62
8
 10
3.526778265025
 20
9.7905379439593
 11
3.526778265025
 21
9.9269198973112
  0
LINE
  8
ERSR.12
  6
CONTINUOUS
 62
8
 10
3.5464633043951
 20
9.77917278118
 11
3.5464633043951
 21
9.9155547345319
  0
LINE
  8
ERSR.12
  6
CONTINUOUS
 62
8
 10
3.5661483437651
 20
9.7678076184007
 11
3.5661483437651
 21
9.9041895717526
  0
LINE
  8
ERSR.12
  6
CONTINUOUS
 62
8
 10
3.5858333831352
 20
9.7564424556214
 11
3.5858333831352
 21
9.8928244089732
  0
LINE
  8
ERSR.12
  6
CONTINUOUS
 62
8
 10
3.6055184225053
 20
9.745077292842
 11
3.6055184225053
 21
9.8814592461939
  0
LINE
  8
ERSR.12
  6
CONTINUOUS
 62
8
 10
3.6252034618754
 20
9.7337121300627
 11
3.6252034618754
 21
9.8700940834146
  0
LINE
  8
ERSR.12
  6
CONTINUOUS
 62
8
 10
3.6448885012455
 20
9.7223469672834
 11
3.6448885012455
 21
9.8587289206353
  0
LINE
  8
ERSR.12
  6
CONTINUOUS
 62
8
 10
3.6645735406155
 20
9.7109818045041
 11
3.6645735406155
 21
9.8473637578559
  0
LINE
  8
ERSR.12
  6
CONTINUOUS
 62
8
 10
3.6842585799856
 20
9.6996166417247
 11
3.6842585799856
 21
9.8359985950766
  0
LINE
  8
ERSR.12
  6
CONTINUOUS
 62
8
 10
3.7039436193557
 20
9.6882514789454
 11
3.7039436193557
 21
9.8246334322973
  0
LINE
  8
ERSR.12
  6
CONTINUOUS
 62
8
 10
3.7236286587258
 20
9.6768863161661
 11
3.7236286587258
 21
9.813268269518
  0
LINE
  8
ERSR.12
  6
CONTINUOUS
 62
8
 10
3.7433136980958
 20
9.6655211533868
 11
3.7433136980958
 21
9.8019031067386
  0
LINE
  8
ERSR.12
  6
CONTINUOUS
 62
8
 10
3.7629987374659
 20
9.6541559906074
 11
3.7629987374659
 21
9.7905379439593
  0
LINE
  8
ERSR.12
  6
CONTINUOUS
 62
8
 10
3.782683776836
 20
9.6427908278281
 11
3.782683776836
 21
9.77917278118
  0
LINE
  8
ERSR.12
  6
CONTINUOUS
 62
8
 10
3.8023688162061
 20
9.6314256650488
 11
3.8023688162061
 21
9.7678076184007
  0
LINE
  8
ERSR.12
  6
CONTINUOUS
 62
8
 10
3.8220538555762
 20
9.6200605022695
 11
3.8220538555762
 21
9.7564424556214
  0
LINE
  8
ERSR.12
  6
CONTINUOUS
 62
8
 10
3.8417388949462
 20
9.6086953394901
 11
3.8417388949462
 21
9.745077292842
  0
LINE
  8
ERSR.12
  6
CONTINUOUS
 62
8
 10
3.8614239343163
 20
9.5973301767108
 11
3.8614239343163
 21
9.7337121300627
  0
LINE
  8
ERSR.12
  6
CONTINUOUS
 62
8
 10
3.8811089736864
 20
9.5859650139315
 11
3.8811089736864
 21
9.7223469672834
  0
LINE
  8
ERSR.12
  6
CONTINUOUS
 62
8
 10
3.9007940130565
 20
9.5745998511522
 11
3.9007940130565
 21
9.7109818045041
  0
LINE
  8
ERSR.12
  6
CONTINUOUS
 62
8
 10
3.9204790524266
 20
9.5632346883728
 11
3.9204790524266
 21
9.6996166417248
  0
LINE
  8
ERSR.12
  6
CONTINUOUS
 62
8
 10
3.9401640917966
 20
9.5518695255935
 11
3.9401640917966
 21
9.6882514789454
  0
LINE
  8
ERSR.12
  6
CONTINUOUS
 62
8
 10
3.9598491311667
 20
9.5405043628142
 11
3.9598491311667
 21
9.6768863161661
  0
LINE
  8
ERSR.12
  6
CONTINUOUS
 62
8
 10
3.9795341705368
 20
9.5291392000349
 11
3.9795341705368
 21
9.6655211533868
  0
LINE
  8
ERSR.12
  6
CONTINUOUS
 62
8
 10
3.9992192099069
 20
9.5177740372555
 11
3.9992192099069
 21
9.6541559906075
  0
LINE
  8
ERSR.12
  6
CONTINUOUS
 62
8
 10
4.0189042492769
 20
9.5064088744762
 11
4.0189042492769
 21
9.6427908278281
  0
LINE
  8
ERSR.12
  6
CONTINUOUS
 62
8
 10
4.038589288647
 20
9.4950437116969
 11
4.038589288647
 21
9.6314256650488
  0
LINE
  8
ERSR.12
  6
CONTINUOUS
 62
8
 10
4.0582743280171
 20
9.4836785489176
 11
4.0582743280171
 21
9.6200605022695
  0
LINE
  8
ERSR.12
  6
CONTINUOUS
 62
8
 10
4.0779593673872
 20
9.4723133861383
 11
4.0779593673872
 21
9.6086953394902
  0
LINE
  8
ERSR.12
  6
CONTINUOUS
 62
8
 10
4.0976444067573
 20
9.4609482233589
 11
4.0976444067573
 21
9.5973301767108
  0
LINE
  8
ERSR.12
  6
CONTINUOUS
 62
8
 10
4.1173294461273
 20
9.4495830605796
 11
4.1173294461273
 21
9.5859650139315
  0
LINE
  8
ERSR.12
  6
CONTINUOUS
 62
8
 10
4.1370144854974
 20
9.4382178978003
 11
4.1370144854974
 21
9.5745998511522
  0
LINE
  8
ERSR.12
  6
CONTINUOUS
 62
8
 10
4.1566995248675
 20
9.426852735021
 11
4.1566995248675
 21
9.5632346883729
  0
LINE
  8
ERSR.12
  6
CONTINUOUS
 62
8
 10
4.1763845642376
 20
9.4154875722417
 11
4.1763845642376
 21
9.5518695255936
  0
LINE
  8
ERSR.12
  6
CONTINUOUS
 62
8
 10
2.9785062234902
 20
9.1844057006056
 11
3.580717771354
 21
9.5320926998739
  0
LINE
  8
ERSR.12
  6
CONTINUOUS
 62
8
 10
2.8210259085296
 20
9.1844057006056
 11
3.5019776138737
 21
9.5775533509912
  0
LINE
  8
ERSR.12
  6
CONTINUOUS
 62
8
 10
2.663545593569
 20
9.1844057006056
 11
3.4232374563934
 21
9.6230140021084
  0
LINE
  8
ERSR.12
  6
CONTINUOUS
 62
8
 10
2.6081261696115
 20
9.2433305835
 11
3.344497298913
 21
9.6684746532257
  0
LINE
  8
ERSR.12
  6
CONTINUOUS
 62
8
 10
2.6081261696115
 20
9.3342518857346
 11
3.2657571414327
 21
9.713935304343
  0
LINE
  8
ERSR.12
  6
CONTINUOUS
 62
8
 10
2.6081261696115
 20
9.4251731879692
 11
3.1870169839524
 21
9.7593959554603
  0
LINE
  8
ERSR.12
  6
CONTINUOUS
 62
8
 10
2.6081261696115
 20
9.5160944902038
 11
3.1082768264721
 21
9.8048566065776
  0
LINE
  8
ERSR.12
  6
CONTINUOUS
 62
8
 10
2.6081261696115
 20
9.6070157924383
 11
3.0295366689918
 21
9.8503172576949
  0
LINE
  8
ERSR.12
  6
CONTINUOUS
 62
8
 10
2.6081261696115
 20
9.6979370946729
 11
2.9507965115115
 21
9.8957779088122
  0
CIRCLE
  8
ERSR.12
  6
CONTINUOUS
 62
8
 10
3.2801141315806
 20
9.7937935717501
 40
0.0078740157480315
  0
CIRCLE
  8
ERSR.12
  6
CONTINUOUS
 62
8
 10
3.1951610317216
 20
9.8711032787238
 40
0.0078740157480315
  0
CIRCLE
  8
ERSR.12
  6
CONTINUOUS
 62
8
 10
3.0243842980626
 20
10.009156326891
 40
0.0078740157480315
  0
CIRCLE
  8
ERSR.12
  6
CONTINUOUS
 62
8
 10
3.5530763417853
 20
9.6195399465076
 40
0.0078740157480315
  0
CIRCLE
  8
ERSR.12
  6
CONTINUOUS
 62
8
 10
3.7581106836933
 20
9.563296112069
 40
0.0078740157480315
  0
CIRCLE
  8
ERSR.12
  6
CONTINUOUS
 62
8
 10
3.9755390526105
 20
9.3734575168811
 40
0.0078740157480315
  0
CIRCLE
  8
ERSR.12
  6
CONTINUOUS
 62
8
 10
3.4753575887429
 20
9.6543088623424
 40
0.0078740157480315
  0
CIRCLE
  8
ERSR.12
  6
CONTINUOUS
 62
8
 10
2.7418743929091
 20
10.105632477517
 40
0.0078740157480315
  0
LINE
  8
ERSR.12
  6
CONTINUOUS
 62
8
 10
3.6842585799856
 20
9.8359985950766
 11
4.1829293192178
 21
9.548090909544
  0
LINE
  8
ERSR.12
  6
CONTINUOUS
 62
8
 10
3.1359865384508
 20
9.1844057006056
 11
3.6594579288343
 21
9.4866320487566
  0
LINE
  8
ERSR.12
  6
CONTINUOUS
 62
8
 10
3.849220383593
 20
10.759208850212
 11
4.1829293192178
 21
10.566541906398
  0
LINE
  8
ERSR.12
  6
CONTINUOUS
 62
8
 10
2.8797262551825
 20
10.389952637634
 11
3.5192967763782
 21
10.759208850212
  0
LINE
  8
ERSR.12
  6
CONTINUOUS
 62
8
 10
2.8968570051825
 20
10.38006219451
 11
3.5535582763782
 21
10.759208850212
  0
LINE
  8
ERSR.12
  6
CONTINUOUS
 62
8
 10
3.8807164465851
 20
10.759208850212
 11
4.1829293192178
 21
10.584726166845
  0
LINE
  8
ERSR.12
  6
CONTINUOUS
 62
8
 10
2.6081261696115
 20
10.54676102015
 11
2.8797262551825
 21
10.389952637634
  0
LINE
  8
ERSR.12
  6
CONTINUOUS
 62
8
 10
2.8797262551825
 20
10.300495549373
 11
2.8797262551825
 21
10.389952637634
  0
LINE
  8
ERSR.12
  6
CONTINUOUS
 62
8
 10
2.8968570051825
 20
10.29060510625
 11
2.8968570051825
 21
10.38006219451
  0
LINE
  8
ERSR.12
  6
CONTINUOUS
 62
8
 10
2.6081261696115
 20
10.45730393189
 11
2.8797262551825
 21
10.300495549373
  0
LINE
  8
ERSR.12
  6
CONTINUOUS
 62
8
 10
2.6081261696115
 20
10.061622303611
 11
2.6358358815902
 21
10.077620513281
  0
LINE
  8
ERSR.12
  6
CONTINUOUS
 62
8
 10
2.6081261696115
 20
9.9707010013767
 11
2.7145760390705
 21
10.032159862164
  0
LINE
  8
ERSR.12
  6
CONTINUOUS
 62
8
 10
2.6081261696115
 20
9.8797796991421
 11
2.7933161965508
 21
9.9866992110468
  0
LINE
  8
ERSR.12
  6
CONTINUOUS
 62
8
 10
2.6081261696115
 20
9.7888583969075
 11
2.8720563540312
 21
9.9412385599295
  0
LINE
  8
ERSR.12
  6
CONTINUOUS
 62
8
 10
2.6409514933714
 20
10.301970269029
 11
2.6409514933714
 21
10.438352222381
  0
LINE
  8
ERSR.12
  6
CONTINUOUS
 62
8
 10
2.6606365327415
 20
10.29060510625
 11
2.6606365327415
 21
10.426987059601
  0
LINE
  8
ERSR.12
  6
CONTINUOUS
 62
8
 10
2.6803215721116
 20
10.27923994347
 11
2.6803215721116
 21
10.415621896822
  0
LINE
  8
ERSR.12
  6
CONTINUOUS
 62
8
 10
2.7000066114817
 20
10.267874780691
 11
2.7000066114817
 21
10.404256734043
  0
LINE
  8
ERSR.12
  6
CONTINUOUS
 62
8
 10
2.7196916508518
 20
10.256509617912
 11
2.7196916508518
 21
10.392891571263
  0
LINE
  8
ERSR.12
  6
CONTINUOUS
 62
8
 10
2.7393766902218
 20
10.245144455132
 11
2.7393766902218
 21
10.381526408484
  0
LINE
  8
ERSR.12
  6
CONTINUOUS
 62
8
 10
2.7590617295919
 20
10.233779292353
 11
2.7590617295919
 21
10.370161245705
  0
LINE
  8
ERSR.12
  6
CONTINUOUS
 62
8
 10
2.778746768962
 20
10.222414129574
 11
2.778746768962
 21
10.358796082926
  0
LINE
  8
ERSR.12
  6
CONTINUOUS
 62
8
 10
2.7984318083321
 20
10.211048966794
 11
2.7984318083321
 21
10.347430920146
  0
LINE
  8
ERSR.12
  6
CONTINUOUS
 62
8
 10
2.8181168477021
 20
10.199683804015
 11
2.8181168477021
 21
10.336065757367
  0
LINE
  8
ERSR.12
  6
CONTINUOUS
 62
8
 10
2.8378018870722
 20
10.188318641236
 11
2.8378018870722
 21
10.324700594588
  0
LINE
  8
ERSR.12
  6
CONTINUOUS
 62
8
 10
2.8574869264423
 20
10.176953478456
 11
2.8574869264423
 21
10.313335431808
  0
LINE
  8
ERSR.12
  6
CONTINUOUS
 62
8
 10
2.8771719658124
 20
10.165588315677
 11
2.8771719658124
 21
10.301970269029
  0
LINE
  8
ERSR.12
  6
CONTINUOUS
 62
8
 10
2.8968570051825
 20
10.154223152898
 11
2.8968570051825
 21
10.29060510625
  0
LINE
  8
ERSR.12
  6
CONTINUOUS
 62
8
 10
2.6212664540014
 20
10.313335431808
 11
2.6212664540014
 21
10.44971738516
  0
LINE
  8
ERSR.12
  6
CONTINUOUS
 62
8
 10
3.923388113254
 20
9.1844057006056
 11
4.0531587162359
 21
9.2593287931701
  0
LINE
  8
ERSR.12
  6
CONTINUOUS
 62
8
 10
3.7659077982934
 20
9.1844057006056
 11
3.9744185587556
 21
9.3047894442874
  0
LINE
  8
ERSR.12
  6
CONTINUOUS
 62
8
 10
3.6084274833327
 20
9.1844057006056
 11
3.8956784012752
 21
9.3502500954047
  0
LINE
  8
ERSR.12
  6
CONTINUOUS
 62
8
 10
3.4509471683721
 20
9.1844057006056
 11
3.8169382437949
 21
9.395710746522
  0
LINE
  8
ERSR.12
  6
CONTINUOUS
 62
8
 10
3.2934668534115
 20
9.1844057006056
 11
3.7381980863146
 21
9.4411713976393
  0
LINE
  8
ERSR.12
  6
CONTINUOUS
 62
8
 10
4.0808684282146
 20
9.1844057006056
 11
4.1318988737162
 21
9.2138681420528
  0
LINE
  8
ERSR.12
  6
CONTINUOUS
 62
8
 10
2.6704790524266
 20
10.057619269273
 11
2.6704790524266
 21
10.28492252486
  0
LINE
  8
ERSR.12
  6
CONTINUOUS
 62
8
 10
2.7098491311667
 20
10.034888943715
 11
2.7098491311667
 21
10.262192199301
  0
LINE
  8
ERSR.12
  6
CONTINUOUS
 62
8
 10
2.6311089736864
 20
10.080349594832
 11
2.6311089736864
 21
10.307652850419
  0
LINE
  8
ERSR.12
  6
CONTINUOUS
 62
8
 10
2.7492192099069
 20
10.012158618156
 11
2.7492192099069
 21
10.239461873743
  0
LINE
  8
ERSR.12
  6
CONTINUOUS
 62
8
 10
2.788589288647
 20
9.9894282925975
 11
2.788589288647
 21
10.216731548184
  0
LINE
  8
ERSR.12
  6
CONTINUOUS
 62
8
 10
2.8279593673872
 20
9.9666979670388
 11
2.8279593673872
 21
10.194001222625
  0
LINE
  8
ERSR.12
  6
CONTINUOUS
 62
8
 10
2.8673294461273
 20
9.9439676414802
 11
2.8673294461273
 21
10.171270897067
  0
LINE
  8
ERSR.12
  6
CONTINUOUS
 62
8
 10
2.9066995248675
 20
9.9212373159216
 11
2.9066995248675
 21
10.148540571508
  0
LINE
  8
ERSR.12
  6
CONTINUOUS
 62
8
 10
2.9460696036077
 20
9.8985069903629
 11
2.9460696036077
 21
10.125810245949
  0
LINE
  8
ERSR.12
  6
CONTINUOUS
 62
8
 10
2.9854396823478
 20
9.8757766648043
 11
2.9854396823478
 21
10.103079920391
  0
LINE
  8
ERSR.12
  6
CONTINUOUS
 62
8
 10
3.024809761088
 20
9.8530463392456
 11
3.024809761088
 21
10.080349594832
  0
LINE
  8
ERSR.12
  6
CONTINUOUS
 62
8
 10
3.0641798398281
 20
9.830316013687
 11
3.0641798398281
 21
10.057619269273
  0
LINE
  8
ERSR.12
  6
CONTINUOUS
 62
8
 10
3.1035499185683
 20
9.8075856881283
 11
3.1035499185683
 21
10.034888943715
  0
LINE
  8
ERSR.12
  6
CONTINUOUS
 62
8
 10
3.1429199973084
 20
9.7848553625697
 11
3.1429199973084
 21
10.012158618156
  0
LINE
  8
ERSR.12
  6
CONTINUOUS
 62
8
 10
3.1822900760486
 20
9.762125037011
 11
3.1822900760486
 21
9.9894282925975
  0
LINE
  8
ERSR.12
  6
CONTINUOUS
 62
8
 10
3.2216601547888
 20
9.7393947114524
 11
3.2216601547888
 21
9.9666979670388
  0
LINE
  8
ERSR.12
  6
CONTINUOUS
 62
8
 10
3.2610302335289
 20
9.7166643858937
 11
3.2610302335289
 21
9.9439676414802
  0
LINE
  8
ERSR.12
  6
CONTINUOUS
 62
8
 10
3.3004003122691
 20
9.6939340603351
 11
3.3004003122691
 21
9.9212373159216
  0
LINE
  8
ERSR.12
  6
CONTINUOUS
 62
8
 10
3.3397703910092
 20
9.6712037347764
 11
3.3397703910092
 21
9.8985069903629
  0
LINE
  8
ERSR.12
  6
CONTINUOUS
 62
8
 10
3.3791404697494
 20
9.6484734092178
 11
3.3791404697494
 21
9.8757766648043
  0
LINE
  8
ERSR.12
  6
CONTINUOUS
 62
8
 10
3.4185105484895
 20
9.6257430836591
 11
3.4185105484895
 21
9.8530463392456
  0
LINE
  8
ERSR.12
  6
CONTINUOUS
 62
8
 10
3.4578806272297
 20
9.6030127581005
 11
3.4578806272297
 21
9.830316013687
  0
LINE
  8
ERSR.12
  6
CONTINUOUS
 62
8
 10
3.4972507059699
 20
9.5802824325418
 11
3.4972507059699
 21
9.8075856881283
  0
LINE
  8
ERSR.12
  6
CONTINUOUS
 62
8
 10
3.53662078471
 20
9.5575521069832
 11
3.53662078471
 21
9.7848553625697
  0
LINE
  8
ERSR.12
  6
CONTINUOUS
 62
8
 10
3.5759908634502
 20
9.5348217814246
 11
3.5759908634502
 21
9.762125037011
  0
LINE
  8
ERSR.12
  6
CONTINUOUS
 62
8
 10
3.6153609421903
 20
9.5120914558659
 11
3.6153609421903
 21
9.7393947114524
  0
LINE
  8
ERSR.12
  6
CONTINUOUS
 62
8
 10
3.6547310209305
 20
9.4893611303073
 11
3.6547310209305
 21
9.7166643858937
  0
LINE
  8
ERSR.12
  6
CONTINUOUS
 62
8
 10
3.6941010996706
 20
9.4666308047486
 11
3.6941010996706
 21
9.6939340603351
  0
LINE
  8
ERSR.12
  6
CONTINUOUS
 62
8
 10
3.7334711784108
 20
9.44390047919
 11
3.7334711784108
 21
9.6712037347764
  0
LINE
  8
ERSR.12
  6
CONTINUOUS
 62
8
 10
3.772841257151
 20
9.4211701536313
 11
3.772841257151
 21
9.6484734092178
  0
LINE
  8
ERSR.12
  6
CONTINUOUS
 62
8
 10
3.8122113358911
 20
9.3984398280727
 11
3.8122113358911
 21
9.6257430836591
  0
LINE
  8
ERSR.12
  6
CONTINUOUS
 62
8
 10
3.8515814146313
 20
9.375709502514
 11
3.8515814146313
 21
9.6030127581005
  0
LINE
  8
ERSR.12
  6
CONTINUOUS
 62
8
 10
3.8909514933714
 20
9.3529791769554
 11
3.8909514933714
 21
9.5802824325418
  0
LINE
  8
ERSR.12
  6
CONTINUOUS
 62
8
 10
3.9303215721116
 20
9.3302488513967
 11
3.9303215721116
 21
9.5575521069832
  0
LINE
  8
ERSR.12
  6
CONTINUOUS
 62
8
 10
3.9696916508517
 20
9.3075185258381
 11
3.9696916508517
 21
9.5348217814245
  0
LINE
  8
ERSR.12
  6
CONTINUOUS
 62
8
 10
4.0090617295919
 20
9.2847882002794
 11
4.0090617295919
 21
9.5120914558659
  0
LINE
  8
ERSR.12
  6
CONTINUOUS
 62
8
 10
4.0484318083321
 20
9.2620578747208
 11
4.0484318083321
 21
9.4893611303073
  0
LINE
  8
ERSR.12
  6
CONTINUOUS
 62
8
 10
4.0878018870722
 20
9.2393275491621
 11
4.0878018870722
 21
9.4666308047486
  0
LINE
  8
ERSR.12
  6
CONTINUOUS
 62
8
 10
4.1271719658124
 20
9.2165972236035
 11
4.1271719658124
 21
9.44390047919
  0
LINE
  8
ERSR.12
  6
CONTINUOUS
 62
8
 10
4.1665420445525
 20
9.1938668980448
 11
4.1665420445525
 21
9.4211701536313
  0
LINE
  8
ERSR.12
  6
CONTINUOUS
 62
8
 10
2.6081261696115
 20
10.759208850212
 11
4.1829293192178
 21
10.759208850212
  0
LINE
  8
ERSR.12
  6
CONTINUOUS
 62
8
 10
4.1829293192178
 20
10.759208850212
 11
4.1829293192178
 21
9.1844057006056
  0
LINE
  8
ERSR.12
  6
CONTINUOUS
 62
8
 10
2.6081261696115
 20
9.1844057006056
 11
2.6081261696115
 21
10.759208850212
  0
LINE
  8
ERSR.12
  6
CONTINUOUS
 62
8
 10
2.6081261696115
 20
9.1844057006056
 11
4.1829293192178
 21
9.1844057006056
  0
LINE
  8
ERSR.12
  6
CONTINUOUS
 62
8
 10
2.6081261696115
 20
10.535395857371
 11
2.8797262551825
 21
10.378587474854
  0
LINE
  8
ERSR.12
  6
CONTINUOUS
 62
8
 10
2.8968570051825
 20
10.368697031731
 11
3.6671278299856
 21
9.9239809636815
  0
LINE
  8
ERSR.12
  6
CONTINUOUS
 62
8
 10
3.6842585799856
 20
9.9140905205576
 11
4.1829293192178
 21
9.6261828350249
  0
ENDSEC
  0
EOF
