  0
SECTION
  2
HEADER
  9
$EXTMIN
 10
2.6081261696115
 20
9.1844057006056
  9
$EXTMAX
 10
4.1829293192178
 20
10.759208850212
  9
$LIMMIN
 10
0
 20
0
  9
$LIMMAX
 10
8.2666666666667
 20
11.69
  0
ENDSEC
  0
SECTION
  2
TABLES
  0
TABLE
  2
LTYPE
 70
9
  0
LTYPE
  2
CONTINUOUS
  3
___________________________
 70
64
 72
65
 73
0
 40
0
  0
LTYPE
  2
HIDDEN
  3
_ _ _ _ _ _ _ _ _ _ _ _ _ _ 
 70
64
 72
65
 73
2
 49
0.25
 49
-0.125
 40
0.375
  0
LTYPE
  2
DASHED
  3
__ __ __ __ __ __ __ __ __ 
 70
64
 72
65
 73
2
 49
0.5
 49
-0.25
 40
0.75
  0
LTYPE
  2
CENTER
  3
____ _ ____ _ ____ _ ____ _ 
 70
64
 72
65
 73
4
 49
1.25
 49
-0.25
 49
0.25
 49
-0.25
 40
2
  0
LTYPE
  2
PHANTOM
  3
_____ _ _ _____ _ _ _____ _ _ 
 70
64
 72
65
 73
6
 49
1.25
 49
-0.25
 49
0.25
 49
-0.25
 49
0.25
 49
-0.25
 40
2.5
  0
LTYPE
  2
DOT
  3
...........................
 70
64
 72
65
 73
2
 49
0
 49
-0.25
 40
0.25
  0
LTYPE
  2
DASHDOT
  3
__ . __ . __ . __ . __ . __ . 
 70
64
 72
65
 73
4
 49
0.5
 49
-0.25
 49
0
 49
-0.25
 40
1
  0
LTYPE
  2
DIVIDE
  3
__ . . __ . . __ . . __ . . 
 70
64
 72
65
 73
6
 49
0.5
 49
-0.25
 49
0
 49
-0.25
 49
0
 49
-0.25
 40
1.25
  0
LTYPE
  2
BORDER
  3
__ __ . __ __ . __ __ . __ __ . 
 70
64
 72
65
 73
6
 49
0.5
 49
-0.25
 49
0.5
 49
-0.25
 49
0
 49
-0.25
 40
1.75
  0
ENDTAB
  0
TABLE
  2
LAYER
 70
1
  0
LAYER
  2
ERSR.10
 62
7
  6
CONTINUOUS
 70
0
  0
ENDTAB
  0
TABLE
  2
STYLE
 70
5
  0
STYLE
  2
ptmarker
 70
1
 40
0
 50
0
 71
0
 41
0
 42
0
  3
ptmarks
  0
STYLE
  2
TXT
 70
0
 40
0
 50
0
 71
0
 41
0
 42
0
  3
TXT
  0
STYLE
  2
ITALIC
 70
0
 40
0
 50
0
 71
0
 41
0
 42
0
  3
ITALIC
  0
STYLE
  2
SIMPLEX
 70
0
 40
0
 50
0
 71
0
 41
0
 42
0
  3
SIMPLEX
  0
STYLE
  2
COMPLEX
 70
0
 40
0
 50
0
 71
0
 41
0
 42
0
  3
COMPLEX
  0
ENDTAB
  0
ENDSEC
  0
SECTION
  2
BLOCKS
  0
ENDSEC
  0
SECTION
  2
ENTITIES
  0
LINE
  8
ERSR.10
  6
CONTINUOUS
 62
8
 10
3.6642187691582
 20
10.103028236221
 11
4.1829293192178
 21
10.402505911929
  0
LINE
  8
ERSR.10
  6
CONTINUOUS
 62
8
 10
3.6813495191582
 20
10.093137793097
 11
4.1829293192178
 21
10.382725025681
  0
LINE
  8
ERSR.10
  6
CONTINUOUS
 62
8
 10
3.6813495191582
 20
10.081772630317
 11
4.1829293192178
 21
9.7921853977329
  0
LINE
  8
ERSR.10
  6
CONTINUOUS
 62
8
 10
2.6081261696115
 20
10.701398420079
 11
3.6642187691582
 21
10.091663073441
  0
LINE
  8
ERSR.10
  6
CONTINUOUS
 62
8
 10
3.6813495191582
 20
9.8376781421284
 11
3.6813495191582
 21
10.093137793097
  0
LINE
  8
ERSR.10
  6
CONTINUOUS
 62
8
 10
3.6642187691582
 20
9.8475685852524
 11
3.6642187691582
 21
10.103028236221
  0
LINE
  8
ERSR.10
  6
CONTINUOUS
 62
8
 10
4.0766965521793
 20
9.7384480007936
 11
4.0566245521793
 21
9.6210130007936
  0
LINE
  8
ERSR.10
  6
CONTINUOUS
 62
8
 10
3.8417492727913
 20
9.8740948757936
 11
4.0766965521793
 21
9.7384480007936
  0
LINE
  8
ERSR.10
  6
CONTINUOUS
 62
8
 10
3.8417492727913
 20
9.8740948757936
 11
3.8564429966008
 21
9.7365878757936
  0
LINE
  8
ERSR.10
  6
CONTINUOUS
 62
8
 10
3.6813495191582
 20
9.8376781421284
 11
3.8564429966008
 21
9.7365878757936
  0
LINE
  8
ERSR.10
  6
CONTINUOUS
 62
8
 10
3.503819015525
 20
10.069199000794
 11
3.483747015525
 21
9.9517640007936
  0
LINE
  8
ERSR.10
  6
CONTINUOUS
 62
8
 10
3.483747015525
 20
9.9517640007936
 11
3.6642187691582
 21
9.8475685852524
  0
LINE
  8
ERSR.10
  6
CONTINUOUS
 62
8
 10
3.2688717361371
 20
10.204845875794
 11
3.503819015525
 21
10.069199000794
  0
LINE
  8
ERSR.10
  6
CONTINUOUS
 62
8
 10
3.2688717361371
 20
10.204845875794
 11
3.2835654599466
 21
10.067338875794
  0
LINE
  8
ERSR.10
  6
CONTINUOUS
 62
8
 10
3.0686901805587
 20
10.320420750794
 11
3.0486181805587
 21
10.202985750794
  0
LINE
  8
ERSR.10
  6
CONTINUOUS
 62
8
 10
2.6081261696115
 20
10.759208850212
 11
4.1829293192178
 21
10.759208850212
  0
LINE
  8
ERSR.10
  6
CONTINUOUS
 62
8
 10
4.1829293192178
 20
10.759208850212
 11
4.1829293192178
 21
9.1844057006056
  0
LINE
  8
ERSR.10
  6
CONTINUOUS
 62
8
 10
2.6081261696115
 20
9.1844057006056
 11
2.6081261696115
 21
10.759208850212
  0
LINE
  8
ERSR.10
  6
CONTINUOUS
 62
8
 10
2.6081261696115
 20
9.1844057006056
 11
4.1829293192178
 21
9.1844057006056
  0
LINE
  8
ERSR.10
  6
CONTINUOUS
 62
8
 10
4.1829293192178
 20
9.4117089561921
 11
2.6081261696115
 21
10.320921978538
  0
LINE
  8
ERSR.10
  6
CONTINUOUS
 62
8
 10
4.1829293192178
 20
9.1844057006056
 11
2.6081261696115
 21
10.093618722951
  0
LINE
  8
ERSR.10
  6
CONTINUOUS
 62
8
 10
2.9136329837251
 20
10.14453753717
 11
2.9136329837251
 21
10.409943065125
  0
LINE
  8
ERSR.10
  6
CONTINUOUS
 62
8
 10
2.9333180230952
 20
10.133172374391
 11
2.9333180230952
 21
10.398577902346
  0
LINE
  8
ERSR.10
  6
CONTINUOUS
 62
8
 10
2.9530030624653
 20
10.121807211612
 11
2.9530030624653
 21
10.387212739567
  0
LINE
  8
ERSR.10
  6
CONTINUOUS
 62
8
 10
2.9726881018353
 20
10.110442048832
 11
2.9726881018353
 21
10.375847576787
  0
LINE
  8
ERSR.10
  6
CONTINUOUS
 62
8
 10
2.9923731412054
 20
10.099076886053
 11
2.9923731412054
 21
10.364482414008
  0
LINE
  8
ERSR.10
  6
CONTINUOUS
 62
8
 10
3.0120581805755
 20
10.087711723274
 11
3.0120581805755
 21
10.353117251229
  0
LINE
  8
ERSR.10
  6
CONTINUOUS
 62
8
 10
3.0317432199456
 20
10.076346560494
 11
3.0317432199456
 21
10.341752088449
  0
LINE
  8
ERSR.10
  6
CONTINUOUS
 62
8
 10
3.0514282593157
 20
10.064981397715
 11
3.0514282593157
 21
10.201363351067
  0
LINE
  8
ERSR.10
  6
CONTINUOUS
 62
8
 10
3.0711132986857
 20
10.053616234936
 11
3.0711132986857
 21
10.189998188287
  0
LINE
  8
ERSR.10
  6
CONTINUOUS
 62
8
 10
3.0907983380558
 20
10.042251072156
 11
3.0907983380558
 21
10.178633025508
  0
LINE
  8
ERSR.10
  6
CONTINUOUS
 62
8
 10
3.1104833774259
 20
10.030885909377
 11
3.1104833774259
 21
10.167267862729
  0
LINE
  8
ERSR.10
  6
CONTINUOUS
 62
8
 10
3.130168416796
 20
10.019520746598
 11
3.130168416796
 21
10.155902699949
  0
LINE
  8
ERSR.10
  6
CONTINUOUS
 62
8
 10
3.1498534561661
 20
10.008155583818
 11
3.1498534561661
 21
10.14453753717
  0
LINE
  8
ERSR.10
  6
CONTINUOUS
 62
8
 10
3.1695384955361
 20
9.996790421039
 11
3.1695384955361
 21
10.133172374391
  0
LINE
  8
ERSR.10
  6
CONTINUOUS
 62
8
 10
3.1892235349062
 20
9.9854252582596
 11
3.1892235349062
 21
10.121807211612
  0
LINE
  8
ERSR.10
  6
CONTINUOUS
 62
8
 10
3.2089085742763
 20
9.9740600954803
 11
3.2089085742763
 21
10.110442048832
  0
LINE
  8
ERSR.10
  6
CONTINUOUS
 62
8
 10
3.2285936136464
 20
9.962694932701
 11
3.2285936136464
 21
10.099076886053
  0
LINE
  8
ERSR.10
  6
CONTINUOUS
 62
8
 10
3.2482786530164
 20
9.9513297699217
 11
3.2482786530164
 21
10.087711723274
  0
LINE
  8
ERSR.10
  6
CONTINUOUS
 62
8
 10
3.2679636923865
 20
9.9399646071423
 11
3.2679636923865
 21
10.076346560494
  0
LINE
  8
ERSR.10
  6
CONTINUOUS
 62
8
 10
3.2876487317566
 20
9.928599444363
 11
3.2876487317566
 21
10.194004972318
  0
LINE
  8
ERSR.10
  6
CONTINUOUS
 62
8
 10
3.3073337711267
 20
9.9172342815837
 11
3.3073337711267
 21
10.182639809539
  0
LINE
  8
ERSR.10
  6
CONTINUOUS
 62
8
 10
3.3270188104968
 20
9.9058691188044
 11
3.3270188104968
 21
10.171274646759
  0
LINE
  8
ERSR.10
  6
CONTINUOUS
 62
8
 10
3.3467038498668
 20
9.894503956025
 11
3.3467038498668
 21
10.15990948398
  0
LINE
  8
ERSR.10
  6
CONTINUOUS
 62
8
 10
3.3663888892369
 20
9.8831387932457
 11
3.3663888892369
 21
10.148544321201
  0
LINE
  8
ERSR.10
  6
CONTINUOUS
 62
8
 10
3.386073928607
 20
9.8717736304664
 11
3.386073928607
 21
10.137179158421
  0
LINE
  8
ERSR.10
  6
CONTINUOUS
 62
8
 10
3.4057589679771
 20
9.8604084676871
 11
3.4057589679771
 21
10.125813995642
  0
LINE
  8
ERSR.10
  6
CONTINUOUS
 62
8
 10
3.4254440073472
 20
9.8490433049078
 11
3.4254440073472
 21
10.114448832863
  0
LINE
  8
ERSR.10
  6
CONTINUOUS
 62
8
 10
3.4451290467172
 20
9.8376781421284
 11
3.4451290467172
 21
10.103083670083
  0
LINE
  8
ERSR.10
  6
CONTINUOUS
 62
8
 10
3.4648140860873
 20
9.8263129793491
 11
3.4648140860873
 21
10.091718507304
  0
LINE
  8
ERSR.10
  6
CONTINUOUS
 62
8
 10
3.4844991254574
 20
9.8149478165698
 11
3.4844991254574
 21
9.9513297699217
  0
LINE
  8
ERSR.10
  6
CONTINUOUS
 62
8
 10
3.5041841648275
 20
9.8035826537905
 11
3.5041841648275
 21
9.9399646071423
  0
LINE
  8
ERSR.10
  6
CONTINUOUS
 62
8
 10
3.5238692041975
 20
9.7922174910111
 11
3.5238692041975
 21
9.928599444363
  0
LINE
  8
ERSR.10
  6
CONTINUOUS
 62
8
 10
3.5435542435676
 20
9.7808523282318
 11
3.5435542435676
 21
9.9172342815837
  0
LINE
  8
ERSR.10
  6
CONTINUOUS
 62
8
 10
3.5632392829377
 20
9.7694871654525
 11
3.5632392829377
 21
9.9058691188044
  0
LINE
  8
ERSR.10
  6
CONTINUOUS
 62
8
 10
3.5829243223078
 20
9.7581220026732
 11
3.5829243223078
 21
9.894503956025
  0
LINE
  8
ERSR.10
  6
CONTINUOUS
 62
8
 10
3.6026093616779
 20
9.7467568398938
 11
3.6026093616779
 21
9.8831387932457
  0
LINE
  8
ERSR.10
  6
CONTINUOUS
 62
8
 10
3.6222944010479
 20
9.7353916771145
 11
3.6222944010479
 21
9.8717736304664
  0
LINE
  8
ERSR.10
  6
CONTINUOUS
 62
8
 10
3.641979440418
 20
9.7240265143352
 11
3.641979440418
 21
9.8604084676871
  0
LINE
  8
ERSR.10
  6
CONTINUOUS
 62
8
 10
3.6616644797881
 20
9.7126613515559
 11
3.6616644797881
 21
9.8490433049078
  0
LINE
  8
ERSR.10
  6
CONTINUOUS
 62
8
 10
3.6813495191582
 20
9.7012961887765
 11
3.6813495191582
 21
9.8376781421284
  0
LINE
  8
ERSR.10
  6
CONTINUOUS
 62
8
 10
3.7010345585283
 20
9.6899310259972
 11
3.7010345585283
 21
9.8263129793491
  0
LINE
  8
ERSR.10
  6
CONTINUOUS
 62
8
 10
3.7207195978983
 20
9.6785658632179
 11
3.7207195978983
 21
9.8149478165698
  0
LINE
  8
ERSR.10
  6
CONTINUOUS
 62
8
 10
3.7404046372684
 20
9.6672007004386
 11
3.7404046372684
 21
9.8035826537905
  0
LINE
  8
ERSR.10
  6
CONTINUOUS
 62
8
 10
3.7600896766385
 20
9.6558355376592
 11
3.7600896766385
 21
9.7922174910111
  0
LINE
  8
ERSR.10
  6
CONTINUOUS
 62
8
 10
3.7797747160086
 20
9.6444703748799
 11
3.7797747160086
 21
9.7808523282318
  0
LINE
  8
ERSR.10
  6
CONTINUOUS
 62
8
 10
3.7994597553786
 20
9.6331052121006
 11
3.7994597553786
 21
9.7694871654525
  0
LINE
  8
ERSR.10
  6
CONTINUOUS
 62
8
 10
3.8191447947487
 20
9.6217400493213
 11
3.8191447947487
 21
9.7581220026732
  0
LINE
  8
ERSR.10
  6
CONTINUOUS
 62
8
 10
3.8388298341188
 20
9.6103748865419
 11
3.8388298341188
 21
9.7467568398938
  0
LINE
  8
ERSR.10
  6
CONTINUOUS
 62
8
 10
3.8585148734889
 20
9.5990097237626
 11
3.8585148734889
 21
9.8644152517177
  0
LINE
  8
ERSR.10
  6
CONTINUOUS
 62
8
 10
3.878199912859
 20
9.5876445609833
 11
3.878199912859
 21
9.8530500889384
  0
LINE
  8
ERSR.10
  6
CONTINUOUS
 62
8
 10
3.897884952229
 20
9.576279398204
 11
3.897884952229
 21
9.841684926159
  0
LINE
  8
ERSR.10
  6
CONTINUOUS
 62
8
 10
3.9175699915991
 20
9.5649142354247
 11
3.9175699915991
 21
9.8303197633797
  0
LINE
  8
ERSR.10
  6
CONTINUOUS
 62
8
 10
3.9372550309692
 20
9.5535490726453
 11
3.9372550309692
 21
9.8189546006004
  0
LINE
  8
ERSR.10
  6
CONTINUOUS
 62
8
 10
3.9569400703393
 20
9.542183909866
 11
3.9569400703393
 21
9.8075894378211
  0
LINE
  8
ERSR.10
  6
CONTINUOUS
 62
8
 10
3.9766251097094
 20
9.5308187470867
 11
3.9766251097094
 21
9.7962242750417
  0
LINE
  8
ERSR.10
  6
CONTINUOUS
 62
8
 10
3.9963101490794
 20
9.5194535843074
 11
3.9963101490794
 21
9.7848591122624
  0
LINE
  8
ERSR.10
  6
CONTINUOUS
 62
8
 10
4.0159951884495
 20
9.508088421528
 11
4.0159951884495
 21
9.7734939494831
  0
LINE
  8
ERSR.10
  6
CONTINUOUS
 62
8
 10
4.0356802278196
 20
9.4967232587487
 11
4.0356802278196
 21
9.7621287867038
  0
LINE
  8
ERSR.10
  6
CONTINUOUS
 62
8
 10
4.0553652671897
 20
9.4853580959694
 11
4.0553652671897
 21
9.7507636239244
  0
LINE
  8
ERSR.10
  6
CONTINUOUS
 62
8
 10
4.0750503065598
 20
9.4739929331901
 11
4.0750503065598
 21
9.610374886542
  0
LINE
  8
ERSR.10
  6
CONTINUOUS
 62
8
 10
4.0947353459298
 20
9.4626277704107
 11
4.0947353459298
 21
9.5990097237626
  0
LINE
  8
ERSR.10
  6
CONTINUOUS
 62
8
 10
4.1144203852999
 20
9.4512626076314
 11
4.1144203852999
 21
9.5876445609833
  0
LINE
  8
ERSR.10
  6
CONTINUOUS
 62
8
 10
4.13410542467
 20
9.4398974448521
 11
4.13410542467
 21
9.576279398204
  0
LINE
  8
ERSR.10
  6
CONTINUOUS
 62
8
 10
4.1537904640401
 20
9.4285322820728
 11
4.1537904640401
 21
9.5649142354247
  0
LINE
  8
ERSR.10
  6
CONTINUOUS
 62
8
 10
4.1734755034101
 20
9.4171671192934
 11
4.1734755034101
 21
9.5535490726454
  0
LINE
  8
ERSR.10
  6
CONTINUOUS
 62
8
 10
2.893947944355
 20
9.1844057006056
 11
3.5384386317864
 21
9.5565025724843
  0
LINE
  8
ERSR.10
  6
CONTINUOUS
 62
8
 10
3.0514282593157
 20
9.1844057006056
 11
3.6171787892667
 21
9.511041921367
  0
LINE
  8
ERSR.10
  6
CONTINUOUS
 62
8
 10
3.2089085742763
 20
9.1844057006056
 11
3.695918946747
 21
9.4655812702497
  0
LINE
  8
ERSR.10
  6
CONTINUOUS
 62
8
 10
3.3663888892369
 20
9.1844057006056
 11
3.7746591042273
 21
9.4201206191324
  0
LINE
  8
ERSR.10
  6
CONTINUOUS
 62
8
 10
3.5238692041975
 20
9.1844057006056
 11
3.8533992617077
 21
9.3746599680151
  0
LINE
  8
ERSR.10
  6
CONTINUOUS
 62
8
 10
2.7364676293944
 20
9.1844057006056
 11
3.4596984743061
 21
9.6019632236016
  0
LINE
  8
ERSR.10
  6
CONTINUOUS
 62
8
 10
2.6081261696115
 20
9.2012290264863
 11
3.3809583168258
 21
9.6474238747189
  0
LINE
  8
ERSR.10
  6
CONTINUOUS
 62
8
 10
2.6081261696115
 20
9.2921503287209
 11
3.3022181593455
 21
9.6928845258362
  0
LINE
  8
ERSR.10
  6
CONTINUOUS
 62
8
 10
2.6081261696115
 20
9.3830716309555
 11
3.2234780018651
 21
9.7383451769535
  0
LINE
  8
ERSR.10
  6
CONTINUOUS
 62
8
 10
2.6081261696115
 20
9.4739929331901
 11
3.1447378443848
 21
9.7838058280708
  0
LINE
  8
ERSR.10
  6
CONTINUOUS
 62
8
 10
2.6081261696115
 20
9.5649142354247
 11
3.0659976869045
 21
9.8292664791881
  0
LINE
  8
ERSR.10
  6
CONTINUOUS
 62
8
 10
2.6081261696115
 20
9.6558355376593
 11
2.9872575294242
 21
9.8747271303054
  0
LINE
  8
ERSR.10
  6
CONTINUOUS
 62
8
 10
3.6813495191582
 20
9.1844057006056
 11
3.932139419188
 21
9.3291993168978
  0
LINE
  8
ERSR.10
  6
CONTINUOUS
 62
8
 10
3.8388298341188
 20
9.1844057006056
 11
4.0108795766683
 21
9.2837386657806
  0
LINE
  8
ERSR.10
  6
CONTINUOUS
 62
8
 10
3.9963101490794
 20
9.1844057006056
 11
4.0896197341486
 21
9.2382780146633
  0
LINE
  8
ERSR.10
  6
CONTINUOUS
 62
8
 10
4.1537904640401
 20
9.1844057006056
 11
4.1683598916289
 21
9.192817363546
  0
CIRCLE
  8
ERSR.10
  6
CONTINUOUS
 62
8
 10
3.2772050707531
 20
9.7954731188019
 40
0.0078740157480315
  0
CIRCLE
  8
ERSR.10
  6
CONTINUOUS
 62
8
 10
3.1922519708941
 20
9.8727828257756
 40
0.0078740157480315
  0
CIRCLE
  8
ERSR.10
  6
CONTINUOUS
 62
8
 10
3.0214752372351
 20
10.010835873943
 40
0.0078740157480315
  0
CIRCLE
  8
ERSR.10
  6
CONTINUOUS
 62
8
 10
3.5501672809579
 20
9.6212194935594
 40
0.0078740157480315
  0
CIRCLE
  8
ERSR.10
  6
CONTINUOUS
 62
8
 10
3.8513274489973
 20
9.4381713778411
 40
0.0078740157480315
  0
CIRCLE
  8
ERSR.10
  6
CONTINUOUS
 62
8
 10
3.7552016228659
 20
9.5649756591208
 40
0.0078740157480315
  0
CIRCLE
  8
ERSR.10
  6
CONTINUOUS
 62
8
 10
3.7163422463446
 20
9.6099707266717
 40
0.0078740157480315
  0
CIRCLE
  8
ERSR.10
  6
CONTINUOUS
 62
8
 10
4.0190363371414
 20
9.3318193999936
 40
0.0078740157480315
  0
CIRCLE
  8
ERSR.10
  6
CONTINUOUS
 62
8
 10
4.1560667701373
 20
9.3522717034258
 40
0.0078740157480315
  0
CIRCLE
  8
ERSR.10
  6
CONTINUOUS
 62
8
 10
2.9948410279166
 20
9.9672885709501
 40
0.0078740157480315
  0
CIRCLE
  8
ERSR.10
  6
CONTINUOUS
 62
8
 10
2.7886229561038
 20
10.087810906147
 40
0.0039370078740157
  0
CIRCLE
  8
ERSR.10
  6
CONTINUOUS
 62
8
 10
2.6479533300414
 20
10.098057746264
 40
0.0078740157480315
  0
LINE
  8
ERSR.10
  6
CONTINUOUS
 62
8
 10
3.0486181805587
 20
10.202985750794
 11
3.2835654599466
 21
10.067338875794
  0
LINE
  8
ERSR.10
  6
CONTINUOUS
 62
8
 10
4.0566245521793
 20
9.6210130007936
 11
4.1829293192178
 21
9.548090909544
  0
LINE
  8
ERSR.10
  6
CONTINUOUS
 62
8
 10
3.0514282593157
 20
10.219426643521
 11
3.0514282593157
 21
10.33038692567
  0
LINE
  8
ERSR.10
  6
CONTINUOUS
 62
8
 10
3.6911920388432
 20
9.4683103518004
 11
3.6911920388432
 21
9.6956136073869
  0
LINE
  8
ERSR.10
  6
CONTINUOUS
 62
8
 10
3.7305621175834
 20
9.4455800262418
 11
3.7305621175834
 21
9.6728832818283
  0
LINE
  8
ERSR.10
  6
CONTINUOUS
 62
8
 10
3.7699321963235
 20
9.4228497006831
 11
3.7699321963235
 21
9.6501529562696
  0
LINE
  8
ERSR.10
  6
CONTINUOUS
 62
8
 10
3.8093022750637
 20
9.4001193751245
 11
3.8093022750637
 21
9.627422630711
  0
LINE
  8
ERSR.10
  6
CONTINUOUS
 62
8
 10
3.6518219601031
 20
9.4910406773591
 11
3.6518219601031
 21
9.7183439329455
  0
LINE
  8
ERSR.10
  6
CONTINUOUS
 62
8
 10
3.6124518813629
 20
9.5137710029177
 11
3.6124518813629
 21
9.7410742585042
  0
LINE
  8
ERSR.10
  6
CONTINUOUS
 62
8
 10
3.5730818026227
 20
9.5365013284764
 11
3.5730818026227
 21
9.7638045840628
  0
LINE
  8
ERSR.10
  6
CONTINUOUS
 62
8
 10
3.5337117238826
 20
9.559231654035
 11
3.5337117238826
 21
9.7865349096215
  0
LINE
  8
ERSR.10
  6
CONTINUOUS
 62
8
 10
3.4943416451424
 20
9.5819619795937
 11
3.4943416451424
 21
9.8092652351801
  0
LINE
  8
ERSR.10
  6
CONTINUOUS
 62
8
 10
3.4549715664023
 20
9.6046923051523
 11
3.4549715664023
 21
9.8319955607388
  0
LINE
  8
ERSR.10
  6
CONTINUOUS
 62
8
 10
3.4156014876621
 20
9.627422630711
 11
3.4156014876621
 21
9.8547258862974
  0
LINE
  8
ERSR.10
  6
CONTINUOUS
 62
8
 10
3.376231408922
 20
9.6501529562696
 11
3.376231408922
 21
9.8774562118561
  0
LINE
  8
ERSR.10
  6
CONTINUOUS
 62
8
 10
3.3368613301818
 20
9.6728832818283
 11
3.3368613301818
 21
9.9001865374147
  0
LINE
  8
ERSR.10
  6
CONTINUOUS
 62
8
 10
3.2974912514416
 20
9.6956136073869
 11
3.2974912514416
 21
9.9229168629734
  0
LINE
  8
ERSR.10
  6
CONTINUOUS
 62
8
 10
3.2581211727015
 20
9.7183439329455
 11
3.2581211727015
 21
9.945647188532
  0
LINE
  8
ERSR.10
  6
CONTINUOUS
 62
8
 10
3.2187510939613
 20
9.7410742585042
 11
3.2187510939613
 21
9.9683775140907
  0
LINE
  8
ERSR.10
  6
CONTINUOUS
 62
8
 10
3.1793810152212
 20
9.7638045840628
 11
3.1793810152212
 21
9.9911078396493
  0
LINE
  8
ERSR.10
  6
CONTINUOUS
 62
8
 10
3.140010936481
 20
9.7865349096215
 11
3.140010936481
 21
10.013838165208
  0
LINE
  8
ERSR.10
  6
CONTINUOUS
 62
8
 10
3.1006408577409
 20
9.8092652351801
 11
3.1006408577409
 21
10.036568490767
  0
LINE
  8
ERSR.10
  6
CONTINUOUS
 62
8
 10
3.0612707790007
 20
9.8319955607388
 11
3.0612707790007
 21
10.059298816325
  0
LINE
  8
ERSR.10
  6
CONTINUOUS
 62
8
 10
3.0219007002605
 20
9.8547258862974
 11
3.0219007002605
 21
10.082029141884
  0
LINE
  8
ERSR.10
  6
CONTINUOUS
 62
8
 10
2.9825306215204
 20
9.8774562118561
 11
2.9825306215204
 21
10.104759467443
  0
LINE
  8
ERSR.10
  6
CONTINUOUS
 62
8
 10
2.9431605427802
 20
9.9001865374147
 11
2.9431605427802
 21
10.127489793001
  0
LINE
  8
ERSR.10
  6
CONTINUOUS
 62
8
 10
2.9037904640401
 20
9.9229168629734
 11
2.9037904640401
 21
10.15022011856
  0
LINE
  8
ERSR.10
  6
CONTINUOUS
 62
8
 10
4.0455227475046
 20
9.2637374217726
 11
4.0455227475046
 21
9.4910406773591
  0
LINE
  8
ERSR.10
  6
CONTINUOUS
 62
8
 10
4.0061526687645
 20
9.2864677473313
 11
4.0061526687645
 21
9.5137710029177
  0
LINE
  8
ERSR.10
  6
CONTINUOUS
 62
8
 10
3.9667825900243
 20
9.3091980728899
 11
3.9667825900243
 21
9.5365013284764
  0
LINE
  8
ERSR.10
  6
CONTINUOUS
 62
8
 10
3.9274125112842
 20
9.3319283984486
 11
3.9274125112842
 21
9.559231654035
  0
LINE
  8
ERSR.10
  6
CONTINUOUS
 62
8
 10
3.888042432544
 20
9.3546587240072
 11
3.888042432544
 21
9.5819619795937
  0
LINE
  8
ERSR.10
  6
CONTINUOUS
 62
8
 10
3.8486723538038
 20
9.3773890495658
 11
3.8486723538038
 21
9.6046923051523
  0
LINE
  8
ERSR.10
  6
CONTINUOUS
 62
8
 10
4.1636329837251
 20
9.1955464450967
 11
4.1636329837251
 21
9.4228497006831
  0
LINE
  8
ERSR.10
  6
CONTINUOUS
 62
8
 10
4.1242629049849
 20
9.2182767706553
 11
4.1242629049849
 21
9.4455800262418
  0
LINE
  8
ERSR.10
  6
CONTINUOUS
 62
8
 10
4.0848928262448
 20
9.241007096214
 11
4.0848928262448
 21
9.4683103518004
  0
LINE
  8
ERSR.10
  6
CONTINUOUS
 62
8
 10
2.8337429011707
 20
10.456067625794
 11
3.0686901805587
 21
10.320420750794
  0
LINE
  8
ERSR.10
  6
CONTINUOUS
 62
8
 10
2.8337429011707
 20
10.456067625794
 11
2.8484366249803
 21
10.318560625794
  0
LINE
  8
ERSR.10
  6
CONTINUOUS
 62
8
 10
2.6134893455923
 20
10.454207500794
 11
2.8484366249803
 21
10.318560625794
  0
LINE
  8
ERSR.10
  6
CONTINUOUS
 62
8
 10
2.6335613455923
 20
10.571642500794
 11
2.6134893455923
 21
10.454207500794
  0
LINE
  8
ERSR.10
  6
CONTINUOUS
 62
8
 10
2.6081261696115
 20
10.586327506493
 11
2.6335613455923
 21
10.571642500794
  0
LINE
  8
ERSR.10
  6
CONTINUOUS
 62
8
 10
2.7758377081346
 20
10.224093676625
 11
2.7758377081346
 21
10.360475629977
  0
LINE
  8
ERSR.10
  6
CONTINUOUS
 62
8
 10
2.7955227475046
 20
10.212728513846
 11
2.7955227475046
 21
10.349110467198
  0
LINE
  8
ERSR.10
  6
CONTINUOUS
 62
8
 10
2.8152077868747
 20
10.201363351067
 11
2.8152077868747
 21
10.337745304419
  0
LINE
  8
ERSR.10
  6
CONTINUOUS
 62
8
 10
2.8348928262448
 20
10.189998188287
 11
2.8348928262448
 21
10.326380141639
  0
LINE
  8
ERSR.10
  6
CONTINUOUS
 62
8
 10
2.8545778656149
 20
10.178633025508
 11
2.8545778656149
 21
10.444038553463
  0
LINE
  8
ERSR.10
  6
CONTINUOUS
 62
8
 10
2.8742629049849
 20
10.167267862729
 11
2.8742629049849
 21
10.432673390684
  0
LINE
  8
ERSR.10
  6
CONTINUOUS
 62
8
 10
2.893947944355
 20
10.15590269995
 11
2.893947944355
 21
10.421308227905
  0
LINE
  8
ERSR.10
  6
CONTINUOUS
 62
8
 10
2.638042432544
 20
10.303649816081
 11
2.638042432544
 21
10.440031769433
  0
LINE
  8
ERSR.10
  6
CONTINUOUS
 62
8
 10
2.6577274719141
 20
10.292284653301
 11
2.6577274719141
 21
10.428666606653
  0
LINE
  8
ERSR.10
  6
CONTINUOUS
 62
8
 10
2.6774125112842
 20
10.280919490522
 11
2.6774125112842
 21
10.417301443874
  0
LINE
  8
ERSR.10
  6
CONTINUOUS
 62
8
 10
2.6970975506542
 20
10.269554327743
 11
2.6970975506542
 21
10.405936281095
  0
LINE
  8
ERSR.10
  6
CONTINUOUS
 62
8
 10
2.7167825900243
 20
10.258189164963
 11
2.7167825900243
 21
10.394571118315
  0
LINE
  8
ERSR.10
  6
CONTINUOUS
 62
8
 10
2.7364676293944
 20
10.246824002184
 11
2.7364676293944
 21
10.383205955536
  0
LINE
  8
ERSR.10
  6
CONTINUOUS
 62
8
 10
2.7561526687645
 20
10.235458839405
 11
2.7561526687645
 21
10.371840792757
  0
LINE
  8
ERSR.10
  6
CONTINUOUS
 62
8
 10
2.6183573931739
 20
10.31501497886
 11
2.6183573931739
 21
10.451396932212
  0
LINE
  8
ERSR.10
  6
CONTINUOUS
 62
8
 10
2.6183573931739
 20
10.48268892605
 11
2.6183573931739
 21
10.580420506815
  0
LINE
  8
ERSR.10
  6
CONTINUOUS
 62
8
 10
2.6675699915991
 20
10.059298816325
 11
2.6675699915991
 21
10.286602071912
  0
LINE
  8
ERSR.10
  6
CONTINUOUS
 62
8
 10
2.7069400703393
 20
10.036568490767
 11
2.7069400703393
 21
10.263871746353
  0
LINE
  8
ERSR.10
  6
CONTINUOUS
 62
8
 10
2.7463101490794
 20
10.013838165208
 11
2.7463101490794
 21
10.241141420794
  0
LINE
  8
ERSR.10
  6
CONTINUOUS
 62
8
 10
2.7856802278196
 20
9.9911078396493
 11
2.7856802278196
 21
10.218411095236
  0
LINE
  8
ERSR.10
  6
CONTINUOUS
 62
8
 10
2.8250503065597
 20
9.9683775140906
 11
2.8250503065597
 21
10.195680769677
  0
LINE
  8
ERSR.10
  6
CONTINUOUS
 62
8
 10
2.8644203852999
 20
9.945647188532
 11
2.8644203852999
 21
10.172950444118
  0
LINE
  8
ERSR.10
  6
CONTINUOUS
 62
8
 10
2.628199912859
 20
10.082029141884
 11
2.628199912859
 21
10.30933239747
  0
LINE
  8
ERSR.10
  6
CONTINUOUS
 62
8
 10
2.6081261696115
 20
10.019520746598
 11
2.6722968995029
 21
10.056569734775
  0
LINE
  8
ERSR.10
  6
CONTINUOUS
 62
8
 10
2.6081261696115
 20
9.8376781421284
 11
2.8297772144636
 21
9.96564843254
  0
LINE
  8
ERSR.10
  6
CONTINUOUS
 62
8
 10
2.6081261696115
 20
9.7467568398938
 11
2.9085173719439
 21
9.9201877814227
  0
LINE
  8
ERSR.10
  6
CONTINUOUS
 62
8
 10
2.6081261696115
 20
9.928599444363
 11
2.7510370569833
 21
10.011109083657
  0
LINE
  8
ERSR.10
  6
CONTINUOUS
 62
8
 10
3.4844991254574
 20
9.9561643609921
 11
3.4844991254574
 21
10.080353344525
  0
LINE
  8
ERSR.10
  6
CONTINUOUS
 62
8
 10
2.6081261696115
 20
10.712763582858
 11
3.6642187691582
 21
10.103028236221
  0
LINE
  8
ERSR.10
  6
CONTINUOUS
 62
8
 10
3.6813495191582
 20
10.093137793097
 11
4.1829293192178
 21
9.8035505605123
  0
ENDSEC
  0
EOF
