  0
SECTION
  2
HEADER
  9
$EXTMIN
 10
3.6011088590244
 20
9.0281541088871
  9
$EXTMAX
 10
5.1759120086307
 20
10.602957258493
  9
$LIMMIN
 10
0
 20
0
  9
$LIMMAX
 10
8.2666666666667
 20
11.69
  0
ENDSEC
  0
SECTION
  2
TABLES
  0
TABLE
  2
LTYPE
 70
9
  0
LTYPE
  2
CONTINUOUS
  3
___________________________
 70
64
 72
65
 73
0
 40
0
  0
LTYPE
  2
HIDDEN
  3
_ _ _ _ _ _ _ _ _ _ _ _ _ _ 
 70
64
 72
65
 73
2
 49
0.25
 49
-0.125
 40
0.375
  0
LTYPE
  2
DASHED
  3
__ __ __ __ __ __ __ __ __ 
 70
64
 72
65
 73
2
 49
0.5
 49
-0.25
 40
0.75
  0
LTYPE
  2
CENTER
  3
____ _ ____ _ ____ _ ____ _ 
 70
64
 72
65
 73
4
 49
1.25
 49
-0.25
 49
0.25
 49
-0.25
 40
2
  0
LTYPE
  2
PHANTOM
  3
_____ _ _ _____ _ _ _____ _ _ 
 70
64
 72
65
 73
6
 49
1.25
 49
-0.25
 49
0.25
 49
-0.25
 49
0.25
 49
-0.25
 40
2.5
  0
LTYPE
  2
DOT
  3
...........................
 70
64
 72
65
 73
2
 49
0
 49
-0.25
 40
0.25
  0
LTYPE
  2
DASHDOT
  3
__ . __ . __ . __ . __ . __ . 
 70
64
 72
65
 73
4
 49
0.5
 49
-0.25
 49
0
 49
-0.25
 40
1
  0
LTYPE
  2
DIVIDE
  3
__ . . __ . . __ . . __ . . 
 70
64
 72
65
 73
6
 49
0.5
 49
-0.25
 49
0
 49
-0.25
 49
0
 49
-0.25
 40
1.25
  0
LTYPE
  2
BORDER
  3
__ __ . __ __ . __ __ . __ __ . 
 70
64
 72
65
 73
6
 49
0.5
 49
-0.25
 49
0.5
 49
-0.25
 49
0
 49
-0.25
 40
1.75
  0
ENDTAB
  0
TABLE
  2
LAYER
 70
1
  0
LAYER
  2
QTTeja
 62
7
  6
CONTINUOUS
 70
0
  0
ENDTAB
  0
TABLE
  2
STYLE
 70
5
  0
STYLE
  2
ptmarker
 70
1
 40
0
 50
0
 71
0
 41
0
 42
0
  3
ptmarks
  0
STYLE
  2
TXT
 70
0
 40
0
 50
0
 71
0
 41
0
 42
0
  3
TXT
  0
STYLE
  2
ITALIC
 70
0
 40
0
 50
0
 71
0
 41
0
 42
0
  3
ITALIC
  0
STYLE
  2
SIMPLEX
 70
0
 40
0
 50
0
 71
0
 41
0
 42
0
  3
SIMPLEX
  0
STYLE
  2
COMPLEX
 70
0
 40
0
 50
0
 71
0
 41
0
 42
0
  3
COMPLEX
  0
ENDTAB
  0
ENDSEC
  0
SECTION
  2
BLOCKS
  0
ENDSEC
  0
SECTION
  2
ENTITIES
  0
SOLID
  8
QTTeja
  6
CONTINUOUS
 62
8
 10
4.3867757896877
 20
9.0281541088871
 11
5.1759120086307
 21
9.0281541088871
 12
5.1759120086307
 22
9.4837621173212
 13
5.1759120086307
 23
9.4837621173212
  0
ARC
  8
QTTeja
  6
CONTINUOUS
 62
8
 10
4.3447147785159
 20
9.8095742015561
 40
0.186585
 50
57.084246845362
 51
162.021162
  0
ARC
  8
QTTeja
  6
CONTINUOUS
 62
8
 10
4.1685020772324
 20
9.5869790961969
 40
0.470442
 50
351.27382
 51
52.264772
  0
LINE
  8
QTTeja
  6
CONTINUOUS
 62
8
 10
4.9961685121102
 20
10.289598322824
 11
4.2716495860076
 21
9.9812583064109
  0
LINE
  8
QTTeja
  6
CONTINUOUS
 62
8
 10
3.6011088590244
 20
9.6938005111577
 11
3.9723321977917
 21
9.9477159573703
  0
ARC
  8
QTTeja
  6
CONTINUOUS
 62
8
 10
3.7504951890883
 20
9.4795742801519
 40
0.186585
 50
56.726514370703
 51
143.19070564205
  0
ARC
  8
QTTeja
  6
CONTINUOUS
 62
8
 10
3.5742824878048
 20
9.2569791747926
 40
0.470442
 50
351.27382
 51
52.06097455775
  0
LINE
  8
QTTeja
  6
CONTINUOUS
 62
8
 10
3.8087483681952
 20
9.629205656997
 11
3.6011088590244
 21
9.5408386254782
  0
LINE
  8
QTTeja
  6
CONTINUOUS
 62
8
 10
4.015486685661
 20
9.2035465075784
 11
4.039278797767
 21
9.1856071109235
  0
ARC
  8
QTTeja
  6
CONTINUOUS
 62
8
 10
3.5742824878048
 20
9.2569791747926
 40
0.4444278
 50
353.094773
 51
50.267140220048
  0
ARC
  8
QTTeja
  6
CONTINUOUS
 62
8
 10
3.7504951890883
 20
9.4795742801519
 40
0.1605708
 50
52.668746500458
 51
157.37870120159
  0
LINE
  8
QTTeja
  6
CONTINUOUS
 62
8
 10
4.6097062750887
 20
9.5335464289826
 11
4.6334989780793
 21
9.5156069281389
  0
ARC
  8
QTTeja
  6
CONTINUOUS
 62
8
 10
4.1685020772324
 20
9.5869790961969
 40
0.4444278
 50
353.094773
 51
50.426110992038
  0
ARC
  8
QTTeja
  6
CONTINUOUS
 62
8
 10
4.3447147785159
 20
9.8095742015561
 40
0.1605708
 50
53.098342074154
 51
156.988894
  0
LINE
  8
QTTeja
  6
CONTINUOUS
 62
8
 10
4.223048693178
 20
10.602957258493
 11
3.631143820704
 21
10.351054719385
  0
LINE
  8
QTTeja
  6
CONTINUOUS
 62
8
 10
3.7614425664943
 20
10.329394918583
 11
3.6011088590244
 21
10.26116016461
  0
ARC
  8
QTTeja
  6
CONTINUOUS
 62
8
 10
3.7042090132123
 20
10.17937061453
 40
0.1605708
 50
53.098582149167
 51
129.94749321539
  0
ARC
  8
QTTeja
  6
CONTINUOUS
 62
8
 10
3.7042090132123
 20
10.17937061453
 40
0.186585
 50
57.084446877716
 51
123.54309261304
  0
ARC
  8
QTTeja
  6
CONTINUOUS
 62
8
 10
3.5279957210442
 20
9.9567756133598
 40
0.4444278
 50
353.094773
 51
50.426110992038
  0
ARC
  8
QTTeja
  6
CONTINUOUS
 62
8
 10
3.5279957210442
 20
9.9567756133598
 40
0.470442
 50
351.27382
 51
52.208603920053
  0
LINE
  8
QTTeja
  6
CONTINUOUS
 62
8
 10
3.9692005097851
 20
9.9033428419567
 11
3.992992621891
 21
9.8854034453018
  0
ARC
  8
QTTeja
  6
CONTINUOUS
 62
8
 10
4.1681095744975
 20
10.158386017593
 40
0.4444278
 50
223.1977171154
 51
241.19523710566
  0
ARC
  8
QTTeja
  6
CONTINUOUS
 62
8
 10
4.7180598394596
 20
10.544975921165
 40
0.4444278
 50
232.06351945581
 51
253.74785951598
  0
LINE
  8
QTTeja
  6
CONTINUOUS
 62
8
 10
3.6011088590244
 20
9.0281541088871
 11
3.6011088590244
 21
10.602957258493
  0
LINE
  8
QTTeja
  6
CONTINUOUS
 62
8
 10
3.6011088590244
 20
10.602957258493
 11
5.1759120086307
 21
10.602957258493
  0
LINE
  8
QTTeja
  6
CONTINUOUS
 62
8
 10
5.1759120086307
 20
10.602957258493
 11
5.1759120086307
 21
9.0281541088871
  0
LINE
  8
QTTeja
  6
CONTINUOUS
 62
8
 10
5.1759120086307
 20
9.0281541088871
 11
3.6011088590244
 21
9.0281541088871
  0
ARC
  8
QTTeja
  6
CONTINUOUS
 62
8
 10
4.077554074156
 20
10.914772334139
 40
0.4444278
 50
232.06351945581
 51
253.74785951598
  0
LINE
  8
QTTeja
  6
CONTINUOUS
 62
8
 10
4.1672403008755
 20
9.8671662741725
 11
4.1742613053383
 21
9.8618724646809
  0
LINE
  8
QTTeja
  6
CONTINUOUS
 62
8
 10
4.4019489226825
 20
9.9595984014198
 11
3.6774299965799
 21
9.6512583850067
  0
LINE
  8
QTTeja
  6
CONTINUOUS
 62
8
 10
4.0718151597664
 20
9.0281541088871
 11
5.1759120086307
 21
9.6656047217903
  0
LINE
  8
QTTeja
  6
CONTINUOUS
 62
8
 10
4.5745078973332
 20
9.3183838962409
 11
4.3895325725534
 21
9.425179449796
  0
LINE
  8
QTTeja
  6
CONTINUOUS
 62
8
 10
4.535137818593
 20
9.2956535706823
 11
4.353491212638
 21
9.4005272875278
  0
LINE
  8
QTTeja
  6
CONTINUOUS
 62
8
 10
4.6138779760733
 20
9.3411142217996
 11
4.4255739324688
 21
9.4498316120642
  0
LINE
  8
QTTeja
  6
CONTINUOUS
 62
8
 10
4.6532480548135
 20
9.3638445473582
 11
4.4616152923842
 21
9.4744837743323
  0
LINE
  8
QTTeja
  6
CONTINUOUS
 62
8
 10
4.6926181335536
 20
9.3865748729169
 11
4.4976566522996
 21
9.4991359366005
  0
LINE
  8
QTTeja
  6
CONTINUOUS
 62
8
 10
4.7319882122938
 20
9.4093051984755
 11
4.533698012215
 21
9.5237880988687
  0
LINE
  8
QTTeja
  6
CONTINUOUS
 62
8
 10
4.7713582910339
 20
9.4320355240342
 11
4.5697393721304
 21
9.5484402611369
  0
LINE
  8
QTTeja
  6
CONTINUOUS
 62
8
 10
4.8107283697741
 20
9.4547658495928
 11
4.6663863339475
 21
9.5381017628327
  0
LINE
  8
QTTeja
  6
CONTINUOUS
 62
8
 10
4.8500984485143
 20
9.4774961751515
 11
4.7024276938629
 21
9.5627539251008
  0
LINE
  8
QTTeja
  6
CONTINUOUS
 62
8
 10
4.8894685272544
 20
9.5002265007101
 11
4.7384690537783
 21
9.587406087369
  0
LINE
  8
QTTeja
  6
CONTINUOUS
 62
8
 10
4.9288386059946
 20
9.5229568262688
 11
4.7745104136937
 21
9.6120582496372
  0
LINE
  8
QTTeja
  6
CONTINUOUS
 62
8
 10
4.9682086847347
 20
9.5456871518274
 11
4.8105517736091
 21
9.6367104119054
  0
LINE
  8
QTTeja
  6
CONTINUOUS
 62
8
 10
5.0075787634749
 20
9.5684174773861
 11
4.8465931335245
 21
9.6613625741736
  0
LINE
  8
QTTeja
  6
CONTINUOUS
 62
8
 10
5.046948842215
 20
9.5911478029447
 11
4.8826344934399
 21
9.6860147364417
  0
LINE
  8
QTTeja
  6
CONTINUOUS
 62
8
 10
5.0863189209552
 20
9.6138781285034
 11
4.9186758533553
 21
9.7106668987099
  0
LINE
  8
QTTeja
  6
CONTINUOUS
 62
8
 10
5.1256889996954
 20
9.636608454062
 11
4.9547172132707
 21
9.7353190609781
  0
LINE
  8
QTTeja
  6
CONTINUOUS
 62
8
 10
5.1650590784355
 20
9.6593387796206
 11
4.9907585731861
 21
9.7599712232463
  0
LINE
  8
QTTeja
  6
CONTINUOUS
 62
8
 10
5.1759120086307
 20
9.6985334885682
 11
5.0267999331015
 21
9.7846233855144
  0
LINE
  8
QTTeja
  6
CONTINUOUS
 62
8
 10
5.1759120086307
 20
9.7439941396855
 11
5.0628412930169
 21
9.8092755477826
  0
LINE
  8
QTTeja
  6
CONTINUOUS
 62
8
 10
4.4957677398528
 20
9.2729232451237
 11
4.3174498527226
 21
9.3758751252596
  0
LINE
  8
QTTeja
  6
CONTINUOUS
 62
8
 10
4.4563976611127
 20
9.250192919565
 11
4.2814084928072
 21
9.3512229629915
  0
LINE
  8
QTTeja
  6
CONTINUOUS
 62
8
 10
4.4170275823725
 20
9.2274625940064
 11
4.2453671328918
 21
9.3265708007233
  0
LINE
  8
QTTeja
  6
CONTINUOUS
 62
8
 10
4.3776575036324
 20
9.2047322684477
 11
4.2093257729764
 21
9.3019186384551
  0
LINE
  8
QTTeja
  6
CONTINUOUS
 62
8
 10
4.3382874248922
 20
9.1820019428891
 11
4.173284413061
 21
9.2772664761869
  0
LINE
  8
QTTeja
  6
CONTINUOUS
 62
8
 10
4.2989173461521
 20
9.1592716173304
 11
4.1372430531456
 21
9.2526143139188
  0
LINE
  8
QTTeja
  6
CONTINUOUS
 62
8
 10
4.2595472674119
 20
9.1365412917718
 11
4.1012016932302
 21
9.2279621516506
  0
LINE
  8
QTTeja
  6
CONTINUOUS
 62
8
 10
4.2201771886717
 20
9.1138109662131
 11
4.0651603333148
 21
9.2033099893824
  0
LINE
  8
QTTeja
  6
CONTINUOUS
 62
8
 10
4.1808071099316
 20
9.0910806406545
 11
3.9871032328268
 21
9.202915626244
  0
LINE
  8
QTTeja
  6
CONTINUOUS
 62
8
 10
4.1414370311914
 20
9.0683503150958
 11
3.9510618729114
 21
9.1782634639758
  0
LINE
  8
QTTeja
  6
CONTINUOUS
 62
8
 10
4.1020669524513
 20
9.0456199895372
 11
3.915020512996
 21
9.1536113017076
  0
LINE
  8
QTTeja
  6
CONTINUOUS
 62
8
 10
4.0535785876558
 20
9.0281541088871
 11
3.8789791530806
 21
9.1289591394395
  0
LINE
  8
QTTeja
  6
CONTINUOUS
 62
8
 10
3.9748384301755
 20
9.0281541088871
 11
3.8429377931652
 21
9.1043069771713
  0
LINE
  8
QTTeja
  6
CONTINUOUS
 62
8
 10
3.8960982726952
 20
9.0281541088871
 11
3.8068964332498
 21
9.0796548149031
  0
LINE
  8
QTTeja
  6
CONTINUOUS
 62
8
 10
3.8173581152148
 20
9.0281541088871
 11
3.7708550733344
 21
9.0550026526349
  0
LINE
  8
QTTeja
  6
CONTINUOUS
 62
8
 10
4.4568802914854
 20
9.95929357525
 11
4.5246097905225
 21
9.998397158813
  0
LINE
  8
QTTeja
  6
CONTINUOUS
 62
8
 10
4.4568802914854
 20
9.95929357525
 11
4.4516349326793
 21
9.9295456672154
  0
LINE
  8
QTTeja
  6
CONTINUOUS
 62
8
 10
4.4462050843207
 20
9.9667684411464
 11
4.5173576547193
 21
10.007848332802
  0
LINE
  8
QTTeja
  6
CONTINUOUS
 62
8
 10
4.4462050843207
 20
9.9667684411464
 11
4.4377351641321
 21
9.9187331367673
  0
LINE
  8
QTTeja
  6
CONTINUOUS
 62
8
 10
4.4448519689086
 20
9.9137498928364
 11
4.4599729041853
 21
9.9224799552841
  0
LINE
  8
QTTeja
  6
CONTINUOUS
 62
8
 10
4.4497634867089
 20
9.9642768191809
 11
4.5197750333204
 21
10.004697941472
  0
LINE
  8
QTTeja
  6
CONTINUOUS
 62
8
 10
4.4533218890972
 20
9.9617851972154
 11
4.5221924119214
 21
10.001547550143
  0
LINE
  8
QTTeja
  6
CONTINUOUS
 62
8
 10
4.4497634867089
 20
9.9642768191809
 11
4.442186013247
 21
9.9213028316973
  0
LINE
  8
QTTeja
  6
CONTINUOUS
 62
8
 10
4.4533218890972
 20
9.9617851972154
 11
4.4466368623618
 21
9.9238725266274
  0
LINE
  8
QTTeja
  6
CONTINUOUS
 62
8
 10
4.4457444156352
 20
9.9188112097319
 11
4.4568113305514
 21
9.9252006860806
  0
LINE
  8
QTTeja
  6
CONTINUOUS
 62
8
 10
4.4466368623618
 20
9.9238725266274
 11
4.4536136591269
 21
9.9279005758406
  0
LINE
  8
QTTeja
  6
CONTINUOUS
 62
8
 10
4.5246097905225
 20
9.998397158813
 11
4.5442241810037
 21
10.018011549294
  0
LINE
  8
QTTeja
  6
CONTINUOUS
 62
8
 10
4.5221924119214
 20
10.001547550143
 11
4.5414402960384
 21
10.02079543426
  0
LINE
  8
QTTeja
  6
CONTINUOUS
 62
8
 10
4.5197750333204
 20
10.004697941472
 11
4.5386564110731
 21
10.023579319225
  0
LINE
  8
QTTeja
  6
CONTINUOUS
 62
8
 10
4.5173576547193
 20
10.007848332802
 11
4.5358725261078
 21
10.02636320419
  0
LINE
  8
QTTeja
  6
CONTINUOUS
 62
8
 10
4.4377351641321
 20
9.9187331367673
 11
4.4448519689086
 21
9.9137498928364
  0
LINE
  8
QTTeja
  6
CONTINUOUS
 62
8
 10
4.442186013247
 20
9.9213028316973
 11
4.4457444156352
 21
9.9188112097319
  0
LINE
  8
QTTeja
  6
CONTINUOUS
 62
8
 10
4.5358725261078
 20
10.02636320419
 11
4.5442241810037
 21
10.018011549294
  0
LINE
  8
QTTeja
  6
CONTINUOUS
 62
8
 10
3.8163739352972
 20
10.329090092413
 11
3.8841034343343
 21
10.368193675976
  0
LINE
  8
QTTeja
  6
CONTINUOUS
 62
8
 10
3.8163739352972
 20
10.329090092413
 11
3.811128576491
 21
10.299342184378
  0
LINE
  8
QTTeja
  6
CONTINUOUS
 62
8
 10
3.8056987281324
 20
10.336564958309
 11
3.8768512985311
 21
10.377644849965
  0
LINE
  8
QTTeja
  6
CONTINUOUS
 62
8
 10
3.8056987281324
 20
10.336564958309
 11
3.7972288079439
 21
10.28852965393
  0
LINE
  8
QTTeja
  6
CONTINUOUS
 62
8
 10
3.8043456127204
 20
10.283546409999
 11
3.8194665479971
 21
10.292276472447
  0
LINE
  8
QTTeja
  6
CONTINUOUS
 62
8
 10
3.8092571305207
 20
10.334073336344
 11
3.8792686771321
 21
10.374494458635
  0
LINE
  8
QTTeja
  6
CONTINUOUS
 62
8
 10
3.8128155329089
 20
10.331581714378
 11
3.8816860557332
 21
10.371344067305
  0
LINE
  8
QTTeja
  6
CONTINUOUS
 62
8
 10
3.8092571305207
 20
10.334073336344
 11
3.8016796570587
 21
10.29109934886
  0
LINE
  8
QTTeja
  6
CONTINUOUS
 62
8
 10
3.8128155329089
 20
10.331581714378
 11
3.8061305061735
 21
10.29366904379
  0
LINE
  8
QTTeja
  6
CONTINUOUS
 62
8
 10
3.8052380594469
 20
10.288607726895
 11
3.8163049743632
 21
10.294997203244
  0
LINE
  8
QTTeja
  6
CONTINUOUS
 62
8
 10
3.8061305061735
 20
10.29366904379
 11
3.8131073029387
 21
10.297697093004
  0
LINE
  8
QTTeja
  6
CONTINUOUS
 62
8
 10
3.8841034343343
 20
10.368193675976
 11
3.9037178248155
 21
10.387808066457
  0
LINE
  8
QTTeja
  6
CONTINUOUS
 62
8
 10
3.8816860557332
 20
10.371344067305
 11
3.9009339398502
 21
10.390591951422
  0
LINE
  8
QTTeja
  6
CONTINUOUS
 62
8
 10
3.8792686771321
 20
10.374494458635
 11
3.8981500548849
 21
10.393375836388
  0
LINE
  8
QTTeja
  6
CONTINUOUS
 62
8
 10
3.8768512985311
 20
10.377644849965
 11
3.8953661699196
 21
10.396159721353
  0
LINE
  8
QTTeja
  6
CONTINUOUS
 62
8
 10
3.7972288079439
 20
10.28852965393
 11
3.8043456127204
 21
10.283546409999
  0
LINE
  8
QTTeja
  6
CONTINUOUS
 62
8
 10
3.8016796570587
 20
10.29109934886
 11
3.8052380594469
 21
10.288607726895
  0
LINE
  8
QTTeja
  6
CONTINUOUS
 62
8
 10
3.8953661699196
 20
10.396159721353
 11
3.9037178248155
 21
10.387808066457
  0
LINE
  8
QTTeja
  6
CONTINUOUS
 62
8
 10
3.8636795559286
 20
9.6289007628304
 11
3.9314090549657
 21
9.6680043463934
  0
LINE
  8
QTTeja
  6
CONTINUOUS
 62
8
 10
3.8636795559286
 20
9.6289007628304
 11
3.8584341971225
 21
9.5991528547958
  0
LINE
  8
QTTeja
  6
CONTINUOUS
 62
8
 10
3.8530043487639
 20
9.6363756287268
 11
3.9241569191625
 21
9.677455520382
  0
LINE
  8
QTTeja
  6
CONTINUOUS
 62
8
 10
3.8530043487639
 20
9.6363756287268
 11
3.8445344285753
 21
9.5883403243478
  0
LINE
  8
QTTeja
  6
CONTINUOUS
 62
8
 10
3.8516512333518
 20
9.5833570804168
 11
3.8667721686285
 21
9.5920871428645
  0
LINE
  8
QTTeja
  6
CONTINUOUS
 62
8
 10
3.8565627511521
 20
9.6338840067613
 11
3.9265742977635
 21
9.6743051290525
  0
LINE
  8
QTTeja
  6
CONTINUOUS
 62
8
 10
3.8601211535403
 20
9.6313923847958
 11
3.9289916763646
 21
9.671154737723
  0
LINE
  8
QTTeja
  6
CONTINUOUS
 62
8
 10
3.8565627511521
 20
9.6338840067613
 11
3.8489852776901
 21
9.5909100192778
  0
LINE
  8
QTTeja
  6
CONTINUOUS
 62
8
 10
3.8601211535403
 20
9.6313923847958
 11
3.853436126805
 21
9.5934797142078
  0
LINE
  8
QTTeja
  6
CONTINUOUS
 62
8
 10
3.8525436800784
 20
9.5884183973123
 11
3.8636105949946
 21
9.5948078736611
  0
LINE
  8
QTTeja
  6
CONTINUOUS
 62
8
 10
3.853436126805
 20
9.5934797142078
 11
3.8604129235701
 21
9.597507763421
  0
LINE
  8
QTTeja
  6
CONTINUOUS
 62
8
 10
3.9314090549657
 20
9.6680043463934
 11
3.9510234454469
 21
9.6876187368746
  0
LINE
  8
QTTeja
  6
CONTINUOUS
 62
8
 10
3.9289916763646
 20
9.671154737723
 11
3.9482395604816
 21
9.6904026218399
  0
LINE
  8
QTTeja
  6
CONTINUOUS
 62
8
 10
3.9265742977635
 20
9.6743051290525
 11
3.9454556755163
 21
9.6931865068052
  0
LINE
  8
QTTeja
  6
CONTINUOUS
 62
8
 10
3.9241569191625
 20
9.677455520382
 11
3.942671790551
 21
9.6959703917705
  0
LINE
  8
QTTeja
  6
CONTINUOUS
 62
8
 10
3.8445344285753
 20
9.5883403243478
 11
3.8516512333518
 21
9.5833570804168
  0
LINE
  8
QTTeja
  6
CONTINUOUS
 62
8
 10
3.8489852776901
 20
9.5909100192778
 11
3.8525436800784
 21
9.5884183973123
  0
LINE
  8
QTTeja
  6
CONTINUOUS
 62
8
 10
3.942671790551
 20
9.6959703917705
 11
3.9510234454469
 21
9.6876187368746
  0
LINE
  8
QTTeja
  6
CONTINUOUS
 62
8
 10
3.731602612723
 20
9.0281541088871
 11
4.0174610667219
 21
9.2236802768856
  0
LINE
  8
QTTeja
  6
CONTINUOUS
 62
8
 10
3.9929932127757
 20
9.8854033411129
 11
4.566552378104
 21
10.277715774586
  0
ARC
  8
QTTeja
  6
CONTINUOUS
 62
8
 10
4.2963905327593
 20
10.510156181971
 40
0.186585
 50
150.17409691087
 51
162.021162
  0
ARC
  8
QTTeja
  6
CONTINUOUS
 62
8
 10
4.1201778314758
 20
10.287561076612
 40
0.470442
 50
351.27382
 51
42.099892059393
  0
LINE
  8
QTTeja
  6
CONTINUOUS
 62
8
 10
4.561382029332
 20
10.234128409398
 11
4.5851741414379
 21
10.216189012743
  0
ARC
  8
QTTeja
  6
CONTINUOUS
 62
8
 10
4.1201778314758
 20
10.287561076612
 40
0.4444278
 50
353.094773
 51
45.207908199949
  0
ARC
  8
QTTeja
  6
CONTINUOUS
 62
8
 10
4.2963905327593
 20
10.510156181971
 40
0.1605708
 50
144.69387201956
 51
157.378779
  0
LINE
  8
QTTeja
  6
CONTINUOUS
 62
8
 10
4.1189160551188
 20
10.567748254588
 11
4.1259370595816
 21
10.562454445096
  0
ARC
  8
QTTeja
  6
CONTINUOUS
 62
8
 10
4.9368962980629
 20
10.140359768997
 40
0.186585
 50
56.726514370703
 51
162.021162
  0
ARC
  8
QTTeja
  6
CONTINUOUS
 62
8
 10
4.7606835967794
 20
9.9177646636381
 40
0.470442
 50
28.038168143139
 51
52.06097455775
  0
ARC
  8
QTTeja
  6
CONTINUOUS
 62
8
 10
4.7606835967794
 20
9.9177646636381
 40
0.4444278
 50
20.884826410813
 51
50.267140220048
  0
ARC
  8
QTTeja
  6
CONTINUOUS
 62
8
 10
4.9368962980629
 20
10.140359768997
 40
0.1605708
 50
52.668746500458
 51
157.378779
  0
LINE
  8
QTTeja
  6
CONTINUOUS
 62
8
 10
4.7594218204224
 20
10.197951841614
 11
4.7664428248852
 21
10.192658032122
  0
LINE
  8
QTTeja
  6
CONTINUOUS
 62
8
 10
5.0500806649032
 20
10.289686251676
 11
5.1178101639403
 21
10.328789835239
  0
LINE
  8
QTTeja
  6
CONTINUOUS
 62
8
 10
5.0500806649032
 20
10.289686251676
 11
5.044835306097
 21
10.259938343641
  0
LINE
  8
QTTeja
  6
CONTINUOUS
 62
8
 10
5.0394054577384
 20
10.297161117572
 11
5.1105580281371
 21
10.338241009227
  0
LINE
  8
QTTeja
  6
CONTINUOUS
 62
8
 10
5.0394054577384
 20
10.297161117572
 11
5.0309355375499
 21
10.249125813193
  0
LINE
  8
QTTeja
  6
CONTINUOUS
 62
8
 10
5.0380523423263
 20
10.244142569262
 11
5.0531732776031
 21
10.25287263171
  0
LINE
  8
QTTeja
  6
CONTINUOUS
 62
8
 10
5.0429638601267
 20
10.294669495607
 11
5.1129754067381
 21
10.335090617898
  0
LINE
  8
QTTeja
  6
CONTINUOUS
 62
8
 10
5.0465222625149
 20
10.292177873641
 11
5.1153927853392
 21
10.331940226568
  0
LINE
  8
QTTeja
  6
CONTINUOUS
 62
8
 10
5.0429638601267
 20
10.294669495607
 11
5.0353863866647
 21
10.251695508123
  0
LINE
  8
QTTeja
  6
CONTINUOUS
 62
8
 10
5.0465222625149
 20
10.292177873641
 11
5.0398372357795
 21
10.254265203053
  0
LINE
  8
QTTeja
  6
CONTINUOUS
 62
8
 10
5.0389447890529
 20
10.249203886158
 11
5.0500117039692
 21
10.255593362507
  0
LINE
  8
QTTeja
  6
CONTINUOUS
 62
8
 10
5.0398372357795
 20
10.254265203053
 11
5.0468140325447
 21
10.258293252266
  0
LINE
  8
QTTeja
  6
CONTINUOUS
 62
8
 10
5.1178101639403
 20
10.328789835239
 11
5.1374245544215
 21
10.34840422572
  0
LINE
  8
QTTeja
  6
CONTINUOUS
 62
8
 10
5.1153927853392
 20
10.331940226568
 11
5.1346406694562
 21
10.351188110685
  0
LINE
  8
QTTeja
  6
CONTINUOUS
 62
8
 10
5.1129754067381
 20
10.335090617898
 11
5.1318567844909
 21
10.353971995651
  0
LINE
  8
QTTeja
  6
CONTINUOUS
 62
8
 10
5.1105580281371
 20
10.338241009227
 11
5.1290728995256
 21
10.356755880616
  0
LINE
  8
QTTeja
  6
CONTINUOUS
 62
8
 10
5.0309355375499
 20
10.249125813193
 11
5.0380523423263
 21
10.244142569262
  0
LINE
  8
QTTeja
  6
CONTINUOUS
 62
8
 10
5.0353863866647
 20
10.251695508123
 11
5.0389447890529
 21
10.249203886158
  0
LINE
  8
QTTeja
  6
CONTINUOUS
 62
8
 10
5.1290728995256
 20
10.356755880616
 11
5.1374245544215
 21
10.34840422572
  0
LINE
  8
QTTeja
  6
CONTINUOUS
 62
8
 10
5.1759120086307
 20
10.44485894232
 11
4.8638311055545
 21
10.312043873852
  0
LINE
  8
QTTeja
  6
CONTINUOUS
 62
8
 10
4.6334989780793
 20
9.5156069281389
 11
5.1759120086307
 21
9.8866155159645
  0
LINE
  8
QTTeja
  6
CONTINUOUS
 62
8
 10
4.039278797767
 20
9.1856071109235
 11
4.6128379630953
 21
9.5779195443962
  0
LINE
  8
QTTeja
  6
CONTINUOUS
 62
8
 10
4.5851747323226
 20
10.216188908554
 11
5.1506284703114
 21
10.602957258493
  0
LINE
  8
QTTeja
  6
CONTINUOUS
 62
8
 10
5.1759120086307
 20
9.7894547908028
 11
5.0988826529323
 21
9.8339277100508
  0
LINE
  8
QTTeja
  6
CONTINUOUS
 62
8
 10
5.1759120086307
 20
9.8349154419201
 11
5.1349240128477
 21
9.858579872319
  0
LINE
  8
QTTeja
  6
CONTINUOUS
 62
8
 10
3.6011088590244
 20
10.42525591721
 11
3.8609074896269
 21
10.602957258493
  0
LINE
  8
QTTeja
  6
CONTINUOUS
 62
8
 10
4.3867757896877
 20
9.0281541088871
 11
5.1759120086307
 21
9.4837621173212
  0
LINE
  8
QTTeja
  6
CONTINUOUS
 62
8
 10
5.1650590784355
 20
9.6593387796206
 11
5.1650590784355
 21
9.4774961751515
  0
LINE
  8
QTTeja
  6
CONTINUOUS
 62
8
 10
5.1256889996954
 20
9.636608454062
 11
5.1256889996954
 21
9.4547658495928
  0
LINE
  8
QTTeja
  6
CONTINUOUS
 62
8
 10
5.0863189209552
 20
9.6138781285033
 11
5.0863189209552
 21
9.4320355240342
  0
LINE
  8
QTTeja
  6
CONTINUOUS
 62
8
 10
5.046948842215
 20
9.5911478029447
 11
5.046948842215
 21
9.4093051984755
  0
LINE
  8
QTTeja
  6
CONTINUOUS
 62
8
 10
5.0075787634749
 20
9.5684174773861
 11
5.0075787634749
 21
9.3865748729169
  0
LINE
  8
QTTeja
  6
CONTINUOUS
 62
8
 10
4.9682086847347
 20
9.5456871518274
 11
4.9682086847347
 21
9.3638445473582
  0
LINE
  8
QTTeja
  6
CONTINUOUS
 62
8
 10
4.9288386059946
 20
9.5229568262688
 11
4.9288386059946
 21
9.3411142217996
  0
LINE
  8
QTTeja
  6
CONTINUOUS
 62
8
 10
4.8107283697741
 20
9.4547658495928
 11
4.8107283697741
 21
9.2729232451237
  0
LINE
  8
QTTeja
  6
CONTINUOUS
 62
8
 10
4.7713582910339
 20
9.4320355240342
 11
4.7713582910339
 21
9.250192919565
  0
LINE
  8
QTTeja
  6
CONTINUOUS
 62
8
 10
4.7319882122938
 20
9.4093051984755
 11
4.7319882122938
 21
9.2274625940064
  0
LINE
  8
QTTeja
  6
CONTINUOUS
 62
8
 10
4.6926181335536
 20
9.3865748729169
 11
4.6926181335536
 21
9.2047322684477
  0
LINE
  8
QTTeja
  6
CONTINUOUS
 62
8
 10
4.6532480548135
 20
9.3638445473582
 11
4.6532480548135
 21
9.1820019428891
  0
LINE
  8
QTTeja
  6
CONTINUOUS
 62
8
 10
4.8500984485143
 20
9.4774961751515
 11
4.8500984485143
 21
9.2956535706823
  0
LINE
  8
QTTeja
  6
CONTINUOUS
 62
8
 10
4.8894685272544
 20
9.5002265007101
 11
4.8894685272544
 21
9.3183838962409
  0
LINE
  8
QTTeja
  6
CONTINUOUS
 62
8
 10
4.535137818593
 20
9.2956535706823
 11
4.535137818593
 21
9.1138109662131
  0
LINE
  8
QTTeja
  6
CONTINUOUS
 62
8
 10
4.4957677398528
 20
9.2729232451237
 11
4.4957677398528
 21
9.0910806406545
  0
LINE
  8
QTTeja
  6
CONTINUOUS
 62
8
 10
4.4563976611127
 20
9.250192919565
 11
4.4563976611127
 21
9.0683503150958
  0
LINE
  8
QTTeja
  6
CONTINUOUS
 62
8
 10
4.4170275823725
 20
9.2274625940064
 11
4.4170275823725
 21
9.0456199895372
  0
LINE
  8
QTTeja
  6
CONTINUOUS
 62
8
 10
4.3776575036324
 20
9.2047322684477
 11
4.3776575036324
 21
9.0281541088871
  0
LINE
  8
QTTeja
  6
CONTINUOUS
 62
8
 10
4.5745078973332
 20
9.3183838962409
 11
4.5745078973332
 21
9.1365412917718
  0
LINE
  8
QTTeja
  6
CONTINUOUS
 62
8
 10
4.6138779760733
 20
9.3411142217996
 11
4.6138779760733
 21
9.1592716173304
  0
LINE
  8
QTTeja
  6
CONTINUOUS
 62
8
 10
4.2595472674119
 20
9.1365412917718
 11
4.2595472674119
 21
9.0281541088871
  0
LINE
  8
QTTeja
  6
CONTINUOUS
 62
8
 10
4.2201771886717
 20
9.1138109662131
 11
4.2201771886717
 21
9.0281541088871
  0
LINE
  8
QTTeja
  6
CONTINUOUS
 62
8
 10
4.1808071099316
 20
9.0910806406545
 11
4.1808071099316
 21
9.0281541088871
  0
LINE
  8
QTTeja
  6
CONTINUOUS
 62
8
 10
4.1414370311914
 20
9.0683503150958
 11
4.1414370311914
 21
9.0281541088871
  0
LINE
  8
QTTeja
  6
CONTINUOUS
 62
8
 10
4.1020669524513
 20
9.0456199895372
 11
4.1020669524513
 21
9.0281541088871
  0
LINE
  8
QTTeja
  6
CONTINUOUS
 62
8
 10
4.2989173461521
 20
9.1592716173304
 11
4.2989173461521
 21
9.0281541088871
  0
LINE
  8
QTTeja
  6
CONTINUOUS
 62
8
 10
4.3382874248922
 20
9.1820019428891
 11
4.3382874248922
 21
9.0281541088871
  0
ENDSEC
  0
EOF
