  0
SECTION
  2
HEADER
  9
$EXTMIN
 10
3.1496062992126
 20
8.6614173228346
  9
$EXTMAX
 10
4.7244094488189
 20
10.236220472441
  9
$LIMMIN
 10
0
 20
0
  9
$LIMMAX
 10
8.27
 20
11.69
  0
ENDSEC
  0
SECTION
  2
TABLES
  0
TABLE
  2
LTYPE
 70
9
  0
LTYPE
  2
CONTINUOUS
  3
___________________________
 70
64
 72
65
 73
0
 40
0
  0
LTYPE
  2
HIDDEN
  3
_ _ _ _ _ _ _ _ _ _ _ _ _ _ 
 70
64
 72
65
 73
2
 49
0.25
 49
-0.125
 40
0.375
  0
LTYPE
  2
DASHED
  3
__ __ __ __ __ __ __ __ __ 
 70
64
 72
65
 73
2
 49
0.5
 49
-0.25
 40
0.75
  0
LTYPE
  2
CENTER
  3
____ _ ____ _ ____ _ ____ _ 
 70
64
 72
65
 73
4
 49
1.25
 49
-0.25
 49
0.25
 49
-0.25
 40
2
  0
LTYPE
  2
PHANTOM
  3
_____ _ _ _____ _ _ _____ _ _ 
 70
64
 72
65
 73
6
 49
1.25
 49
-0.25
 49
0.25
 49
-0.25
 49
0.25
 49
-0.25
 40
2.5
  0
LTYPE
  2
DOT
  3
...........................
 70
64
 72
65
 73
2
 49
0
 49
-0.25
 40
0.25
  0
LTYPE
  2
DASHDOT
  3
__ . __ . __ . __ . __ . __ . 
 70
64
 72
65
 73
4
 49
0.5
 49
-0.25
 49
0
 49
-0.25
 40
1
  0
LTYPE
  2
DIVIDE
  3
__ . . __ . . __ . . __ . . 
 70
64
 72
65
 73
6
 49
0.5
 49
-0.25
 49
0
 49
-0.25
 49
0
 49
-0.25
 40
1.25
  0
LTYPE
  2
BORDER
  3
__ __ . __ __ . __ __ . __ __ . 
 70
64
 72
65
 73
6
 49
0.5
 49
-0.25
 49
0.5
 49
-0.25
 49
0
 49
-0.25
 40
1.75
  0
ENDTAB
  0
TABLE
  2
LAYER
 70
1
  0
LAYER
  2
EEFC.1aaa
 62
7
  6
CONTINUOUS
 70
0
  0
ENDTAB
  0
TABLE
  2
STYLE
 70
5
  0
STYLE
  2
ptmarker
 70
1
 40
0
 50
0
 71
0
 41
0
 42
0
  3
ptmarks
  0
STYLE
  2
TXT
 70
0
 40
0
 50
0
 71
0
 41
0
 42
0
  3
TXT
  0
STYLE
  2
ITALIC
 70
0
 40
0
 50
0
 71
0
 41
0
 42
0
  3
ITALIC
  0
STYLE
  2
SIMPLEX
 70
0
 40
0
 50
0
 71
0
 41
0
 42
0
  3
SIMPLEX
  0
STYLE
  2
COMPLEX
 70
0
 40
0
 50
0
 71
0
 41
0
 42
0
  3
COMPLEX
  0
ENDTAB
  0
ENDSEC
  0
SECTION
  2
BLOCKS
  0
ENDSEC
  0
SECTION
  2
ENTITIES
  0
LINE
  8
EEFC.1aaa
  6
CONTINUOUS
 62
8
 10
3.9364831874905
 20
9.037051476198
 11
3.9364831874905
 21
9.1901223423398
  0
LINE
  8
EEFC.1aaa
  6
CONTINUOUS
 62
8
 10
3.3191802434905
 20
9.393451476198
 11
3.3191802434905
 21
9.5465223423398
  0
LINE
  8
EEFC.1aaa
  6
CONTINUOUS
 62
8
 10
3.9364831874905
 20
9.1901223423398
 11
4.2340877256299
 21
9.3619444025466
  0
LINE
  8
EEFC.1aaa
  6
CONTINUOUS
 62
8
 10
3.5951800009178
 20
8.6614173228346
 11
4.0614744419586
 21
8.9306325438912
  0
LINE
  8
EEFC.1aaa
  6
CONTINUOUS
 62
8
 10
3.2897286831976
 20
8.6614173228346
 11
3.1496062992126
 21
8.7423170189479
  0
LINE
  8
EEFC.1aaa
  6
CONTINUOUS
 62
8
 10
3.4424543420577
 20
8.6614173228346
 11
3.4424543420577
 21
8.7263119887213
  0
LINE
  8
EEFC.1aaa
  6
CONTINUOUS
 62
8
 10
4.0614744329381
 20
8.9306325386251
 11
4.0614744329381
 21
9.0837034047668
  0
LINE
  8
EEFC.1aaa
  6
CONTINUOUS
 62
8
 10
3.1496062992126
 20
8.8998888123451
 11
3.6389094645453
 21
9.1823881265653
  0
LINE
  8
EEFC.1aaa
  6
CONTINUOUS
 62
8
 10
3.4424543420577
 20
8.7263119887213
 11
4.0614744419586
 21
9.0837034100329
  0
LINE
  8
EEFC.1aaa
  6
CONTINUOUS
 62
8
 10
3.4424543420577
 20
8.7263119887213
 11
3.1496062992126
 21
8.8953878850896
  0
LINE
  8
EEFC.1aaa
  6
CONTINUOUS
 62
8
 10
3.1496062992126
 20
8.9254006129238
 11
3.6167539670345
 21
9.1951084446921
  0
LINE
  8
EEFC.1aaa
  6
CONTINUOUS
 62
8
 10
4.257898749252
 20
9.3756917034445
 11
4.5555032783709
 21
9.5475137584434
  0
LINE
  8
EEFC.1aaa
  6
CONTINUOUS
 62
8
 10
4.5555032783709
 20
9.3944428923017
 11
4.5555032783709
 21
9.5475137584434
  0
LINE
  8
EEFC.1aaa
  6
CONTINUOUS
 62
8
 10
3.9364831874905
 20
9.037051476198
 11
4.2340877256299
 21
9.2088735364049
  0
LINE
  8
EEFC.1aaa
  6
CONTINUOUS
 62
8
 10
4.2578987492519
 20
9.2226208373028
 11
4.5555032783709
 21
9.3944428923017
  0
LINE
  8
EEFC.1aaa
  6
CONTINUOUS
 62
8
 10
3.9364831874905
 20
9.1901223419369
 11
3.3191802434905
 21
9.5465223628268
  0
LINE
  8
EEFC.1aaa
  6
CONTINUOUS
 62
8
 10
3.9364831874905
 20
9.037051476198
 11
3.3191802434905
 21
9.393451497088
  0
LINE
  8
EEFC.1aaa
  6
CONTINUOUS
 62
8
 10
4.257898749252
 20
9.3756917034445
 11
4.257898749252
 21
9.2226208373028
  0
LINE
  8
EEFC.1aaa
  6
CONTINUOUS
 62
8
 10
4.2340877256299
 20
9.3619444025466
 11
4.2340877256299
 21
9.2088735364049
  0
LINE
  8
EEFC.1aaa
  6
CONTINUOUS
 62
8
 10
3.1496062992126
 20
9.2680533329159
 11
3.3191802434905
 21
9.3659568952923
  0
LINE
  8
EEFC.1aaa
  6
CONTINUOUS
 62
8
 10
3.9364831874905
 20
8.6779033419431
 11
3.9364831874905
 21
8.8309742080848
  0
LINE
  8
EEFC.1aaa
  6
CONTINUOUS
 62
8
 10
3.9364831874905
 20
8.8309742080848
 11
4.2340877256299
 21
9.0027962682917
  0
LINE
  8
EEFC.1aaa
  6
CONTINUOUS
 62
8
 10
4.0852854565602
 20
8.944379839984
 11
4.7043055564611
 21
9.3017712612956
  0
LINE
  8
EEFC.1aaa
  6
CONTINUOUS
 62
8
 10
4.0852854565602
 20
8.944379839984
 11
4.0852854565602
 21
9.0974507061257
  0
LINE
  8
EEFC.1aaa
  6
CONTINUOUS
 62
8
 10
4.7043055474406
 20
9.3017712560295
 11
4.7043055474406
 21
9.4548421221712
  0
LINE
  8
EEFC.1aaa
  6
CONTINUOUS
 62
8
 10
4.0852854565602
 20
9.0974507061257
 11
4.7043055564611
 21
9.4548421274373
  0
LINE
  8
EEFC.1aaa
  6
CONTINUOUS
 62
8
 10
4.257898749252
 20
9.0165435691895
 11
4.5555032783709
 21
9.1883656241884
  0
LINE
  8
EEFC.1aaa
  6
CONTINUOUS
 62
8
 10
4.5555032783709
 20
9.0352947580467
 11
4.5555032783709
 21
9.1883656241884
  0
LINE
  8
EEFC.1aaa
  6
CONTINUOUS
 62
8
 10
3.9364831874905
 20
8.6779033419431
 11
4.2340877256299
 21
8.8497254021499
  0
LINE
  8
EEFC.1aaa
  6
CONTINUOUS
 62
8
 10
4.2578987492519
 20
8.8634727030478
 11
4.5555032783709
 21
9.0352947580467
  0
LINE
  8
EEFC.1aaa
  6
CONTINUOUS
 62
8
 10
4.257898749252
 20
9.0165435691895
 11
4.257898749252
 21
8.8634727030478
  0
LINE
  8
EEFC.1aaa
  6
CONTINUOUS
 62
8
 10
4.2340877256299
 20
9.0027962682917
 11
4.2340877256299
 21
8.8497254021499
  0
LINE
  8
EEFC.1aaa
  6
CONTINUOUS
 62
8
 10
4.2172428161931
 20
8.6614173228346
 11
4.7043055564611
 21
8.9426231270406
  0
LINE
  8
EEFC.1aaa
  6
CONTINUOUS
 62
8
 10
4.7043055474406
 20
8.9426231217745
 11
4.7043055474406
 21
9.0956939879163
  0
LINE
  8
EEFC.1aaa
  6
CONTINUOUS
 62
8
 10
4.0852854565602
 20
8.7383025718708
 11
4.7043055564611
 21
9.0956939931823
  0
LINE
  8
EEFC.1aaa
  6
CONTINUOUS
 62
8
 10
4.2648648634372
 20
8.6614173228346
 11
4.5555032783709
 21
8.8292174899335
  0
LINE
  8
EEFC.1aaa
  6
CONTINUOUS
 62
8
 10
4.5555032783709
 20
8.6761466237917
 11
4.5555032783709
 21
8.8292174899335
  0
LINE
  8
EEFC.1aaa
  6
CONTINUOUS
 62
8
 10
4.5299913807533
 20
8.6614173228347
 11
4.5555032783709
 21
8.6761466237917
  0
LINE
  8
EEFC.1aaa
  6
CONTINUOUS
 62
8
 10
3.1496062992126
 20
8.6614173228346
 11
3.1496062992126
 21
10.236220472441
  0
LINE
  8
EEFC.1aaa
  6
CONTINUOUS
 62
8
 10
3.1496062992126
 20
10.236220472441
 11
4.7244094488189
 21
10.236220472441
  0
LINE
  8
EEFC.1aaa
  6
CONTINUOUS
 62
8
 10
4.7244094488189
 20
10.236220472441
 11
4.7244094488189
 21
8.6614173228346
  0
LINE
  8
EEFC.1aaa
  6
CONTINUOUS
 62
8
 10
4.7244094488189
 20
8.6614173228346
 11
3.1496062992126
 21
8.6614173228346
  0
LINE
  8
EEFC.1aaa
  6
CONTINUOUS
 62
8
 10
4.0852854565602
 20
9.2760333724432
 11
4.0852854565602
 21
9.303527973836
  0
LINE
  8
EEFC.1aaa
  6
CONTINUOUS
 62
8
 10
4.0852854565602
 20
8.6614173228346
 11
4.0852854565602
 21
8.7383025718708
  0
LINE
  8
EEFC.1aaa
  6
CONTINUOUS
 62
8
 10
3.3191802434905
 20
9.5465223632297
 11
3.4679825125602
 21
9.6324333933331
  0
LINE
  8
EEFC.1aaa
  6
CONTINUOUS
 62
8
 10
3.4679825125602
 20
9.6304505921161
 11
3.4679825125602
 21
9.6579451935089
  0
LINE
  8
EEFC.1aaa
  6
CONTINUOUS
 62
8
 10
3.4679825125602
 20
9.6304505921161
 11
4.0852854565602
 21
9.2760333724432
  0
LINE
  8
EEFC.1aaa
  6
CONTINUOUS
 62
8
 10
4.085285438469
 20
9.4565988504228
 11
4.7043055383699
 21
9.8139902717343
  0
LINE
  8
EEFC.1aaa
  6
CONTINUOUS
 62
8
 10
4.085285438469
 20
9.303527984281
 11
4.7043055383699
 21
9.6609194055926
  0
LINE
  8
EEFC.1aaa
  6
CONTINUOUS
 62
8
 10
4.085285438469
 20
9.303527984281
 11
4.085285438469
 21
9.4565988504228
  0
LINE
  8
EEFC.1aaa
  6
CONTINUOUS
 62
8
 10
4.7043055293494
 20
9.6609194003265
 11
4.7043055293494
 21
9.8139902664683
  0
LINE
  8
EEFC.1aaa
  6
CONTINUOUS
 62
8
 10
4.085285438469
 20
9.4565988504228
 11
3.78853947828
 21
9.6279252104188
  0
LINE
  8
EEFC.1aaa
  6
CONTINUOUS
 62
8
 10
3.7647284546579
 20
9.6396897100996
 11
3.467982494469
 21
9.8110160700956
  0
LINE
  8
EEFC.1aaa
  6
CONTINUOUS
 62
8
 10
3.7647284546579
 20
9.4866188439578
 11
3.7647284546579
 21
9.6396897100996
  0
LINE
  8
EEFC.1aaa
  6
CONTINUOUS
 62
8
 10
3.78853947828
 20
9.4748543442771
 11
3.78853947828
 21
9.6279252104188
  0
LINE
  8
EEFC.1aaa
  6
CONTINUOUS
 62
8
 10
3.467982494469
 20
9.6579452039539
 11
3.467982494469
 21
9.8110160700956
  0
LINE
  8
EEFC.1aaa
  6
CONTINUOUS
 62
8
 10
3.467982494469
 20
9.8110160700956
 11
3.6405957874601
 21
9.9106744012698
  0
LINE
  8
EEFC.1aaa
  6
CONTINUOUS
 62
8
 10
3.78853947828
 20
9.6279252104188
 11
3.9603250082156
 21
9.72710563237
  0
LINE
  8
EEFC.1aaa
  6
CONTINUOUS
 62
8
 10
3.7647284546579
 20
9.6396897100996
 11
3.9381695107047
 21
9.7398259504967
  0
LINE
  8
EEFC.1aaa
  6
CONTINUOUS
 62
8
 10
4.085285438469
 20
9.303527984281
 11
3.78853947828
 21
9.4748543442771
  0
LINE
  8
EEFC.1aaa
  6
CONTINUOUS
 62
8
 10
3.7647284546579
 20
9.4866188439578
 11
3.467982494469
 21
9.6579452039539
  0
LINE
  8
EEFC.1aaa
  6
CONTINUOUS
 62
8
 10
4.579314301993
 20
9.4081901931995
 11
4.7244094488189
 21
9.4919609152776
  0
LINE
  8
EEFC.1aaa
  6
CONTINUOUS
 62
8
 10
4.579314301993
 20
9.5612610593413
 11
4.579314301993
 21
9.4081901931995
  0
LINE
  8
EEFC.1aaa
  6
CONTINUOUS
 62
8
 10
4.579314301993
 20
9.5612610593413
 11
4.7244094488189
 21
9.6450317814193
  0
LINE
  8
EEFC.1aaa
  6
CONTINUOUS
 62
8
 10
4.579314301993
 20
9.0490420589446
 11
4.7244094488189
 21
9.1328127810226
  0
LINE
  8
EEFC.1aaa
  6
CONTINUOUS
 62
8
 10
4.579314301993
 20
9.2021129250863
 11
4.579314301993
 21
9.0490420589446
  0
LINE
  8
EEFC.1aaa
  6
CONTINUOUS
 62
8
 10
4.579314301993
 20
9.2021129250863
 11
4.7244094488189
 21
9.2858836471644
  0
LINE
  8
EEFC.1aaa
  6
CONTINUOUS
 62
8
 10
4.579314301993
 20
8.6898939246896
 11
4.7244094488189
 21
8.7736646467677
  0
LINE
  8
EEFC.1aaa
  6
CONTINUOUS
 62
8
 10
4.579314301993
 20
8.8429647908313
 11
4.579314301993
 21
8.6898939246896
  0
LINE
  8
EEFC.1aaa
  6
CONTINUOUS
 62
8
 10
4.579314301993
 20
8.8429647908313
 11
4.7244094488189
 21
8.9267355129094
  0
LINE
  8
EEFC.1aaa
  6
CONTINUOUS
 62
8
 10
3.9364832055817
 20
9.0115396655773
 11
3.9364832055817
 21
9.0390342669702
  0
LINE
  8
EEFC.1aaa
  6
CONTINUOUS
 62
8
 10
3.3191802615817
 20
9.3659568852502
 11
3.3191802615817
 21
9.393451486643
  0
LINE
  8
EEFC.1aaa
  6
CONTINUOUS
 62
8
 10
3.3191802615817
 20
9.3659568852502
 11
3.9364832055817
 21
9.0115396655773
  0
LINE
  8
EEFC.1aaa
  6
CONTINUOUS
 62
8
 10
4.5793142839018
 20
9.9204092036383
 11
4.0323131207328
 21
10.236220472441
  0
LINE
  8
EEFC.1aaa
  6
CONTINUOUS
 62
8
 10
4.5793142839017
 20
9.7673383378995
 11
4.5793142839017
 21
9.9204092040412
  0
LINE
  8
EEFC.1aaa
  6
CONTINUOUS
 62
8
 10
4.5793142839017
 20
9.9204092040412
 11
4.7244094488189
 21
10.004179936564
  0
LINE
  8
EEFC.1aaa
  6
CONTINUOUS
 62
8
 10
4.5793142839018
 20
9.7673383378995
 11
4.7244094488189
 21
9.8511090704225
  0
LINE
  8
EEFC.1aaa
  6
CONTINUOUS
 62
8
 10
3.6405957871607
 20
9.9381689820027
 11
3.6405957871607
 21
10.091239848144
  0
LINE
  8
EEFC.1aaa
  6
CONTINUOUS
 62
8
 10
4.2578987311607
 20
9.7348398477415
 11
3.6405957871607
 21
10.091239868631
  0
LINE
  8
EEFC.1aaa
  6
CONTINUOUS
 62
8
 10
4.2578987311607
 20
9.5817689820027
 11
3.6405957871607
 21
9.9381690028926
  0
LINE
  8
EEFC.1aaa
  6
CONTINUOUS
 62
8
 10
4.257898749252
 20
9.556257171382
 11
4.257898749252
 21
9.5837517727748
  0
LINE
  8
EEFC.1aaa
  6
CONTINUOUS
 62
8
 10
3.640595805252
 20
9.9106743910548
 11
3.640595805252
 21
9.9381689924477
  0
LINE
  8
EEFC.1aaa
  6
CONTINUOUS
 62
8
 10
3.640595805252
 20
9.9106743910548
 11
4.257898749252
 21
9.556257171382
  0
LINE
  8
EEFC.1aaa
  6
CONTINUOUS
 62
8
 10
4.2578987311607
 20
9.5817689820027
 11
4.2578987311607
 21
9.7348398481444
  0
LINE
  8
EEFC.1aaa
  6
CONTINUOUS
 62
8
 10
4.2578987311607
 20
9.7348398481444
 11
4.5555032693002
 21
9.9066619083513
  0
LINE
  8
EEFC.1aaa
  6
CONTINUOUS
 62
8
 10
4.5555032693002
 20
9.9066619083513
 11
4.5555032693002
 21
9.7535910422096
  0
LINE
  8
EEFC.1aaa
  6
CONTINUOUS
 62
8
 10
4.2578987311607
 20
9.5817689820027
 11
4.5555032693002
 21
9.7535910422096
  0
LINE
  8
EEFC.1aaa
  6
CONTINUOUS
 62
8
 10
3.6405957871607
 20
10.091239869034
 11
3.8917095583729
 21
10.236220472441
  0
LINE
  8
EEFC.1aaa
  6
CONTINUOUS
 62
8
 10
4.5555032693002
 20
9.9066619079484
 11
3.9846910915296
 21
10.236220472441
  0
LINE
  8
EEFC.1aaa
  6
CONTINUOUS
 62
8
 10
3.6428020474641
 20
8.6614173228346
 11
3.9126721728889
 21
8.8172269123949
  0
LINE
  8
EEFC.1aaa
  6
CONTINUOUS
 62
8
 10
3.9126721728889
 20
8.8172269123949
 11
3.9126721728889
 21
8.6641560462532
  0
LINE
  8
EEFC.1aaa
  6
CONTINUOUS
 62
8
 10
3.9521163351602
 20
8.6614173228346
 11
4.0614744510294
 21
8.7245552604698
  0
LINE
  8
EEFC.1aaa
  6
CONTINUOUS
 62
8
 10
4.0614744510294
 20
8.7245552604698
 11
4.0614744510294
 21
8.6614173228346
  0
LINE
  8
EEFC.1aaa
  6
CONTINUOUS
 62
8
 10
4.5741791148502
 20
8.6614173228346
 11
4.7244094488189
 21
8.7481528465919
  0
LINE
  8
EEFC.1aaa
  6
CONTINUOUS
 62
8
 10
4.7244094488189
 20
10.180282591126
 11
4.6275221963138
 21
10.236220472441
  0
LINE
  8
EEFC.1aaa
  6
CONTINUOUS
 62
8
 10
4.7244094488189
 20
10.152787999746
 11
4.5799001671107
 21
10.236220472441
  0
ENDSEC
  0
EOF
