  0
SECTION
  2
HEADER
  9
$EXTMIN
 10
3.2567819756854
 20
7.4428607603642
  9
$EXTMAX
 10
4.8315851252918
 20
9.0176639099705
  9
$LIMMIN
 10
0
 20
0
  9
$LIMMAX
 10
8.27
 20
11.69
  0
ENDSEC
  0
SECTION
  2
TABLES
  0
TABLE
  2
LTYPE
 70
9
  0
LTYPE
  2
CONTINUOUS
  3
___________________________
 70
64
 72
65
 73
0
 40
0
  0
LTYPE
  2
HIDDEN
  3
_ _ _ _ _ _ _ _ _ _ _ _ _ _ 
 70
64
 72
65
 73
2
 49
0.25
 49
-0.125
 40
0.375
  0
LTYPE
  2
DASHED
  3
__ __ __ __ __ __ __ __ __ 
 70
64
 72
65
 73
2
 49
0.5
 49
-0.25
 40
0.75
  0
LTYPE
  2
CENTER
  3
____ _ ____ _ ____ _ ____ _ 
 70
64
 72
65
 73
4
 49
1.25
 49
-0.25
 49
0.25
 49
-0.25
 40
2
  0
LTYPE
  2
PHANTOM
  3
_____ _ _ _____ _ _ _____ _ _ 
 70
64
 72
65
 73
6
 49
1.25
 49
-0.25
 49
0.25
 49
-0.25
 49
0.25
 49
-0.25
 40
2.5
  0
LTYPE
  2
DOT
  3
...........................
 70
64
 72
65
 73
2
 49
0
 49
-0.25
 40
0.25
  0
LTYPE
  2
DASHDOT
  3
__ . __ . __ . __ . __ . __ . 
 70
64
 72
65
 73
4
 49
0.5
 49
-0.25
 49
0
 49
-0.25
 40
1
  0
LTYPE
  2
DIVIDE
  3
__ . . __ . . __ . . __ . . 
 70
64
 72
65
 73
6
 49
0.5
 49
-0.25
 49
0
 49
-0.25
 49
0
 49
-0.25
 40
1.25
  0
LTYPE
  2
BORDER
  3
__ __ . __ __ . __ __ . __ __ . 
 70
64
 72
65
 73
6
 49
0.5
 49
-0.25
 49
0.5
 49
-0.25
 49
0
 49
-0.25
 40
1.75
  0
ENDTAB
  0
TABLE
  2
LAYER
 70
1
  0
LAYER
  2
ECPE.4
 62
7
  6
CONTINUOUS
 70
0
  0
ENDTAB
  0
TABLE
  2
STYLE
 70
5
  0
STYLE
  2
ptmarker
 70
1
 40
0
 50
0
 71
0
 41
0
 42
0
  3
ptmarks
  0
STYLE
  2
TXT
 70
0
 40
0
 50
0
 71
0
 41
0
 42
0
  3
TXT
  0
STYLE
  2
ITALIC
 70
0
 40
0
 50
0
 71
0
 41
0
 42
0
  3
ITALIC
  0
STYLE
  2
SIMPLEX
 70
0
 40
0
 50
0
 71
0
 41
0
 42
0
  3
SIMPLEX
  0
STYLE
  2
COMPLEX
 70
0
 40
0
 50
0
 71
0
 41
0
 42
0
  3
COMPLEX
  0
ENDTAB
  0
ENDSEC
  0
SECTION
  2
BLOCKS
  0
ENDSEC
  0
SECTION
  2
ENTITIES
  0
LINE
  8
ECPE.4
  6
CONTINUOUS
 62
8
 10
4.8315851252918
 20
9.0176639099705
 11
3.2567819756854
 21
9.0176639099705
  0
LINE
  8
ECPE.4
  6
CONTINUOUS
 62
8
 10
4.8315851252918
 20
7.4428607603642
 11
4.8315851252918
 21
9.0176639099705
  0
LINE
  8
ECPE.4
  6
CONTINUOUS
 62
8
 10
3.2567819756854
 20
7.4428607603642
 11
4.8315851252918
 21
7.4428607603642
  0
LINE
  8
ECPE.4
  6
CONTINUOUS
 62
8
 10
3.2567819756854
 20
9.0176639099705
 11
3.2567819756854
 21
7.4428607603642
  0
LINE
  8
ECPE.4
  6
CONTINUOUS
 62
8
 10
4.3067560265736
 20
8.164697388199
 11
4.7300800692609
 21
8.409103638199
  0
LINE
  8
ECPE.4
  6
CONTINUOUS
 62
8
 10
3.3475787652946
 20
8.718478638199
 11
4.3067560265736
 21
8.164697388199
  0
LINE
  8
ECPE.4
  6
CONTINUOUS
 62
8
 10
4.3067560265736
 20
8.164697388199
 11
4.3067560265736
 21
7.7217840023722
  0
LINE
  8
ECPE.4
  6
CONTINUOUS
 62
8
 10
4.3067560265736
 20
7.7217840023722
 11
4.7300800692609
 21
7.9661902523722
  0
LINE
  8
ECPE.4
  6
CONTINUOUS
 62
8
 10
3.3475787652946
 20
8.2755652523722
 11
4.3067560265736
 21
7.7217840023722
  0
LINE
  8
ECPE.4
  6
CONTINUOUS
 62
8
 10
3.3475787652946
 20
8.718478638199
 11
3.3475787652946
 21
8.2755652523722
  0
LINE
  8
ECPE.4
  6
CONTINUOUS
 62
8
 10
4.7300800692609
 20
8.409103638199
 11
4.7300800692609
 21
7.9661902523722
  0
LINE
  8
ECPE.4
  6
CONTINUOUS
 62
8
 10
3.3475787652946
 20
8.718478638199
 11
3.7709028079819
 21
8.962884888199
  0
LINE
  8
ECPE.4
  6
CONTINUOUS
 62
8
 10
3.7709028079819
 20
8.962884888199
 11
4.7300800692609
 21
8.409103638199
  0
LINE
  8
ECPE.4
  6
HIDDEN
 62
8
 10
4.0388294172778
 20
8.443134888199
 11
4.2478121725285
 21
8.563791138199
  0
LINE
  8
ECPE.4
  6
HIDDEN
 62
8
 10
3.829846662027
 20
8.563791138199
 11
4.0388294172778
 21
8.684447388199
  0
LINE
  8
ECPE.4
  6
HIDDEN
 62
8
 10
3.829846662027
 20
8.563791138199
 11
4.0388294172778
 21
8.443134888199
  0
LINE
  8
ECPE.4
  6
HIDDEN
 62
8
 10
4.0388294172778
 20
8.684447388199
 11
4.2478121725285
 21
8.563791138199
  0
LINE
  8
ECPE.4
  6
CONTINUOUS
 62
8
 10
3.6144823864906
 20
7.9966281807214
 11
3.621835799501
 21
7.9824065556276
  0
LINE
  8
ECPE.4
  6
CONTINUOUS
 62
8
 10
3.621835799501
 20
7.9824065556276
 11
3.6332463661176
 21
7.9691069877987
  0
LINE
  8
ECPE.4
  6
CONTINUOUS
 62
8
 10
3.6332463661176
 20
7.9691069877987
 11
3.6483858251142
 21
7.9571120815866
  0
LINE
  8
ECPE.4
  6
CONTINUOUS
 62
8
 10
3.6668186418196
 20
7.9467669086039
 11
3.6880145376579
 21
7.9383690806419
  0
LINE
  8
ECPE.4
  6
CONTINUOUS
 62
8
 10
3.6880145376579
 20
7.9383690806419
 11
3.711363745297
 21
7.9321601879213
  0
LINE
  8
ECPE.4
  6
CONTINUOUS
 62
8
 10
3.761792616344
 20
7.9269555721486
 11
3.7874215329476
 21
7.9281095764163
  0
LINE
  8
ECPE.4
  6
CONTINUOUS
 62
8
 10
3.7874215329476
 20
7.9281095764163
 11
3.8123440030874
 21
7.9317476631824
  0
LINE
  8
ECPE.4
  6
CONTINUOUS
 62
8
 10
3.8759271879203
 20
7.9561825291838
 11
3.886577201384
 21
7.9643743602032
  0
LINE
  8
ECPE.4
  6
CONTINUOUS
 62
8
 10
3.621835799501
 20
8.070989232793
 11
3.6332463661176
 21
8.0576896649641
  0
LINE
  8
ECPE.4
  6
CONTINUOUS
 62
8
 10
3.6332463661176
 20
8.0576896649641
 11
3.6483858251142
 21
8.0456947587519
  0
LINE
  8
ECPE.4
  6
CONTINUOUS
 62
8
 10
3.6483858251142
 20
8.0456947587519
 11
3.6668186418196
 21
8.0353495857692
  0
LINE
  8
ECPE.4
  6
CONTINUOUS
 62
8
 10
3.711363745297
 20
8.0207428650866
 11
3.7361945505449
 21
8.0169015261464
  0
LINE
  8
ECPE.4
  6
CONTINUOUS
 62
8
 10
3.761792616344
 20
8.0155382493139
 11
3.7874215329476
 21
8.0166922535816
  0
LINE
  8
ECPE.4
  6
CONTINUOUS
 62
8
 10
3.7874215329476
 20
8.0166922535816
 11
3.7942367939559
 21
8.0176871192889
  0
LINE
  8
ECPE.4
  6
CONTINUOUS
 62
8
 10
4.2003146402636
 20
7.6384558315866
 11
4.218747456969
 21
7.6281106586039
  0
LINE
  8
ECPE.4
  6
CONTINUOUS
 62
8
 10
4.2399433528072
 20
7.6197128306419
 11
4.2632925604463
 21
7.6135039379213
  0
LINE
  8
ECPE.4
  6
CONTINUOUS
 62
8
 10
4.2632925604463
 20
7.6135039379213
 11
4.2881233656943
 21
7.609662598981
  0
LINE
  8
ECPE.4
  6
CONTINUOUS
 62
8
 10
4.339350348097
 20
7.6094533264163
 11
4.3642728182367
 21
7.6130914131824
  0
LINE
  8
ECPE.4
  6
CONTINUOUS
 62
8
 10
4.387771867823
 20
7.6191089213146
 11
4.4091714719838
 21
7.62733273806
  0
LINE
  8
ECPE.4
  6
CONTINUOUS
 62
8
 10
4.4278560030696
 20
7.6375262791838
 11
4.4432879411399
 21
7.6493962950672
  0
LINE
  8
ECPE.4
  6
CONTINUOUS
 62
8
 10
4.4432879411399
 20
7.6493962950672
 11
4.452632347738
 21
7.6599108952751
  0
LINE
  8
ECPE.4
  6
CONTINUOUS
 62
8
 10
4.1737646146504
 20
7.752332982793
 11
4.185175181267
 21
7.7390334149641
  0
LINE
  8
ECPE.4
  6
CONTINUOUS
 62
8
 10
4.185175181267
 20
7.7390334149641
 11
4.2003146402636
 21
7.7270385087519
  0
LINE
  8
ECPE.4
  6
CONTINUOUS
 62
8
 10
4.2003146402636
 20
7.7270385087519
 11
4.218747456969
 21
7.7166933357692
  0
LINE
  8
ECPE.4
  6
CONTINUOUS
 62
8
 10
4.2399433528072
 20
7.7082955078073
 11
4.2632925604463
 21
7.7020866150866
  0
LINE
  8
ECPE.4
  6
CONTINUOUS
 62
8
 10
4.3137214314934
 20
7.6968819993139
 11
4.339350348097
 21
7.6980360035816
  0
LINE
  8
ECPE.4
  6
CONTINUOUS
 62
8
 10
4.4091714719838
 20
7.7159154152253
 11
4.4278560030696
 21
7.7261089563491
  0
LINE
  8
ECPE.4
  6
CONTINUOUS
 62
8
 10
4.4278560030696
 20
7.7261089563491
 11
4.4432879411399
 21
7.7379789722325
  0
LINE
  8
ECPE.4
  6
CONTINUOUS
 62
8
 10
4.4432879411399
 20
7.7379789722325
 11
4.4525612010003
 21
7.7484135160458
  0
LINE
  8
ECPE.4
  6
HIDDEN
 62
8
 10
3.829846662027
 20
8.563791138199
 11
3.829846662027
 21
9.0176639099705
  0
LINE
  8
ECPE.4
  6
HIDDEN
 62
8
 10
4.2478121725285
 20
8.563791138199
 11
4.2478121725285
 21
9.0176639099705
  0
LINE
  8
ECPE.4
  6
HIDDEN
 62
8
 10
4.0388294172778
 20
8.443134888199
 11
4.0388294172778
 21
9.0176639099705
  0
LINE
  8
ECPE.4
  6
CONTINUOUS
 62
8
 10
4.4602780301167
 20
7.8104199724443
 11
4.4639874719383
 21
7.7982199344902
  0
LINE
  8
ECPE.4
  6
CONTINUOUS
 62
8
 10
4.4639874719383
 20
7.7982199344902
 11
4.4658948091081
 21
7.7905905858109
  0
LINE
  8
ECPE.4
  6
CONTINUOUS
 62
8
 10
4.4658948091081
 20
7.7905905858109
 11
4.4639874719383
 21
7.7619805282633
  0
LINE
  8
ECPE.4
  6
CONTINUOUS
 62
8
 10
4.4639874719383
 20
7.7619805282633
 11
4.4601727975986
 21
7.754351179584
  0
LINE
  8
ECPE.4
  6
CONTINUOUS
 62
8
 10
4.4601727975986
 20
7.754351179584
 11
4.4563581232589
 21
7.7467218309046
  0
LINE
  8
ECPE.4
  6
CONTINUOUS
 62
8
 10
4.4563581232589
 20
7.7467218309046
 11
4.4563581232589
 21
7.7390924822253
  0
LINE
  8
ECPE.4
  6
CONTINUOUS
 62
8
 10
4.4563581232589
 20
7.7390924822253
 11
4.4582654604288
 21
7.7314631335459
  0
LINE
  8
ECPE.4
  6
CONTINUOUS
 62
8
 10
4.4582654604288
 20
7.7314631335459
 11
4.4601727975986
 21
7.7162044361873
  0
LINE
  8
ECPE.4
  6
CONTINUOUS
 62
8
 10
4.4601727975986
 20
7.7162044361873
 11
4.4639874719383
 21
7.7085750875079
  0
LINE
  8
ECPE.4
  6
CONTINUOUS
 62
8
 10
4.4639874719383
 20
7.7085750875079
 11
4.4658948091081
 21
7.7028530759984
  0
LINE
  8
ECPE.4
  6
CONTINUOUS
 62
8
 10
4.4658948091081
 20
7.7028530759984
 11
4.4658948091081
 21
7.6875943786397
  0
LINE
  8
ECPE.4
  6
CONTINUOUS
 62
8
 10
4.4658948091081
 20
7.6875943786397
 11
4.4639874719383
 21
7.672335681281
  0
LINE
  8
ECPE.4
  6
CONTINUOUS
 62
8
 10
4.4639874719383
 20
7.672335681281
 11
4.4601727975986
 21
7.6647063326017
  0
LINE
  8
ECPE.4
  6
CONTINUOUS
 62
8
 10
4.4601727975986
 20
7.6647063326017
 11
4.4563581232589
 21
7.6589843210922
  0
LINE
  8
ECPE.4
  6
CONTINUOUS
 62
8
 10
4.4563581232589
 20
7.6589843210922
 11
4.4563581232589
 21
7.6513549724128
  0
LINE
  8
ECPE.4
  6
CONTINUOUS
 62
8
 10
4.4563581232589
 20
7.6513549724128
 11
4.4582654604288
 21
7.6437256237335
  0
LINE
  8
ECPE.4
  6
CONTINUOUS
 62
8
 10
4.4582654604288
 20
7.6437256237335
 11
4.4601727975986
 21
7.6284669263748
  0
LINE
  8
ECPE.4
  6
CONTINUOUS
 62
8
 10
4.4601727975986
 20
7.6284669263748
 11
4.4639874719383
 21
7.6208375776955
  0
LINE
  8
ECPE.4
  6
CONTINUOUS
 62
8
 10
4.4639874719383
 20
7.6208375776955
 11
4.4658948091081
 21
7.6132082290161
  0
LINE
  8
ECPE.4
  6
CONTINUOUS
 62
8
 10
4.4658948091081
 20
7.6132082290161
 11
4.4639874719383
 21
7.5845981714686
  0
LINE
  8
ECPE.4
  6
CONTINUOUS
 62
8
 10
4.1644277220815
 20
7.803957287284
 11
4.1626281991042
 21
7.7924979229807
  0
LINE
  8
ECPE.4
  6
CONTINUOUS
 62
8
 10
4.1626281991042
 20
7.7924979229807
 11
4.1626281991042
 21
7.7810538999617
  0
LINE
  8
ECPE.4
  6
CONTINUOUS
 62
8
 10
4.1626281991042
 20
7.7810538999617
 11
4.1645355362741
 21
7.7734245512823
  0
LINE
  8
ECPE.4
  6
CONTINUOUS
 62
8
 10
4.1645355362741
 20
7.7734245512823
 11
4.1683502106137
 21
7.765795202603
  0
LINE
  8
ECPE.4
  6
CONTINUOUS
 62
8
 10
4.1683502106137
 20
7.765795202603
 11
4.1721648849534
 21
7.7505365052443
  0
LINE
  8
ECPE.4
  6
CONTINUOUS
 62
8
 10
4.1721648849534
 20
7.7505365052443
 11
4.1721648849534
 21
7.742907156565
  0
LINE
  8
ECPE.4
  6
CONTINUOUS
 62
8
 10
4.1721648849534
 20
7.742907156565
 11
4.1721648849534
 21
7.7352778078856
  0
LINE
  8
ECPE.4
  6
CONTINUOUS
 62
8
 10
4.1721648849534
 20
7.7352778078856
 11
4.1683502106137
 21
7.7219264476968
  0
LINE
  8
ECPE.4
  6
CONTINUOUS
 62
8
 10
4.1683502106137
 20
7.7219264476968
 11
4.1664428734439
 21
7.7142970990174
  0
LINE
  8
ECPE.4
  6
CONTINUOUS
 62
8
 10
4.1664428734439
 20
7.7142970990174
 11
4.1664428734439
 21
7.7066677503381
  0
LINE
  8
ECPE.4
  6
CONTINUOUS
 62
8
 10
4.1664428734439
 20
7.7066677503381
 11
4.1626281991042
 21
7.6914090529794
  0
LINE
  8
ECPE.4
  6
CONTINUOUS
 62
8
 10
4.1626281991042
 20
7.6914090529794
 11
4.1645355362741
 21
7.6837797043001
  0
LINE
  8
ECPE.4
  6
CONTINUOUS
 62
8
 10
4.1645355362741
 20
7.6837797043001
 11
4.1683502106137
 21
7.6761503556207
  0
LINE
  8
ECPE.4
  6
CONTINUOUS
 62
8
 10
4.1683502106137
 20
7.6761503556207
 11
4.1721648849534
 21
7.6627989954319
  0
LINE
  8
ECPE.4
  6
CONTINUOUS
 62
8
 10
4.1721648849534
 20
7.6627989954319
 11
4.1721648849534
 21
7.6475402980732
  0
LINE
  8
ECPE.4
  6
CONTINUOUS
 62
8
 10
4.1721648849534
 20
7.6475402980732
 11
4.1683502106137
 21
7.6322816007145
  0
LINE
  8
ECPE.4
  6
CONTINUOUS
 62
8
 10
4.1683502106137
 20
7.6322816007145
 11
4.1664428734439
 21
7.6246522520351
  0
LINE
  8
ECPE.4
  6
CONTINUOUS
 62
8
 10
4.1664428734439
 20
7.6246522520351
 11
4.1645355362741
 21
7.6189302405256
  0
LINE
  8
ECPE.4
  6
CONTINUOUS
 62
8
 10
4.1645355362741
 20
7.6189302405256
 11
4.1645355362741
 21
7.603671543167
  0
LINE
  8
ECPE.4
  6
CONTINUOUS
 62
8
 10
4.1645355362741
 20
7.603671543167
 11
4.1645355362741
 21
7.5884128458083
  0
LINE
  8
ECPE.4
  6
CONTINUOUS
 62
8
 10
4.1645355362741
 20
7.5884128458083
 11
4.1683502106137
 21
7.5807834971289
  0
LINE
  8
ECPE.4
  6
CONTINUOUS
 62
8
 10
3.9065537093777
 20
7.9550321342371
 11
3.9127670298558
 21
7.9450848965676
  0
LINE
  8
ECPE.4
  6
CONTINUOUS
 62
8
 10
3.9127670298558
 20
7.9450848965676
 11
3.9165817041954
 21
7.9355482107184
  0
LINE
  8
ECPE.4
  6
CONTINUOUS
 62
8
 10
3.9165817041954
 20
7.9355482107184
 11
3.9165817041954
 21
7.9202895133597
  0
LINE
  8
ECPE.4
  6
CONTINUOUS
 62
8
 10
3.9165817041954
 20
7.9202895133597
 11
3.9146743670256
 21
7.905030816001
  0
LINE
  8
ECPE.4
  6
CONTINUOUS
 62
8
 10
3.9146743670256
 20
7.905030816001
 11
3.9108596926859
 21
7.8974014673217
  0
LINE
  8
ECPE.4
  6
CONTINUOUS
 62
8
 10
3.6148071146008
 20
8.1212808929651
 11
3.6114077570217
 21
8.1110232303433
  0
LINE
  8
ECPE.4
  6
CONTINUOUS
 62
8
 10
3.6114077570217
 20
8.1110232303433
 11
3.6095004198519
 21
8.1033938816639
  0
LINE
  8
ECPE.4
  6
CONTINUOUS
 62
8
 10
3.6095004198519
 20
8.1033938816639
 11
3.6114077570217
 21
8.0938571958147
  0
LINE
  8
ECPE.4
  6
CONTINUOUS
 62
8
 10
3.6114077570217
 20
8.0938571958147
 11
3.6133150941915
 21
8.0843205099656
  0
LINE
  8
ECPE.4
  6
CONTINUOUS
 62
8
 10
3.6133150941915
 20
8.0843205099656
 11
3.6171297685312
 21
8.0766911612862
  0
LINE
  8
ECPE.4
  6
CONTINUOUS
 62
8
 10
3.6171297685312
 20
8.0766911612862
 11
3.6209444428709
 21
8.0690618126069
  0
LINE
  8
ECPE.4
  6
CONTINUOUS
 62
8
 10
3.6209444428709
 20
8.0690618126069
 11
3.6266664543804
 21
8.0538031152482
  0
LINE
  8
ECPE.4
  6
CONTINUOUS
 62
8
 10
3.6266664543804
 20
8.0538031152482
 11
3.6247591172106
 21
8.0461737665688
  0
LINE
  8
ECPE.4
  6
CONTINUOUS
 62
8
 10
3.6247591172106
 20
8.0461737665688
 11
3.619037105701
 21
8.0385444178895
  0
LINE
  8
ECPE.4
  6
CONTINUOUS
 62
8
 10
3.619037105701
 20
8.0385444178895
 11
3.6114077570217
 21
8.0251930577007
  0
LINE
  8
ECPE.4
  6
CONTINUOUS
 62
8
 10
3.6114077570217
 20
8.0251930577007
 11
3.6114077570217
 21
8.0175637090213
  0
LINE
  8
ECPE.4
  6
CONTINUOUS
 62
8
 10
3.6114077570217
 20
8.0175637090213
 11
3.6133150941915
 21
8.009934360342
  0
LINE
  8
ECPE.4
  6
CONTINUOUS
 62
8
 10
3.6133150941915
 20
8.009934360342
 11
3.6133150941915
 21
7.9965830001531
  0
LINE
  8
ECPE.4
  6
CONTINUOUS
 62
8
 10
3.6133150941915
 20
7.9965830001531
 11
3.6171297685312
 21
7.9508069080771
  0
LINE
  8
ECPE.4
  6
CONTINUOUS
 62
8
 10
3.6171297685312
 20
7.9508069080771
 11
3.6152224313614
 21
7.9431775593977
  0
LINE
  8
ECPE.4
  6
CONTINUOUS
 62
8
 10
3.6152224313614
 20
7.9431775593977
 11
3.6133150941915
 21
7.9355482107184
  0
LINE
  8
ECPE.4
  6
CONTINUOUS
 62
8
 10
3.6133150941915
 20
7.9355482107184
 11
3.6095004198519
 21
7.9221968505295
  0
LINE
  8
ECPE.4
  6
CONTINUOUS
 62
8
 10
3.6095004198519
 20
7.9221968505295
 11
3.6133150941915
 21
7.9145675018502
  0
LINE
  8
ECPE.4
  6
CONTINUOUS
 62
8
 10
3.6133150941915
 20
7.9145675018502
 11
3.6152224313614
 21
7.9069381531708
  0
LINE
  8
ECPE.4
  6
CONTINUOUS
 62
8
 10
3.6152224313614
 20
7.9069381531708
 11
3.6209444428709
 21
7.893586792982
  0
LINE
  8
ECPE.4
  6
CONTINUOUS
 62
8
 10
3.6108701067268
 20
8.1212808929651
 11
3.6056857455122
 21
8.1033938816639
  0
LINE
  8
ECPE.4
  6
CONTINUOUS
 62
8
 10
3.6056857455122
 20
8.1033938816639
 11
3.607593082682
 21
8.0938571958147
  0
LINE
  8
ECPE.4
  6
CONTINUOUS
 62
8
 10
3.607593082682
 20
8.0938571958147
 11
3.6095004198519
 21
8.0843205099656
  0
LINE
  8
ECPE.4
  6
CONTINUOUS
 62
8
 10
3.6095004198519
 20
8.0843205099656
 11
3.6133150941915
 21
8.0766911612862
  0
LINE
  8
ECPE.4
  6
CONTINUOUS
 62
8
 10
3.6133150941915
 20
8.0766911612862
 11
3.6171297685312
 21
8.0690618126069
  0
LINE
  8
ECPE.4
  6
CONTINUOUS
 62
8
 10
3.6171297685312
 20
8.0690618126069
 11
3.6228517800407
 21
8.0538031152482
  0
LINE
  8
ECPE.4
  6
CONTINUOUS
 62
8
 10
3.6228517800407
 20
8.0538031152482
 11
3.6209444428709
 21
8.0461737665688
  0
LINE
  8
ECPE.4
  6
CONTINUOUS
 62
8
 10
3.6209444428709
 20
8.0461737665688
 11
3.6152224313614
 21
8.0385444178895
  0
LINE
  8
ECPE.4
  6
CONTINUOUS
 62
8
 10
3.6152224313614
 20
8.0385444178895
 11
3.607593082682
 21
8.0251930577007
  0
LINE
  8
ECPE.4
  6
CONTINUOUS
 62
8
 10
3.607593082682
 20
8.0251930577007
 11
3.607593082682
 21
8.0175637090213
  0
LINE
  8
ECPE.4
  6
CONTINUOUS
 62
8
 10
3.607593082682
 20
8.0175637090213
 11
3.6095004198519
 21
8.009934360342
  0
LINE
  8
ECPE.4
  6
CONTINUOUS
 62
8
 10
3.6095004198519
 20
8.009934360342
 11
3.6095004198519
 21
7.9965830001531
  0
LINE
  8
ECPE.4
  6
CONTINUOUS
 62
8
 10
3.6095004198519
 20
7.9965830001531
 11
3.6133150941915
 21
7.9508069080771
  0
LINE
  8
ECPE.4
  6
CONTINUOUS
 62
8
 10
3.6133150941915
 20
7.9508069080771
 11
3.6114077570217
 21
7.9431775593977
  0
LINE
  8
ECPE.4
  6
CONTINUOUS
 62
8
 10
3.6114077570217
 20
7.9431775593977
 11
3.6095004198519
 21
7.9355482107184
  0
LINE
  8
ECPE.4
  6
CONTINUOUS
 62
8
 10
3.6095004198519
 20
7.9355482107184
 11
3.6056857455122
 21
7.9221968505295
  0
LINE
  8
ECPE.4
  6
CONTINUOUS
 62
8
 10
3.6056857455122
 20
7.9221968505295
 11
3.6095004198519
 21
7.9145675018502
  0
LINE
  8
ECPE.4
  6
CONTINUOUS
 62
8
 10
3.6095004198519
 20
7.9145675018502
 11
3.6114077570217
 21
7.9069381531708
  0
LINE
  8
ECPE.4
  6
CONTINUOUS
 62
8
 10
3.6114077570217
 20
7.9069381531708
 11
3.6171297685312
 21
7.893586792982
  0
LINE
  8
ECPE.4
  6
CONTINUOUS
 62
8
 10
4.1604907142075
 20
7.803957287284
 11
4.1588135247646
 21
7.7924979229807
  0
LINE
  8
ECPE.4
  6
CONTINUOUS
 62
8
 10
4.1588135247646
 20
7.7924979229807
 11
4.1588135247646
 21
7.7810538999617
  0
LINE
  8
ECPE.4
  6
CONTINUOUS
 62
8
 10
4.1588135247646
 20
7.7810538999617
 11
4.1607208619344
 21
7.7734245512823
  0
LINE
  8
ECPE.4
  6
CONTINUOUS
 62
8
 10
4.1607208619344
 20
7.7734245512823
 11
4.1645355362741
 21
7.765795202603
  0
LINE
  8
ECPE.4
  6
CONTINUOUS
 62
8
 10
4.1645355362741
 20
7.765795202603
 11
4.1683502106137
 21
7.7505365052443
  0
LINE
  8
ECPE.4
  6
CONTINUOUS
 62
8
 10
4.1683502106137
 20
7.7505365052443
 11
4.1683502106137
 21
7.742907156565
  0
LINE
  8
ECPE.4
  6
CONTINUOUS
 62
8
 10
4.1683502106137
 20
7.742907156565
 11
4.1683502106137
 21
7.7352778078856
  0
LINE
  8
ECPE.4
  6
CONTINUOUS
 62
8
 10
4.1683502106137
 20
7.7352778078856
 11
4.1645355362741
 21
7.7219264476968
  0
LINE
  8
ECPE.4
  6
CONTINUOUS
 62
8
 10
4.1645355362741
 20
7.7219264476968
 11
4.1607208619344
 21
7.7066677503381
  0
LINE
  8
ECPE.4
  6
CONTINUOUS
 62
8
 10
4.1607208619344
 20
7.7066677503381
 11
4.1588135247646
 21
7.6914090529794
  0
LINE
  8
ECPE.4
  6
CONTINUOUS
 62
8
 10
4.1588135247646
 20
7.6914090529794
 11
4.1607208619344
 21
7.6837797043001
  0
LINE
  8
ECPE.4
  6
CONTINUOUS
 62
8
 10
4.1607208619344
 20
7.6837797043001
 11
4.1645355362741
 21
7.6761503556207
  0
LINE
  8
ECPE.4
  6
CONTINUOUS
 62
8
 10
4.1645355362741
 20
7.6761503556207
 11
4.1683502106137
 21
7.6627989954319
  0
LINE
  8
ECPE.4
  6
CONTINUOUS
 62
8
 10
4.1683502106137
 20
7.6627989954319
 11
4.1683502106137
 21
7.6551696467525
  0
LINE
  8
ECPE.4
  6
CONTINUOUS
 62
8
 10
4.1683502106137
 20
7.6551696467525
 11
4.1683502106137
 21
7.6475402980732
  0
LINE
  8
ECPE.4
  6
CONTINUOUS
 62
8
 10
4.1683502106137
 20
7.6475402980732
 11
4.1645355362741
 21
7.6322816007145
  0
LINE
  8
ECPE.4
  6
CONTINUOUS
 62
8
 10
4.1645355362741
 20
7.6322816007145
 11
4.1626281991042
 21
7.6246522520351
  0
LINE
  8
ECPE.4
  6
CONTINUOUS
 62
8
 10
4.1626281991042
 20
7.6246522520351
 11
4.1588135247646
 21
7.6189302405256
  0
LINE
  8
ECPE.4
  6
CONTINUOUS
 62
8
 10
4.1588135247646
 20
7.6189302405256
 11
4.1607208619344
 21
7.603671543167
  0
LINE
  8
ECPE.4
  6
CONTINUOUS
 62
8
 10
4.1607208619344
 20
7.603671543167
 11
4.1607208619344
 21
7.5884128458083
  0
LINE
  8
ECPE.4
  6
CONTINUOUS
 62
8
 10
4.1607208619344
 20
7.5884128458083
 11
4.1645355362741
 21
7.5807834971289
  0
LINE
  8
ECPE.4
  6
CONTINUOUS
 62
8
 10
3.9026167015037
 20
7.9550321342371
 11
3.9089523555161
 21
7.9450848965676
  0
LINE
  8
ECPE.4
  6
CONTINUOUS
 62
8
 10
3.9089523555161
 20
7.9450848965676
 11
3.9127670298558
 21
7.9355482107184
  0
LINE
  8
ECPE.4
  6
CONTINUOUS
 62
8
 10
3.9127670298558
 20
7.9355482107184
 11
3.9127670298558
 21
7.9202895133597
  0
LINE
  8
ECPE.4
  6
CONTINUOUS
 62
8
 10
3.9127670298558
 20
7.9202895133597
 11
3.9089523555161
 21
7.905030816001
  0
LINE
  8
ECPE.4
  6
CONTINUOUS
 62
8
 10
3.9089523555161
 20
7.905030816001
 11
3.9070450183462
 21
7.9012161416613
  0
LINE
  8
ECPE.4
  6
CONTINUOUS
 62
8
 10
3.9070450183462
 20
7.9012161416613
 11
3.9051376811764
 21
7.8974014673217
  0
LINE
  8
ECPE.4
  6
CONTINUOUS
 62
8
 10
4.4569289365577
 20
7.8084863723765
 11
4.4601727975986
 21
7.7982199344902
  0
LINE
  8
ECPE.4
  6
CONTINUOUS
 62
8
 10
4.4601727975986
 20
7.7982199344902
 11
4.4620801347685
 21
7.7905905858109
  0
LINE
  8
ECPE.4
  6
CONTINUOUS
 62
8
 10
4.4620801347685
 20
7.7905905858109
 11
4.4601727975986
 21
7.7619805282633
  0
LINE
  8
ECPE.4
  6
CONTINUOUS
 62
8
 10
4.4601727975986
 20
7.7619805282633
 11
4.4563581232589
 21
7.754351179584
  0
LINE
  8
ECPE.4
  6
CONTINUOUS
 62
8
 10
4.4563581232589
 20
7.754351179584
 11
4.4506361117494
 21
7.7467218309046
  0
LINE
  8
ECPE.4
  6
CONTINUOUS
 62
8
 10
4.4506361117494
 20
7.7467218309046
 11
4.4544507860891
 21
7.7314631335459
  0
LINE
  8
ECPE.4
  6
CONTINUOUS
 62
8
 10
4.4544507860891
 20
7.7314631335459
 11
4.4563581232589
 21
7.7162044361873
  0
LINE
  8
ECPE.4
  6
CONTINUOUS
 62
8
 10
4.4563581232589
 20
7.7162044361873
 11
4.4601727975986
 21
7.7085750875079
  0
LINE
  8
ECPE.4
  6
CONTINUOUS
 62
8
 10
4.4601727975986
 20
7.7085750875079
 11
4.4620801347685
 21
7.7028530759984
  0
LINE
  8
ECPE.4
  6
CONTINUOUS
 62
8
 10
4.4620801347685
 20
7.7028530759984
 11
4.4620801347685
 21
7.6875943786397
  0
LINE
  8
ECPE.4
  6
CONTINUOUS
 62
8
 10
4.4620801347685
 20
7.6875943786397
 11
4.4601727975986
 21
7.672335681281
  0
LINE
  8
ECPE.4
  6
CONTINUOUS
 62
8
 10
4.4601727975986
 20
7.672335681281
 11
4.4563581232589
 21
7.6647063326017
  0
LINE
  8
ECPE.4
  6
CONTINUOUS
 62
8
 10
4.4563581232589
 20
7.6647063326017
 11
4.4506361117494
 21
7.6589843210922
  0
LINE
  8
ECPE.4
  6
CONTINUOUS
 62
8
 10
4.4506361117494
 20
7.6589843210922
 11
4.4544507860891
 21
7.6437256237335
  0
LINE
  8
ECPE.4
  6
CONTINUOUS
 62
8
 10
4.4544507860891
 20
7.6437256237335
 11
4.4563581232589
 21
7.6284669263748
  0
LINE
  8
ECPE.4
  6
CONTINUOUS
 62
8
 10
4.4563581232589
 20
7.6284669263748
 11
4.4601727975986
 21
7.6208375776955
  0
LINE
  8
ECPE.4
  6
CONTINUOUS
 62
8
 10
4.4601727975986
 20
7.6208375776955
 11
4.4620801347685
 21
7.6132082290161
  0
LINE
  8
ECPE.4
  6
CONTINUOUS
 62
8
 10
4.4620801347685
 20
7.6132082290161
 11
4.4601727975986
 21
7.5845981714686
  0
LINE
  8
ECPE.4
  6
CONTINUOUS
 62
8
 10
4.0441835504886
 20
7.4428607603642
 11
4.2151313103936
 21
7.5415574955627
  0
LINE
  8
ECPE.4
  6
CONTINUOUS
 62
8
 10
3.621835799501
 20
7.8052412012969
 11
3.6332463661176
 21
7.791941633468
  0
LINE
  8
ECPE.4
  6
CONTINUOUS
 62
8
 10
3.6483858251142
 20
7.7799467272559
 11
3.6668186418196
 21
7.7696015542732
  0
LINE
  8
ECPE.4
  6
CONTINUOUS
 62
8
 10
3.711363745297
 20
7.7549948335906
 11
3.7361945505449
 21
7.7511534946503
  0
LINE
  8
ECPE.4
  6
CONTINUOUS
 62
8
 10
3.7361945505449
 20
7.7511534946503
 11
3.761792616344
 21
7.7497902178179
  0
LINE
  8
ECPE.4
  6
CONTINUOUS
 62
8
 10
3.7874215329476
 20
7.7509442220856
 11
3.8123440030874
 21
7.7545823088517
  0
LINE
  8
ECPE.4
  6
CONTINUOUS
 62
8
 10
3.8123440030874
 20
7.7545823088517
 11
3.8358430526737
 21
7.7605998169839
  0
LINE
  8
ECPE.4
  6
CONTINUOUS
 62
8
 10
3.8759271879203
 20
7.7790171748531
 11
3.8913591259905
 21
7.7908871907365
  0
LINE
  8
ECPE.4
  6
CONTINUOUS
 62
8
 10
3.8913591259905
 20
7.7908871907365
 11
3.9016826208874
 21
7.8025034897972
  0
LINE
  8
ECPE.4
  6
CONTINUOUS
 62
8
 10
3.621835799501
 20
7.8938238784623
 11
3.6332463661176
 21
7.8805243106334
  0
LINE
  8
ECPE.4
  6
CONTINUOUS
 62
8
 10
3.6332463661176
 20
7.8805243106334
 11
3.6483858251142
 21
7.8685294044212
  0
LINE
  8
ECPE.4
  6
CONTINUOUS
 62
8
 10
3.6483858251142
 20
7.8685294044212
 11
3.6668186418196
 21
7.8581842314385
  0
LINE
  8
ECPE.4
  6
CONTINUOUS
 62
8
 10
3.6668186418196
 20
7.8581842314385
 11
3.6880145376579
 21
7.8497864034765
  0
LINE
  8
ECPE.4
  6
CONTINUOUS
 62
8
 10
3.711363745297
 20
7.8435775107559
 11
3.7361945505449
 21
7.8397361718157
  0
LINE
  8
ECPE.4
  6
CONTINUOUS
 62
8
 10
3.761792616344
 20
7.8383728949832
 11
3.7874215329476
 21
7.8395268992509
  0
LINE
  8
ECPE.4
  6
CONTINUOUS
 62
8
 10
3.7874215329476
 20
7.8395268992509
 11
3.8123440030874
 21
7.8431649860171
  0
LINE
  8
ECPE.4
  6
CONTINUOUS
 62
8
 10
3.8572426568345
 20
7.8574063108946
 11
3.8759271879203
 21
7.8675998520184
  0
LINE
  8
ECPE.4
  6
CONTINUOUS
 62
8
 10
3.8759271879203
 20
7.8675998520184
 11
3.8913591259905
 21
7.8794698679018
  0
LINE
  8
ECPE.4
  6
CONTINUOUS
 62
8
 10
3.8913591259905
 20
7.8794698679018
 11
3.9015177175628
 21
7.8909006129081
  0
LINE
  8
ECPE.4
  6
CONTINUOUS
 62
8
 10
3.9108596926859
 20
7.8974014673217
 11
3.9051376811764
 21
7.8916794558122
  0
LINE
  8
ECPE.4
  6
CONTINUOUS
 62
8
 10
3.9051376811764
 20
7.8916794558122
 11
3.9089523555161
 21
7.8764207584535
  0
LINE
  8
ECPE.4
  6
CONTINUOUS
 62
8
 10
3.9089523555161
 20
7.8764207584535
 11
3.9108596926859
 21
7.8611620610948
  0
LINE
  8
ECPE.4
  6
CONTINUOUS
 62
8
 10
3.9108596926859
 20
7.8611620610948
 11
3.9146743670256
 21
7.8535327124154
  0
LINE
  8
ECPE.4
  6
CONTINUOUS
 62
8
 10
3.9146743670256
 20
7.8535327124154
 11
3.9165817041954
 21
7.8459033637361
  0
LINE
  8
ECPE.4
  6
CONTINUOUS
 62
8
 10
3.9165817041954
 20
7.8459033637361
 11
3.9146743670256
 21
7.8172933061886
  0
LINE
  8
ECPE.4
  6
CONTINUOUS
 62
8
 10
3.9146743670256
 20
7.8172933061886
 11
3.9108596926859
 21
7.8096639575092
  0
LINE
  8
ECPE.4
  6
CONTINUOUS
 62
8
 10
3.9108596926859
 20
7.8096639575092
 11
3.9051376811764
 21
7.8039419459997
  0
LINE
  8
ECPE.4
  6
CONTINUOUS
 62
8
 10
3.9051376811764
 20
7.8039419459997
 11
3.9089523555161
 21
7.788683248641
  0
LINE
  8
ECPE.4
  6
CONTINUOUS
 62
8
 10
3.6209444428709
 20
7.893586792982
 11
3.6209444428709
 21
7.8859574443026
  0
LINE
  8
ECPE.4
  6
CONTINUOUS
 62
8
 10
3.6209444428709
 20
7.8859574443026
 11
3.6209444428709
 21
7.8783280956233
  0
LINE
  8
ECPE.4
  6
CONTINUOUS
 62
8
 10
3.6209444428709
 20
7.8783280956233
 11
3.6171297685312
 21
7.8630693982646
  0
LINE
  8
ECPE.4
  6
CONTINUOUS
 62
8
 10
3.6171297685312
 20
7.8630693982646
 11
3.6133150941915
 21
7.8478107009059
  0
LINE
  8
ECPE.4
  6
CONTINUOUS
 62
8
 10
3.6133150941915
 20
7.8478107009059
 11
3.6095004198519
 21
7.8325520035472
  0
LINE
  8
ECPE.4
  6
CONTINUOUS
 62
8
 10
3.6095004198519
 20
7.8325520035472
 11
3.6133150941915
 21
7.8249226548679
  0
LINE
  8
ECPE.4
  6
CONTINUOUS
 62
8
 10
3.6133150941915
 20
7.8249226548679
 11
3.6152224313614
 21
7.8172933061886
  0
LINE
  8
ECPE.4
  6
CONTINUOUS
 62
8
 10
3.6152224313614
 20
7.8172933061886
 11
3.6209444428709
 21
7.8039419459997
  0
LINE
  8
ECPE.4
  6
CONTINUOUS
 62
8
 10
3.6209444428709
 20
7.8039419459997
 11
3.6209444428709
 21
7.7963125973204
  0
LINE
  8
ECPE.4
  6
CONTINUOUS
 62
8
 10
3.6209444428709
 20
7.7963125973204
 11
3.6209444428709
 21
7.788683248641
  0
LINE
  8
ECPE.4
  6
CONTINUOUS
 62
8
 10
3.6171297685312
 20
7.893586792982
 11
3.6171297685312
 21
7.8859574443026
  0
LINE
  8
ECPE.4
  6
CONTINUOUS
 62
8
 10
3.6171297685312
 20
7.8859574443026
 11
3.6171297685312
 21
7.8783280956233
  0
LINE
  8
ECPE.4
  6
CONTINUOUS
 62
8
 10
3.6171297685312
 20
7.8783280956233
 11
3.6133150941915
 21
7.8630693982646
  0
LINE
  8
ECPE.4
  6
CONTINUOUS
 62
8
 10
3.6133150941915
 20
7.8630693982646
 11
3.6095004198519
 21
7.8478107009059
  0
LINE
  8
ECPE.4
  6
CONTINUOUS
 62
8
 10
3.6095004198519
 20
7.8478107009059
 11
3.6056857455122
 21
7.8325520035472
  0
LINE
  8
ECPE.4
  6
CONTINUOUS
 62
8
 10
3.6056857455122
 20
7.8325520035472
 11
3.6095004198519
 21
7.8249226548679
  0
LINE
  8
ECPE.4
  6
CONTINUOUS
 62
8
 10
3.6095004198519
 20
7.8249226548679
 11
3.6114077570217
 21
7.8172933061886
  0
LINE
  8
ECPE.4
  6
CONTINUOUS
 62
8
 10
3.6114077570217
 20
7.8172933061886
 11
3.6171297685312
 21
7.8039419459997
  0
LINE
  8
ECPE.4
  6
CONTINUOUS
 62
8
 10
3.6171297685312
 20
7.8039419459997
 11
3.6171297685312
 21
7.7963125973204
  0
LINE
  8
ECPE.4
  6
CONTINUOUS
 62
8
 10
3.6171297685312
 20
7.7963125973204
 11
3.6171297685312
 21
7.788683248641
  0
LINE
  8
ECPE.4
  6
CONTINUOUS
 62
8
 10
3.9051376811764
 20
7.8974014673217
 11
3.9013230068367
 21
7.8916794558122
  0
LINE
  8
ECPE.4
  6
CONTINUOUS
 62
8
 10
3.9013230068367
 20
7.8916794558122
 11
3.9051376811764
 21
7.8764207584535
  0
LINE
  8
ECPE.4
  6
CONTINUOUS
 62
8
 10
3.9051376811764
 20
7.8764207584535
 11
3.9070450183462
 21
7.8611620610948
  0
LINE
  8
ECPE.4
  6
CONTINUOUS
 62
8
 10
3.9070450183462
 20
7.8611620610948
 11
3.9108596926859
 21
7.8535327124154
  0
LINE
  8
ECPE.4
  6
CONTINUOUS
 62
8
 10
3.9108596926859
 20
7.8535327124154
 11
3.9127670298558
 21
7.8459033637361
  0
LINE
  8
ECPE.4
  6
CONTINUOUS
 62
8
 10
3.9127670298558
 20
7.8459033637361
 11
3.9089523555161
 21
7.8172933061886
  0
LINE
  8
ECPE.4
  6
CONTINUOUS
 62
8
 10
3.9089523555161
 20
7.8172933061886
 11
3.9070450183462
 21
7.8134786318489
  0
LINE
  8
ECPE.4
  6
CONTINUOUS
 62
8
 10
3.9070450183462
 20
7.8134786318489
 11
3.9051376811764
 21
7.8096639575092
  0
LINE
  8
ECPE.4
  6
CONTINUOUS
 62
8
 10
3.9051376811764
 20
7.8096639575092
 11
3.9013230068367
 21
7.8039419459997
  0
LINE
  8
ECPE.4
  6
CONTINUOUS
 62
8
 10
3.9013230068367
 20
7.8039419459997
 11
3.9051376811764
 21
7.788683248641
  0
LINE
  8
ECPE.4
  6
CONTINUOUS
 62
8
 10
4.1737646146504
 20
7.5751676284623
 11
4.185175181267
 21
7.5618680606334
  0
LINE
  8
ECPE.4
  6
CONTINUOUS
 62
8
 10
4.2003146402636
 20
7.5498731544212
 11
4.218747456969
 21
7.5395279814385
  0
LINE
  8
ECPE.4
  6
CONTINUOUS
 62
8
 10
4.2399433528072
 20
7.5311301534765
 11
4.2632925604463
 21
7.5249212607559
  0
LINE
  8
ECPE.4
  6
CONTINUOUS
 62
8
 10
4.3137214314934
 20
7.5197166449832
 11
4.339350348097
 21
7.5208706492509
  0
LINE
  8
ECPE.4
  6
CONTINUOUS
 62
8
 10
4.3642728182367
 20
7.5245087360171
 11
4.387771867823
 21
7.5305262441493
  0
LINE
  8
ECPE.4
  6
CONTINUOUS
 62
8
 10
4.387771867823
 20
7.5305262441493
 11
4.4091714719838
 21
7.5387500608946
  0
LINE
  8
ECPE.4
  6
CONTINUOUS
 62
8
 10
4.4091714719838
 20
7.5387500608946
 11
4.4278560030696
 21
7.5489436020184
  0
LINE
  8
ECPE.4
  6
CONTINUOUS
 62
8
 10
4.4432879411399
 20
7.5608136179018
 11
4.4526561112727
 21
7.5713549575355
  0
LINE
  8
ECPE.4
  6
CONTINUOUS
 62
8
 10
4.4639874719383
 20
7.5845981714686
 11
4.4601727975986
 21
7.5769688227893
  0
LINE
  8
ECPE.4
  6
CONTINUOUS
 62
8
 10
4.4601727975986
 20
7.5769688227893
 11
4.4563581232589
 21
7.5693394741099
  0
LINE
  8
ECPE.4
  6
CONTINUOUS
 62
8
 10
4.4563581232589
 20
7.5693394741099
 11
4.4563581232589
 21
7.5617101254306
  0
LINE
  8
ECPE.4
  6
CONTINUOUS
 62
8
 10
4.4563581232589
 20
7.5617101254306
 11
4.4582654604288
 21
7.5540807767512
  0
LINE
  8
ECPE.4
  6
CONTINUOUS
 62
8
 10
4.1683502106137
 20
7.5807834971289
 11
4.1721648849534
 21
7.5750614856194
  0
LINE
  8
ECPE.4
  6
CONTINUOUS
 62
8
 10
4.1721648849534
 20
7.5750614856194
 11
4.1721648849534
 21
7.5598027882607
  0
LINE
  8
ECPE.4
  6
CONTINUOUS
 62
8
 10
4.1645355362741
 20
7.5807834971289
 11
4.1683502106137
 21
7.5750614856194
  0
LINE
  8
ECPE.4
  6
CONTINUOUS
 62
8
 10
4.1683502106137
 20
7.5750614856194
 11
4.1683502106137
 21
7.5674321369401
  0
LINE
  8
ECPE.4
  6
CONTINUOUS
 62
8
 10
4.4601727975986
 20
7.5845981714686
 11
4.4563581232589
 21
7.5769688227893
  0
LINE
  8
ECPE.4
  6
CONTINUOUS
 62
8
 10
4.4563581232589
 20
7.5769688227893
 11
4.4506361117494
 21
7.5693394741099
  0
LINE
  8
ECPE.4
  6
CONTINUOUS
 62
8
 10
4.4506361117494
 20
7.5693394741099
 11
4.4544507860891
 21
7.5540807767512
  0
LINE
  8
ECPE.4
  6
CONTINUOUS
 62
8
 10
4.2410339441894
 20
7.4428607603642
 11
4.4030335280115
 21
7.5363912636925
  0
LINE
  8
ECPE.4
  6
CONTINUOUS
 62
8
 10
4.4378843378902
 20
7.4428607603642
 11
4.8315851252918
 21
7.6701640159506
  0
LINE
  8
ECPE.4
  6
CONTINUOUS
 62
8
 10
4.634734731591
 20
7.4428607603642
 11
4.8315851252918
 21
7.5565123881574
  0
LINE
  8
ECPE.4
  6
CONTINUOUS
 62
8
 10
3.8473331567878
 20
7.4428607603642
 11
4.1626995432101
 21
7.6249376284584
  0
LINE
  8
ECPE.4
  6
CONTINUOUS
 62
8
 10
3.650482763087
 20
7.4428607603642
 11
4.1683502106137
 21
7.7418516705983
  0
LINE
  8
ECPE.4
  6
CONTINUOUS
 62
8
 10
3.4536323693862
 20
7.4428607603642
 11
4.1217488112648
 21
7.8285979679328
  0
LINE
  8
ECPE.4
  6
CONTINUOUS
 62
8
 10
3.2567819756854
 20
7.4428607603642
 11
3.7914054775125
 21
7.7515257830592
  0
LINE
  8
ECPE.4
  6
CONTINUOUS
 62
8
 10
3.2567819756854
 20
7.5565123881574
 11
3.6464449939274
 21
7.7814844366327
  0
LINE
  8
ECPE.4
  6
CONTINUOUS
 62
8
 10
3.2567819756854
 20
7.6701640159507
 11
3.6170955305926
 21
7.878191143869
  0
LINE
  8
ECPE.4
  6
CONTINUOUS
 62
8
 10
3.2567819756854
 20
7.7838156437439
 11
3.4536323693862
 21
7.8974672715371
  0
LINE
  8
ECPE.4
  6
CONTINUOUS
 62
8
 10
4.4658948091081
 20
7.6863358690485
 11
4.8315851252918
 21
7.8974672715371
  0
LINE
  8
ECPE.4
  6
CONTINUOUS
 62
8
 10
3.9150489031555
 20
7.8229113481377
 11
4.0233236144144
 21
7.8854237818294
  0
LINE
  8
ECPE.4
  6
CONTINUOUS
 62
8
 10
4.4563581232589
 20
7.567178233113
 11
4.8315851252918
 21
7.7838156437439
  0
ENDSEC
  0
EOF
