  0
SECTION
  2
HEADER
  9
$EXTMIN
 10
1.2852787944715
 20
5.0976955349987
  9
$EXTMAX
 10
2.8600819440778
 20
6.672498684605
  9
$LIMMIN
 10
0
 20
0
  9
$LIMMAX
 10
8.2666666666667
 20
11.69
  0
ENDSEC
  0
SECTION
  2
TABLES
  0
TABLE
  2
LTYPE
 70
9
  0
LTYPE
  2
CONTINUOUS
  3
___________________________
 70
64
 72
65
 73
0
 40
0
  0
LTYPE
  2
HIDDEN
  3
_ _ _ _ _ _ _ _ _ _ _ _ _ _ 
 70
64
 72
65
 73
2
 49
0.25
 49
-0.125
 40
0.375
  0
LTYPE
  2
DASHED
  3
__ __ __ __ __ __ __ __ __ 
 70
64
 72
65
 73
2
 49
0.5
 49
-0.25
 40
0.75
  0
LTYPE
  2
CENTER
  3
____ _ ____ _ ____ _ ____ _ 
 70
64
 72
65
 73
4
 49
1.25
 49
-0.25
 49
0.25
 49
-0.25
 40
2
  0
LTYPE
  2
PHANTOM
  3
_____ _ _ _____ _ _ _____ _ _ 
 70
64
 72
65
 73
6
 49
1.25
 49
-0.25
 49
0.25
 49
-0.25
 49
0.25
 49
-0.25
 40
2.5
  0
LTYPE
  2
DOT
  3
...........................
 70
64
 72
65
 73
2
 49
0
 49
-0.25
 40
0.25
  0
LTYPE
  2
DASHDOT
  3
__ . __ . __ . __ . __ . __ . 
 70
64
 72
65
 73
4
 49
0.5
 49
-0.25
 49
0
 49
-0.25
 40
1
  0
LTYPE
  2
DIVIDE
  3
__ . . __ . . __ . . __ . . 
 70
64
 72
65
 73
6
 49
0.5
 49
-0.25
 49
0
 49
-0.25
 49
0
 49
-0.25
 40
1.25
  0
LTYPE
  2
BORDER
  3
__ __ . __ __ . __ __ . __ __ . 
 70
64
 72
65
 73
6
 49
0.5
 49
-0.25
 49
0.5
 49
-0.25
 49
0
 49
-0.25
 40
1.75
  0
ENDTAB
  0
TABLE
  2
LAYER
 70
1
  0
LAYER
  2
q_t_piz
 62
7
  6
CONTINUOUS
 70
0
  0
ENDTAB
  0
TABLE
  2
STYLE
 70
5
  0
STYLE
  2
ptmarker
 70
1
 40
0
 50
0
 71
0
 41
0
 42
0
  3
ptmarks
  0
STYLE
  2
TXT
 70
0
 40
0
 50
0
 71
0
 41
0
 42
0
  3
TXT
  0
STYLE
  2
ITALIC
 70
0
 40
0
 50
0
 71
0
 41
0
 42
0
  3
ITALIC
  0
STYLE
  2
SIMPLEX
 70
0
 40
0
 50
0
 71
0
 41
0
 42
0
  3
SIMPLEX
  0
STYLE
  2
COMPLEX
 70
0
 40
0
 50
0
 71
0
 41
0
 42
0
  3
COMPLEX
  0
ENDTAB
  0
ENDSEC
  0
SECTION
  2
BLOCKS
  0
ENDSEC
  0
SECTION
  2
ENTITIES
  0
LINE
  8
q_t_piz
  6
CONTINUOUS
 62
8
 10
2.0015444770394
 20
5.3576815984918
 11
2.0015444770394
 21
5.1145499283723
  0
LINE
  8
q_t_piz
  6
CONTINUOUS
 62
8
 10
2.6531432933674
 20
5.9044379249481
 11
2.6531432933674
 21
5.6613062548287
  0
LINE
  8
q_t_piz
  6
CONTINUOUS
 62
8
 10
2.6656946178694
 20
5.9149697367086
 11
2.6656946178694
 21
5.6718380665891
  0
LINE
  8
q_t_piz
  6
CONTINUOUS
 62
8
 10
2.2208353581105
 20
5.8254409515058
 11
2.8600819440778
 21
6.30103954482
  0
LINE
  8
q_t_piz
  6
CONTINUOUS
 62
8
 10
2.2442576691088
 20
5.7937960712326
 11
2.8600819440778
 21
6.2522777584609
  0
LINE
  8
q_t_piz
  6
CONTINUOUS
 62
8
 10
1.6042005984643
 20
5.2314588242631
 11
1.5807782874661
 21
5.2631037045363
  0
LINE
  8
q_t_piz
  6
CONTINUOUS
 62
8
 10
2.2442576691088
 20
5.7937960712326
 11
2.2208353581105
 21
5.8254409515058
  0
LINE
  8
q_t_piz
  6
CONTINUOUS
 62
8
 10
1.5901413809536
 20
5.0976955349987
 11
1.9486460563287
 21
5.3645932843816
  0
LINE
  8
q_t_piz
  6
CONTINUOUS
 62
8
 10
1.4742572927417
 20
5.0976955349987
 11
2.8600819440778
 21
6.1287634052937
  0
LINE
  8
q_t_piz
  6
CONTINUOUS
 62
8
 10
1.6042005984643
 20
5.2314588242631
 11
2.8600819440778
 21
6.1664526525347
  0
LINE
  8
q_t_piz
  6
CONTINUOUS
 62
8
 10
1.5807782874661
 20
5.2631037045363
 11
2.8600819440778
 21
6.2149038418435
  0
ARC
  8
q_t_piz
  6
CONTINUOUS
 62
8
 10
1.6061422146109
 20
5.2288353760572
 40
0.026481497249143
 50
216.5592
 51
306.4693
  0
LINE
  8
q_t_piz
  6
CONTINUOUS
 62
8
 10
1.5848489120928
 20
5.2130819749795
 11
1.5592932865423
 21
5.2475872166108
  0
ARC
  8
q_t_piz
  6
CONTINUOUS
 62
8
 10
1.580764858229
 20
5.2630869361521
 40
0.026481497249143
 50
126.6491
 51
216.5592
  0
LINE
  8
q_t_piz
  6
CONTINUOUS
 62
8
 10
1.5649603447916
 20
5.2843581277699
 11
1.7243297730979
 21
5.4029296310292
  0
ARC
  8
q_t_piz
  6
CONTINUOUS
 62
8
 10
2.0233968301001
 20
5.919836448875
 40
0.026481497249143
 50
216.5592
 51
306.4693
  0
LINE
  8
q_t_piz
  6
CONTINUOUS
 62
8
 10
2.0021487377625
 20
5.9040604845625
 11
1.9762241399793
 21
5.9390460630747
  0
ARC
  8
q_t_piz
  6
CONTINUOUS
 62
8
 10
1.9980188142001
 20
5.9540880666702
 40
0.026481497249143
 50
126.6491
 51
216.5592
  0
LINE
  8
q_t_piz
  6
CONTINUOUS
 62
8
 10
1.9821942186434
 20
5.9753424073893
 11
2.1415636469498
 21
6.0939139106486
  0
LINE
  8
q_t_piz
  6
CONTINUOUS
 62
8
 10
2.6531432933674
 20
5.9044379249481
 11
2.6370314831208
 21
5.9137400829311
  0
LINE
  8
q_t_piz
  6
CONTINUOUS
 62
8
 10
1.2852787944715
 20
5.0976955349987
 11
1.2852787944715
 21
6.672498684605
  0
LINE
  8
q_t_piz
  6
CONTINUOUS
 62
8
 10
1.2852787944715
 20
6.672498684605
 11
2.8600819440778
 21
6.672498684605
  0
LINE
  8
q_t_piz
  6
CONTINUOUS
 62
8
 10
2.8600819440778
 20
6.672498684605
 11
2.8600819440778
 21
5.0976955349987
  0
LINE
  8
q_t_piz
  6
CONTINUOUS
 62
8
 10
2.8600819440778
 20
5.0976955349987
 11
1.2852787944715
 21
5.0976955349987
  0
LINE
  8
q_t_piz
  6
CONTINUOUS
 62
8
 10
1.6917051518472
 20
5.0976955349987
 11
2.0015444770394
 21
5.3576815984918
  0
LINE
  8
q_t_piz
  6
CONTINUOUS
 62
8
 10
1.9814581931855
 20
5.0976955349987
 11
2.0015444770394
 21
5.1145499283723
  0
LINE
  8
q_t_piz
  6
CONTINUOUS
 62
8
 10
2.6656946178694
 20
5.9149697367086
 11
2.6504860406535
 21
5.9237504128582
  0
LINE
  8
q_t_piz
  6
CONTINUOUS
 62
8
 10
2.0140958015414
 20
5.3682134102522
 11
1.9519961114774
 21
5.4040666830273
  0
LINE
  8
q_t_piz
  6
CONTINUOUS
 62
8
 10
2.0015444770394
 20
5.3576815984918
 11
1.9385415539448
 21
5.3940563531002
  0
LINE
  8
q_t_piz
  6
CONTINUOUS
 62
8
 10
2.8600819440778
 20
6.3884263428314
 11
2.7320058720001
 21
6.4623710975223
  0
LINE
  8
q_t_piz
  6
CONTINUOUS
 62
8
 10
2.8600819440778
 20
6.3703043401181
 11
2.7555109186392
 21
6.4306784498045
  0
LINE
  8
q_t_piz
  6
CONTINUOUS
 62
8
 10
2.2208353581105
 20
5.8254409515058
 11
1.9980121613179
 21
5.9540879841557
  0
LINE
  8
q_t_piz
  6
CONTINUOUS
 62
8
 10
2.2442576691088
 20
5.7937960712326
 11
2.0214582438901
 21
5.9224293793579
  0
LINE
  8
q_t_piz
  6
CONTINUOUS
 62
8
 10
1.557841834488
 20
5.2763460718375
 11
1.3579615862404
 21
5.3917469869689
  0
LINE
  8
q_t_piz
  6
CONTINUOUS
 62
8
 10
1.5544426695134
 20
5.2601865779373
 11
1.3814076688126
 21
5.3600883821711
  0
LINE
  8
q_t_piz
  6
CONTINUOUS
 62
8
 10
1.7923825807707
 20
6.072808277838
 11
1.5523657677327
 21
6.2113820494555
  0
LINE
  8
q_t_piz
  6
CONTINUOUS
 62
8
 10
2.0391372197351
 20
5.8985406786214
 11
2.0494915500383
 21
5.9062443425069
  0
LINE
  8
q_t_piz
  6
CONTINUOUS
 62
8
 10
1.3467361871855
 20
6.3301023431378
 11
1.2852787944715
 21
6.3655847853649
  0
LINE
  8
q_t_piz
  6
CONTINUOUS
 62
8
 10
2.7022961124277
 20
6.4795240352089
 11
2.4622792993898
 21
6.6180978068264
  0
LINE
  8
q_t_piz
  6
CONTINUOUS
 62
8
 10
1.3282518266681
 20
5.4088999246556
 11
1.2852787944715
 21
5.4337104163621
  0
ARC
  8
q_t_piz
  6
CONTINUOUS
 62
8
 10
1.5777504365149
 20
6.1771305141748
 40
0.026481497249143
 50
216.5592
 51
306.4693
  0
LINE
  8
q_t_piz
  6
CONTINUOUS
 62
8
 10
1.5565023441773
 20
6.1613545498623
 11
1.5305777463941
 21
6.1963401283745
  0
ARC
  8
q_t_piz
  6
CONTINUOUS
 62
8
 10
1.5523724206149
 20
6.2113821319701
 40
0.026481497249143
 50
126.6491
 51
216.5592
  0
LINE
  8
q_t_piz
  6
CONTINUOUS
 62
8
 10
1.5365478250582
 20
6.2326364726891
 11
1.6959172533646
 21
6.3512079759484
  0
LINE
  8
q_t_piz
  6
CONTINUOUS
 62
8
 10
1.5934908261499
 20
6.1558347439212
 11
1.6038451564531
 21
6.1635384078067
  0
ARC
  8
q_t_piz
  6
CONTINUOUS
 62
8
 10
2.4876639681719
 20
6.5838462715457
 40
0.026481497249143
 50
216.5592
 51
306.4693
  0
LINE
  8
q_t_piz
  6
CONTINUOUS
 62
8
 10
2.4664158758344
 20
6.5680703072332
 11
2.4404912780512
 21
6.6030558857455
  0
ARC
  8
q_t_piz
  6
CONTINUOUS
 62
8
 10
2.4622859522719
 20
6.6180978893409
 40
0.026481497249143
 50
126.6491
 51
216.5592
  0
LINE
  8
q_t_piz
  6
CONTINUOUS
 62
8
 10
2.4464613567153
 20
6.63935223006
 11
2.4910127992291
 21
6.672498684605
  0
LINE
  8
q_t_piz
  6
CONTINUOUS
 62
8
 10
2.5034043578069
 20
6.5625505012921
 11
2.5137586881102
 21
6.5702541651776
  0
LINE
  8
q_t_piz
  6
CONTINUOUS
 62
8
 10
1.3579615862404
 20
5.3917469869689
 11
2.0494915500383
 21
5.9062443425069
  0
LINE
  8
q_t_piz
  6
CONTINUOUS
 62
8
 10
1.2852787944715
 20
5.9265254663823
 11
1.6038451564531
 21
6.1635384078067
  0
LINE
  8
q_t_piz
  6
CONTINUOUS
 62
8
 10
1.822092340343
 20
6.0556553401514
 11
2.5137586881102
 21
6.5702541651776
  0
LINE
  8
q_t_piz
  6
CONTINUOUS
 62
8
 10
1.7923825807707
 20
6.072808277838
 11
2.4634458284927
 21
6.5720784243629
  0
LINE
  8
q_t_piz
  6
CONTINUOUS
 62
8
 10
1.3282518266681
 20
5.4088999246556
 11
1.9991786904209
 21
5.9080686016922
  0
LINE
  8
q_t_piz
  6
CONTINUOUS
 62
8
 10
1.2852787944715
 20
5.9657824249123
 11
1.5535322968356
 21
6.165362666992
  0
LINE
  8
q_t_piz
  6
CONTINUOUS
 62
8
 10
2.7022961124277
 20
6.4795240352089
 11
2.8600819440778
 21
6.5969164800417
  0
LINE
  8
q_t_piz
  6
CONTINUOUS
 62
8
 10
2.7321422559694
 20
6.4624725670105
 11
2.8600819440778
 21
6.5576595215116
  0
LINE
  8
q_t_piz
  6
CONTINUOUS
 62
8
 10
1.3765823307271
 20
6.3130508749394
 11
1.8597119875266
 21
6.672498684605
  0
LINE
  8
q_t_piz
  6
CONTINUOUS
 62
8
 10
1.3467361871855
 20
6.3301023431378
 11
1.8069471621705
 21
6.672498684605
  0
LINE
  8
q_t_piz
  6
CONTINUOUS
 62
8
 10
1.9750834660905
 20
5.9673258725174
 11
1.822092340343
 21
6.0556553401514
  0
LINE
  8
q_t_piz
  6
CONTINUOUS
 62
8
 10
1.9980121613179
 20
5.9540879841557
 11
2.1573815896243
 21
6.072659487415
  0
LINE
  8
q_t_piz
  6
CONTINUOUS
 62
8
 10
1.9716999916859
 20
5.9511573196624
 11
1.8455384229152
 21
6.0239967353536
  0
LINE
  8
q_t_piz
  6
CONTINUOUS
 62
8
 10
2.0214582438901
 20
5.9224293793579
 11
1.9980186274801
 21
5.9540614435106
  0
LINE
  8
q_t_piz
  6
CONTINUOUS
 62
8
 10
1.5260535981007
 20
6.2084513849622
 11
1.3999509933969
 21
6.2812567577334
  0
LINE
  8
q_t_piz
  6
CONTINUOUS
 62
8
 10
1.5758118503049
 20
6.1797234446577
 11
1.5523572583791
 21
6.2113757184618
  0
LINE
  8
q_t_piz
  6
CONTINUOUS
 62
8
 10
1.5294370725053
 20
6.2246199378172
 11
1.3764459467578
 21
6.3129494054512
  0
LINE
  8
q_t_piz
  6
CONTINUOUS
 62
8
 10
1.5523657677327
 20
6.2113820494555
 11
1.7117351960391
 21
6.3299535527148
  0
LINE
  8
q_t_piz
  6
CONTINUOUS
 62
8
 10
1.3701822697576
 20
6.29844373834
 11
1.3467276778318
 21
6.3300960121441
  0
LINE
  8
q_t_piz
  6
CONTINUOUS
 62
8
 10
1.4000284132992
 20
6.2813922701416
 11
1.3765738213734
 21
6.3130445439457
  0
LINE
  8
q_t_piz
  6
CONTINUOUS
 62
8
 10
2.7257421949999
 20
6.4478654304111
 11
2.7022876030741
 21
6.4795177042152
  0
LINE
  8
q_t_piz
  6
CONTINUOUS
 62
8
 10
2.7555883385415
 20
6.4308139622127
 11
2.7321337466157
 21
6.4624662360168
  0
LINE
  8
q_t_piz
  6
CONTINUOUS
 62
8
 10
1.3516979092402
 20
5.3772413198578
 11
1.3282433173144
 21
5.4088935936618
  0
LINE
  8
q_t_piz
  6
CONTINUOUS
 62
8
 10
1.3814076688126
 20
5.3600883821711
 11
1.3579530768868
 21
5.3917406559752
  0
LINE
  8
q_t_piz
  6
CONTINUOUS
 62
8
 10
1.3516979092402
 20
5.3772413198578
 11
1.2852787944715
 21
5.4155884136488
  0
LINE
  8
q_t_piz
  6
CONTINUOUS
 62
8
 10
1.3516979092402
 20
5.3772413198578
 11
1.3626559408422
 21
5.3853940805135
  0
LINE
  8
q_t_piz
  6
CONTINUOUS
 62
8
 10
1.8158286633428
 20
6.0411496730402
 11
1.792374071417
 21
6.0728019468443
  0
LINE
  8
q_t_piz
  6
CONTINUOUS
 62
8
 10
1.8455384229152
 20
6.0239967353536
 11
1.8220838309893
 21
6.0556490091576
  0
LINE
  8
q_t_piz
  6
CONTINUOUS
 62
8
 10
1.8158286633428
 20
6.0411496730402
 11
1.8267866949448
 21
6.0493024336959
  0
LINE
  8
q_t_piz
  6
CONTINUOUS
 62
8
 10
1.3701822697576
 20
6.29844373834
 11
1.3811403013596
 21
6.3065964989957
  0
LINE
  8
q_t_piz
  6
CONTINUOUS
 62
8
 10
1.3701822697576
 20
6.29844373834
 11
1.2852787944715
 21
6.3474627826516
  0
LINE
  8
q_t_piz
  6
CONTINUOUS
 62
8
 10
1.8158286633428
 20
6.0411496730402
 11
1.5758118503049
 21
6.1797234446577
  0
LINE
  8
q_t_piz
  6
CONTINUOUS
 62
8
 10
2.7257421949999
 20
6.4478654304111
 11
2.4857016103881
 21
6.5864529265532
  0
LINE
  8
q_t_piz
  6
CONTINUOUS
 62
8
 10
2.7257421949999
 20
6.4478654304111
 11
2.7368366105711
 21
6.4561196605551
  0
LINE
  8
q_t_piz
  6
CONTINUOUS
 62
8
 10
2.4393506041624
 20
6.6313356951881
 11
2.3680542151009
 21
6.672498684605
  0
LINE
  8
q_t_piz
  6
CONTINUOUS
 62
8
 10
2.4622792993898
 20
6.6180978068264
 11
2.5353983587981
 21
6.672498684605
  0
LINE
  8
q_t_piz
  6
CONTINUOUS
 62
8
 10
2.4359671297578
 20
6.6151671423331
 11
2.3366659856664
 21
6.672498684605
  0
LINE
  8
q_t_piz
  6
CONTINUOUS
 62
8
 10
2.4857016103881
 20
6.5864529265532
 11
2.4622792993898
 21
6.6180978068264
  0
ARC
  8
q_t_piz
  6
CONTINUOUS
 62
8
 10
1.9323416659412
 20
5.2962802894082
 40
0.16738142565316
 50
299.23745231572
 51
40.874087335583
  0
ARC
  8
q_t_piz
  6
CONTINUOUS
 62
8
 10
1.9323416659412
 20
5.2962802894082
 40
0.22643654376339
 50
345.7819343719
 51
40.646112185197
  0
ARC
  8
q_t_piz
  6
CONTINUOUS
 62
8
 10
1.9323416659412
 20
5.2962802894082
 40
0.28549166187363
 50
359.95132172787
 51
40.512457207884
  0
ARC
  8
q_t_piz
  6
CONTINUOUS
 62
8
 10
1.9323416659412
 20
5.2962802894082
 40
0.34454677998386
 50
7.7812427290796
 51
40.424620565459
  0
ARC
  8
q_t_piz
  6
CONTINUOUS
 62
8
 10
1.9323416659412
 20
5.2962802894082
 40
0.4036018980941
 50
12.925918085348
 51
40.362489091328
  0
ARC
  8
q_t_piz
  6
CONTINUOUS
 62
8
 10
1.9323416659412
 20
5.2962802894082
 40
0.46265701620434
 50
16.606344040484
 51
40.316219244317
  0
ARC
  8
q_t_piz
  6
CONTINUOUS
 62
8
 10
1.9323416659412
 20
5.2962802894082
 40
0.52171213431457
 50
19.384021294365
 51
40.280424555591
  0
ARC
  8
q_t_piz
  6
CONTINUOUS
 62
8
 10
1.9323416659412
 20
5.2962802894082
 40
0.58076725242481
 50
21.560734220209
 51
40.251909487067
  0
ARC
  8
q_t_piz
  6
CONTINUOUS
 62
8
 10
1.9323416659412
 20
5.2962802894082
 40
0.63982237053505
 50
23.315280437959
 51
40.228658303314
  0
ARC
  8
q_t_piz
  6
CONTINUOUS
 62
8
 10
1.9323416659412
 20
5.2962802894082
 40
0.69887748864528
 50
24.7610763264
 51
40.209336596453
  0
ARC
  8
q_t_piz
  6
CONTINUOUS
 62
8
 10
1.9323416659412
 20
5.2962802894082
 40
0.75793260675552
 50
25.973840562612
 51
40.193025850531
  0
ARC
  8
q_t_piz
  6
CONTINUOUS
 62
8
 10
1.9323416659412
 20
5.2962802894082
 40
0.81698772486575
 50
28.082901356821
 51
40.179073128088
  0
ARC
  8
q_t_piz
  6
CONTINUOUS
 62
8
 10
1.9323416659412
 20
5.2962802894082
 40
0.87604284297599
 50
34.634664467064
 51
40.16700155437
  0
ARC
  8
q_t_piz
  6
CONTINUOUS
 62
8
 10
1.9323416659412
 20
5.2962802894082
 40
0.10832630754292
 50
318.9993820533
 51
41.350677078412
  0
ARC
  8
q_t_piz
  6
CONTINUOUS
 62
8
 10
2.3213851461902
 20
6.1022901414993
 40
0.4589442521191
 50
318.60949801229
 51
347.35442902255
  0
ARC
  8
q_t_piz
  6
CONTINUOUS
 62
8
 10
2.3213851461902
 20
6.1022901414993
 40
0.49831433085926
 50
313.70522705705
 51
352.93765434629
  0
ARC
  8
q_t_piz
  6
CONTINUOUS
 62
8
 10
2.3213851461902
 20
6.1022901414993
 40
0.53768440959942
 50
309.8183753482
 51
357.27422353847
  0
ARC
  8
q_t_piz
  6
CONTINUOUS
 62
8
 10
2.3213851461902
 20
6.1022901414993
 40
0.57705448833958
 50
327.26180311444
 51
338.99169596185
  0
ARC
  8
q_t_piz
  6
CONTINUOUS
 62
8
 10
2.3213851461902
 20
6.1022901414993
 40
0.41957417337895
 50
325.14655117077
 51
339.60110551472
  0
ARC
  8
q_t_piz
  6
CONTINUOUS
 62
8
 10
1.912285832077
 20
5.3690897072936
 40
0.14485935364204
 50
247.15489796409
 51
308.03731379633
  0
ARC
  8
q_t_piz
  6
CONTINUOUS
 62
8
 10
1.912285832077
 20
5.3690897072936
 40
0.1842294323822
 50
241.03049952729
 51
298.97953586417
  0
ARC
  8
q_t_piz
  6
CONTINUOUS
 62
8
 10
1.912285832077
 20
5.3690897072936
 40
0.10548927490188
 50
258.80940057572
 51
327.79423287847
  0
ARC
  8
q_t_piz
  6
CONTINUOUS
 62
8
 10
1.912285832077
 20
5.3690897072936
 40
0.26296958986251
 50
234.56102852573
 51
289.84189029943
  0
ARC
  8
q_t_piz
  6
CONTINUOUS
 62
8
 10
1.912285832077
 20
5.3690897072936
 40
0.30233966860267
 50
232.63109357185
 51
243.85042572325
  0
ARC
  8
q_t_piz
  6
CONTINUOUS
 62
8
 10
1.912285832077
 20
5.3690897072936
 40
0.22359951112236
 50
237.19820118991
 51
293.52753896474
  0
ARC
  8
q_t_piz
  6
CONTINUOUS
 62
8
 10
1.6959280557178
 20
6.3511998232444
 40
0.026481497249143
 50
306.6491
 51
36.5592
  0
LINE
  8
q_t_piz
  6
CONTINUOUS
 62
8
 10
1.7171991022932
 20
6.3669736076395
 11
1.7013811596187
 21
6.3882280308731
  0
LINE
  8
q_t_piz
  6
CONTINUOUS
 62
8
 10
1.6959172533646
 20
6.3512079759484
 11
1.68009931069
 21
6.3724623991819
  0
POLYLINE
  8
q_t_piz
  6
CONTINUOUS
 62
8
 70
1
 66
1
  0
VERTEX
  8
q_t_piz
  6
CONTINUOUS
 62
8
 10
1.6966768679266
 20
6.3902075397993
  0
VERTEX
  8
q_t_piz
  6
CONTINUOUS
 62
8
 10
1.6949247338919
 20
6.3900775736364
  0
VERTEX
  8
q_t_piz
  6
CONTINUOUS
 62
8
 10
1.6930522194471
 20
6.389667625236
  0
VERTEX
  8
q_t_piz
  6
CONTINUOUS
 62
8
 10
1.6911131934237
 20
6.3889894880672
  0
VERTEX
  8
q_t_piz
  6
CONTINUOUS
 62
8
 10
1.6891634380699
 20
6.3880626709016
  0
VERTEX
  8
q_t_piz
  6
CONTINUOUS
 62
8
 10
1.6872590442974
 20
6.3869138365816
  0
VERTEX
  8
q_t_piz
  6
CONTINUOUS
 62
8
 10
1.6854547980476
 20
6.385576034979
  0
VERTEX
  8
q_t_piz
  6
CONTINUOUS
 62
8
 10
1.6838026042003
 20
6.3840877522101
  0
VERTEX
  8
q_t_piz
  6
CONTINUOUS
 62
8
 10
1.6823499933641
 20
6.3824918034605
  0
VERTEX
  8
q_t_piz
  6
CONTINUOUS
 62
8
 10
1.6811387545082
 20
6.38083410127
  0
VERTEX
  8
q_t_piz
  6
CONTINUOUS
 62
8
 10
1.6802037327691
 20
6.3791623347123
  0
VERTEX
  8
q_t_piz
  6
CONTINUOUS
 62
8
 10
1.6795718270199
 20
6.3775245974677
  0
VERTEX
  8
q_t_piz
  6
CONTINUOUS
 62
8
 10
1.6792612160384
 20
6.3759680042548
  0
VERTEX
  8
q_t_piz
  6
CONTINUOUS
 62
8
 10
1.6792808355371
 20
6.3745373354262
  0
VERTEX
  8
q_t_piz
  6
CONTINUOUS
 62
8
 10
1.6796301210987
 20
6.3732737487194
  0
VERTEX
  8
q_t_piz
  6
CONTINUOUS
 62
8
 10
1.6802990244136
 20
6.3722135952233
  0
VERTEX
  8
q_t_piz
  6
CONTINUOUS
 62
8
 10
1.6812683023512
 20
6.3713873736238
  0
VERTEX
  8
q_t_piz
  6
CONTINUOUS
 62
8
 10
1.68251007055
 20
6.3708188528119
  0
VERTEX
  8
q_t_piz
  6
CONTINUOUS
 62
8
 10
1.6839886055999
 20
6.3705243880964
  0
VERTEX
  8
q_t_piz
  6
CONTINUOUS
 62
8
 10
1.6856613727394
 20
6.3705124506909
  0
VERTEX
  8
q_t_piz
  6
CONTINUOUS
 62
8
 10
1.6874802495035
 20
6.370783384013
  0
VERTEX
  8
q_t_piz
  6
CONTINUOUS
 62
8
 10
1.6893929101194
 20
6.3713293938041
  0
VERTEX
  8
q_t_piz
  6
CONTINUOUS
 62
8
 10
1.6913443308234
 20
6.3721347723568
  0
VERTEX
  8
q_t_piz
  6
CONTINUOUS
 62
8
 10
1.693278372795
 20
6.3731763503964
  0
VERTEX
  8
q_t_piz
  6
CONTINUOUS
 62
8
 10
1.6951393971677
 20
6.3744241636191
  0
VERTEX
  8
q_t_piz
  6
CONTINUOUS
 62
8
 10
1.6968738656589
 20
6.3758423147104
  0
VERTEX
  8
q_t_piz
  6
CONTINUOUS
 62
8
 10
1.6984318807679
 20
6.3773900060455
  0
VERTEX
  8
q_t_piz
  6
CONTINUOUS
 62
8
 10
1.6997686212368
 20
6.3790227133624
  0
VERTEX
  8
q_t_piz
  6
CONTINUOUS
 62
8
 10
1.7008456314761
 20
6.3806934666443
  0
VERTEX
  8
q_t_piz
  6
CONTINUOUS
 62
8
 10
1.701631927862
 20
6.3823542013613
  0
VERTEX
  8
q_t_piz
  6
CONTINUOUS
 62
8
 10
1.7021048900791
 20
6.3839571411992
  0
VERTEX
  8
q_t_piz
  6
CONTINUOUS
 62
8
 10
1.7022509118657
 20
6.3854561724973
  0
VERTEX
  8
q_t_piz
  6
CONTINUOUS
 62
8
 10
1.7020657924407
 20
6.3868081708546
  0
VERTEX
  8
q_t_piz
  6
CONTINUOUS
 62
8
 10
1.7015548573529
 20
6.3879742417398
  0
VERTEX
  8
q_t_piz
  6
CONTINUOUS
 62
8
 10
1.7007328052747
 20
6.3889208394166
  0
VERTEX
  8
q_t_piz
  6
CONTINUOUS
 62
8
 10
1.6996232851475
 20
6.3896207319933
  0
VERTEX
  8
q_t_piz
  6
CONTINUOUS
 62
8
 10
1.6982582158453
 20
6.3900537848348
  0
VERTEX
  8
q_t_piz
  6
CONTINUOUS
 62
8
 10
1.6966768679266
 20
6.3902075397993
  0
SEQEND
  0
ARC
  8
q_t_piz
  6
CONTINUOUS
 62
8
 10
2.141574449303
 20
6.0939057579446
 40
0.026481497249143
 50
306.6491
 51
36.5592
  0
LINE
  8
q_t_piz
  6
CONTINUOUS
 62
8
 10
2.1628454958784
 20
6.1096795423397
 11
2.1470275532039
 21
6.1309339655733
  0
LINE
  8
q_t_piz
  6
CONTINUOUS
 62
8
 10
2.1415636469498
 20
6.0939139106486
 11
2.1257457042752
 21
6.1151683338821
  0
POLYLINE
  8
q_t_piz
  6
CONTINUOUS
 62
8
 70
1
 66
1
  0
VERTEX
  8
q_t_piz
  6
CONTINUOUS
 62
8
 10
2.1423232615118
 20
6.1329134744995
  0
VERTEX
  8
q_t_piz
  6
CONTINUOUS
 62
8
 10
2.1405711274771
 20
6.1327835083366
  0
VERTEX
  8
q_t_piz
  6
CONTINUOUS
 62
8
 10
2.1386986130323
 20
6.1323735599362
  0
VERTEX
  8
q_t_piz
  6
CONTINUOUS
 62
8
 10
2.1367595870089
 20
6.1316954227674
  0
VERTEX
  8
q_t_piz
  6
CONTINUOUS
 62
8
 10
2.1348098316552
 20
6.1307686056018
  0
VERTEX
  8
q_t_piz
  6
CONTINUOUS
 62
8
 10
2.1329054378826
 20
6.1296197712818
  0
VERTEX
  8
q_t_piz
  6
CONTINUOUS
 62
8
 10
2.1311011916329
 20
6.1282819696792
  0
VERTEX
  8
q_t_piz
  6
CONTINUOUS
 62
8
 10
2.1294489977855
 20
6.1267936869103
  0
VERTEX
  8
q_t_piz
  6
CONTINUOUS
 62
8
 10
2.1279963869493
 20
6.1251977381607
  0
VERTEX
  8
q_t_piz
  6
CONTINUOUS
 62
8
 10
2.1267851480934
 20
6.1235400359701
  0
VERTEX
  8
q_t_piz
  6
CONTINUOUS
 62
8
 10
2.1258501263543
 20
6.1218682694125
  0
VERTEX
  8
q_t_piz
  6
CONTINUOUS
 62
8
 10
2.1252182206051
 20
6.1202305321679
  0
VERTEX
  8
q_t_piz
  6
CONTINUOUS
 62
8
 10
2.1249076096236
 20
6.118673938955
  0
VERTEX
  8
q_t_piz
  6
CONTINUOUS
 62
8
 10
2.1249272291223
 20
6.1172432701264
  0
VERTEX
  8
q_t_piz
  6
CONTINUOUS
 62
8
 10
2.1252765146839
 20
6.1159796834196
  0
VERTEX
  8
q_t_piz
  6
CONTINUOUS
 62
8
 10
2.1259454179988
 20
6.1149195299235
  0
VERTEX
  8
q_t_piz
  6
CONTINUOUS
 62
8
 10
2.1269146959364
 20
6.114093308324
  0
VERTEX
  8
q_t_piz
  6
CONTINUOUS
 62
8
 10
2.1281564641352
 20
6.1135247875121
  0
VERTEX
  8
q_t_piz
  6
CONTINUOUS
 62
8
 10
2.1296349991851
 20
6.1132303227966
  0
VERTEX
  8
q_t_piz
  6
CONTINUOUS
 62
8
 10
2.1313077663246
 20
6.1132183853911
  0
VERTEX
  8
q_t_piz
  6
CONTINUOUS
 62
8
 10
2.1331266430887
 20
6.1134893187132
  0
VERTEX
  8
q_t_piz
  6
CONTINUOUS
 62
8
 10
2.1350393037046
 20
6.1140353285043
  0
VERTEX
  8
q_t_piz
  6
CONTINUOUS
 62
8
 10
2.1369907244086
 20
6.114840707057
  0
VERTEX
  8
q_t_piz
  6
CONTINUOUS
 62
8
 10
2.1389247663802
 20
6.1158822850966
  0
VERTEX
  8
q_t_piz
  6
CONTINUOUS
 62
8
 10
2.1407857907529
 20
6.1171300983193
  0
VERTEX
  8
q_t_piz
  6
CONTINUOUS
 62
8
 10
2.1425202592441
 20
6.1185482494106
  0
VERTEX
  8
q_t_piz
  6
CONTINUOUS
 62
8
 10
2.1440782743532
 20
6.1200959407457
  0
VERTEX
  8
q_t_piz
  6
CONTINUOUS
 62
8
 10
2.145415014822
 20
6.1217286480626
  0
VERTEX
  8
q_t_piz
  6
CONTINUOUS
 62
8
 10
2.1464920250613
 20
6.1233994013445
  0
VERTEX
  8
q_t_piz
  6
CONTINUOUS
 62
8
 10
2.1472783214472
 20
6.1250601360615
  0
VERTEX
  8
q_t_piz
  6
CONTINUOUS
 62
8
 10
2.1477512836643
 20
6.1266630758994
  0
VERTEX
  8
q_t_piz
  6
CONTINUOUS
 62
8
 10
2.1478973054509
 20
6.1281621071975
  0
VERTEX
  8
q_t_piz
  6
CONTINUOUS
 62
8
 10
2.1477121860259
 20
6.1295141055548
  0
VERTEX
  8
q_t_piz
  6
CONTINUOUS
 62
8
 10
2.1472012509381
 20
6.13068017644
  0
VERTEX
  8
q_t_piz
  6
CONTINUOUS
 62
8
 10
2.1463791988599
 20
6.1316267741168
  0
VERTEX
  8
q_t_piz
  6
CONTINUOUS
 62
8
 10
2.1452696787327
 20
6.1323266666935
  0
VERTEX
  8
q_t_piz
  6
CONTINUOUS
 62
8
 10
2.1439046094305
 20
6.132759719535
  0
VERTEX
  8
q_t_piz
  6
CONTINUOUS
 62
8
 10
2.1423232615118
 20
6.1329134744995
  0
SEQEND
  0
ARC
  8
q_t_piz
  6
CONTINUOUS
 62
8
 10
1.7243405754511
 20
5.4029214783253
 40
0.026481497249143
 50
306.6491
 51
36.5592
  0
LINE
  8
q_t_piz
  6
CONTINUOUS
 62
8
 10
1.7456116220266
 20
5.4186952627203
 11
1.7297936793521
 21
5.4399496859539
  0
LINE
  8
q_t_piz
  6
CONTINUOUS
 62
8
 10
1.7243297730979
 20
5.4029296310292
 11
1.7085118304234
 21
5.4241840542627
  0
POLYLINE
  8
q_t_piz
  6
CONTINUOUS
 62
8
 70
1
 66
1
  0
VERTEX
  8
q_t_piz
  6
CONTINUOUS
 62
8
 10
1.72508938766
 20
5.4419291948801
  0
VERTEX
  8
q_t_piz
  6
CONTINUOUS
 62
8
 10
1.7233372536252
 20
5.4417992287173
  0
VERTEX
  8
q_t_piz
  6
CONTINUOUS
 62
8
 10
1.7214647391805
 20
5.4413892803168
  0
VERTEX
  8
q_t_piz
  6
CONTINUOUS
 62
8
 10
1.7195257131571
 20
5.440711143148
  0
VERTEX
  8
q_t_piz
  6
CONTINUOUS
 62
8
 10
1.7175759578033
 20
5.4397843259824
  0
VERTEX
  8
q_t_piz
  6
CONTINUOUS
 62
8
 10
1.7156715640308
 20
5.4386354916624
  0
VERTEX
  8
q_t_piz
  6
CONTINUOUS
 62
8
 10
1.713867317781
 20
5.4372976900598
  0
VERTEX
  8
q_t_piz
  6
CONTINUOUS
 62
8
 10
1.7122151239337
 20
5.4358094072909
  0
VERTEX
  8
q_t_piz
  6
CONTINUOUS
 62
8
 10
1.7107625130975
 20
5.4342134585413
  0
VERTEX
  8
q_t_piz
  6
CONTINUOUS
 62
8
 10
1.7095512742416
 20
5.4325557563508
  0
VERTEX
  8
q_t_piz
  6
CONTINUOUS
 62
8
 10
1.7086162525025
 20
5.4308839897931
  0
VERTEX
  8
q_t_piz
  6
CONTINUOUS
 62
8
 10
1.7079843467533
 20
5.4292462525485
  0
VERTEX
  8
q_t_piz
  6
CONTINUOUS
 62
8
 10
1.7076737357718
 20
5.4276896593356
  0
VERTEX
  8
q_t_piz
  6
CONTINUOUS
 62
8
 10
1.7076933552705
 20
5.426258990507
  0
VERTEX
  8
q_t_piz
  6
CONTINUOUS
 62
8
 10
1.7080426408321
 20
5.4249954038002
  0
VERTEX
  8
q_t_piz
  6
CONTINUOUS
 62
8
 10
1.708711544147
 20
5.4239352503041
  0
VERTEX
  8
q_t_piz
  6
CONTINUOUS
 62
8
 10
1.7096808220846
 20
5.4231090287046
  0
VERTEX
  8
q_t_piz
  6
CONTINUOUS
 62
8
 10
1.7109225902834
 20
5.4225405078927
  0
VERTEX
  8
q_t_piz
  6
CONTINUOUS
 62
8
 10
1.7124011253333
 20
5.4222460431772
  0
VERTEX
  8
q_t_piz
  6
CONTINUOUS
 62
8
 10
1.7140738924728
 20
5.4222341057717
  0
VERTEX
  8
q_t_piz
  6
CONTINUOUS
 62
8
 10
1.7158927692369
 20
5.4225050390938
  0
VERTEX
  8
q_t_piz
  6
CONTINUOUS
 62
8
 10
1.7178054298528
 20
5.4230510488849
  0
VERTEX
  8
q_t_piz
  6
CONTINUOUS
 62
8
 10
1.7197568505568
 20
5.4238564274376
  0
VERTEX
  8
q_t_piz
  6
CONTINUOUS
 62
8
 10
1.7216908925283
 20
5.4248980054772
  0
VERTEX
  8
q_t_piz
  6
CONTINUOUS
 62
8
 10
1.7235519169011
 20
5.4261458186999
  0
VERTEX
  8
q_t_piz
  6
CONTINUOUS
 62
8
 10
1.7252863853923
 20
5.4275639697913
  0
VERTEX
  8
q_t_piz
  6
CONTINUOUS
 62
8
 10
1.7268444005013
 20
5.4291116611263
  0
VERTEX
  8
q_t_piz
  6
CONTINUOUS
 62
8
 10
1.7281811409702
 20
5.4307443684432
  0
VERTEX
  8
q_t_piz
  6
CONTINUOUS
 62
8
 10
1.7292581512094
 20
5.4324151217251
  0
VERTEX
  8
q_t_piz
  6
CONTINUOUS
 62
8
 10
1.7300444475953
 20
5.4340758564421
  0
VERTEX
  8
q_t_piz
  6
CONTINUOUS
 62
8
 10
1.7305174098125
 20
5.43567879628
  0
VERTEX
  8
q_t_piz
  6
CONTINUOUS
 62
8
 10
1.730663431599
 20
5.4371778275782
  0
VERTEX
  8
q_t_piz
  6
CONTINUOUS
 62
8
 10
1.730478312174
 20
5.4385298259354
  0
VERTEX
  8
q_t_piz
  6
CONTINUOUS
 62
8
 10
1.7299673770863
 20
5.4396958968206
  0
VERTEX
  8
q_t_piz
  6
CONTINUOUS
 62
8
 10
1.729145325008
 20
5.4406424944974
  0
VERTEX
  8
q_t_piz
  6
CONTINUOUS
 62
8
 10
1.7280358048808
 20
5.4413423870741
  0
VERTEX
  8
q_t_piz
  6
CONTINUOUS
 62
8
 10
1.7266707355787
 20
5.4417754399156
  0
VERTEX
  8
q_t_piz
  6
CONTINUOUS
 62
8
 10
1.72508938766
 20
5.4419291948801
  0
SEQEND
  0
LINE
  8
q_t_piz
  6
CONTINUOUS
 62
8
 10
2.2255354683512
 20
5.8191235875202
 11
2.8600819440778
 21
6.2912253051874
  0
LINE
  8
q_t_piz
  6
CONTINUOUS
 62
8
 10
2.2302355785918
 20
5.8128062235347
 11
2.8600819440778
 21
6.2814110655549
  0
LINE
  8
q_t_piz
  6
CONTINUOUS
 62
8
 10
2.2349356888324
 20
5.8064888595491
 11
2.8600819440778
 21
6.2715968259224
  0
LINE
  8
q_t_piz
  6
CONTINUOUS
 62
8
 10
2.239635799073
 20
5.8001714955635
 11
2.8600819440778
 21
6.2617825862899
  0
LINE
  8
q_t_piz
  6
CONTINUOUS
 62
8
 10
1.8165811771091
 20
6.0564621619932
 11
2.5100449681637
 21
6.5723982823885
  0
LINE
  8
q_t_piz
  6
CONTINUOUS
 62
8
 10
1.8212840410866
 20
6.0501155865018
 11
1.8244366398244
 21
6.0524611156887
  0
LINE
  8
q_t_piz
  6
CONTINUOUS
 62
8
 10
1.8189400750903
 20
6.0532787987946
 11
1.8220865847041
 21
6.0556197976815
  0
LINE
  8
q_t_piz
  6
CONTINUOUS
 62
8
 10
1.3524504230065
 20
5.3925538088108
 11
2.0459142140611
 21
5.908489929206
  0
LINE
  8
q_t_piz
  6
CONTINUOUS
 62
8
 10
1.3548093209877
 20
5.3893704456121
 11
1.3579558306015
 21
5.391711444499
  0
LINE
  8
q_t_piz
  6
CONTINUOUS
 62
8
 10
1.357153286984
 20
5.3862072333193
 11
1.3603058857219
 21
5.3885527625063
  0
LINE
  8
q_t_piz
  6
CONTINUOUS
 62
8
 10
1.2852787944715
 20
5.9314325861985
 11
1.6002678204759
 21
6.1657839945058
  0
LINE
  8
q_t_piz
  6
CONTINUOUS
 62
8
 10
1.3734300654743
 20
6.3106743335826
 11
1.3765765750882
 21
6.3130153324696
  0
LINE
  8
q_t_piz
  6
CONTINUOUS
 62
8
 10
1.3757740314706
 20
6.3075111212898
 11
1.3789266302085
 21
6.3098566504768
  0
LINE
  8
q_t_piz
  6
CONTINUOUS
 62
8
 10
2.7266310927354
 20
6.4632793888524
 11
2.8600819440778
 21
6.5625666413278
  0
LINE
  8
q_t_piz
  6
CONTINUOUS
 62
8
 10
2.7289899907166
 20
6.4600960256537
 11
2.7321365003305
 21
6.4624370245406
  0
LINE
  8
q_t_piz
  6
CONTINUOUS
 62
8
 10
2.7313339567129
 20
6.4569328133609
 11
2.7344865554508
 21
6.4592783425479
  0
LINE
  8
q_t_piz
  6
CONTINUOUS
 62
8
 10
1.3710711674932
 20
6.3138576967813
 11
1.853116384357
 21
6.672498684605
  0
LINE
  8
q_t_piz
  6
CONTINUOUS
 62
8
 10
1.3781179974669
 20
6.3043479089971
 11
1.3710711674932
 21
6.3138576967813
  0
LINE
  8
q_t_piz
  6
CONTINUOUS
 62
8
 10
1.8236280070828
 20
6.046952374209
 11
1.8165811771091
 21
6.0564621619932
  0
LINE
  8
q_t_piz
  6
CONTINUOUS
 62
8
 10
2.7336779227092
 20
6.4537696010681
 11
2.7266310927354
 21
6.4632793888524
  0
LINE
  8
q_t_piz
  6
CONTINUOUS
 62
8
 10
1.5995787284286
 20
5.237834248594
 11
2.8600819440778
 21
6.1756469321356
  0
LINE
  8
q_t_piz
  6
CONTINUOUS
 62
8
 10
1.594878618188
 20
5.2441516125796
 11
2.8600819440778
 21
6.1854611717681
  0
LINE
  8
q_t_piz
  6
CONTINUOUS
 62
8
 10
1.5901785079473
 20
5.2504689765652
 11
2.8600819440778
 21
6.1952754114006
  0
LINE
  8
q_t_piz
  6
CONTINUOUS
 62
8
 10
1.5854783977067
 20
5.2567863405508
 11
2.8600819440778
 21
6.2050896510331
  0
LINE
  8
q_t_piz
  6
CONTINUOUS
 62
8
 10
1.3594972529803
 20
5.3830440210265
 11
1.3524504230065
 21
5.3925538088108
  0
LINE
  8
q_t_piz
  6
CONTINUOUS
 62
8
 10
1.5402126570336
 20
5.0976955349987
 11
2.8600819440778
 21
6.079691932269
  0
LINE
  8
q_t_piz
  6
CONTINUOUS
 62
8
 10
1.6560702534041
 20
5.0976955349987
 11
1.9720684579163
 21
5.332948281717
  0
LINE
  8
q_t_piz
  6
CONTINUOUS
 62
8
 10
1.9720684579163
 20
5.332948281717
 11
1.948646146918
 21
5.3645931619902
  0
LINE
  8
q_t_piz
  6
CONTINUOUS
 62
8
 10
2.0140958015414
 20
5.3682134102522
 11
2.6531432933674
 21
5.9044379249481
  0
LINE
  8
q_t_piz
  6
CONTINUOUS
 62
8
 10
2.0140958015414
 20
5.3682134102522
 11
2.0140958015414
 21
5.1250817401328
  0
LINE
  8
q_t_piz
  6
CONTINUOUS
 62
8
 10
2.0140958015414
 20
5.1250817401328
 11
2.6531432933674
 21
5.6613062548287
  0
LINE
  8
q_t_piz
  6
CONTINUOUS
 62
8
 10
2.6656946178694
 20
5.6718380665891
 11
2.8600819440778
 21
5.8349484003161
  0
LINE
  8
q_t_piz
  6
CONTINUOUS
 62
8
 10
2.6656946178694
 20
5.9149697367086
 11
2.8600819440778
 21
6.0780800704356
  0
LINE
  8
q_t_piz
  6
CONTINUOUS
 62
8
 10
2.6656946178694
 20
5.6718380665891
 11
2.6504860406535
 21
5.6806187427387
  0
LINE
  8
q_t_piz
  6
CONTINUOUS
 62
8
 10
2.0140958015414
 20
5.1250817401328
 11
1.9988872243255
 21
5.1338624162824
  0
LINE
  8
q_t_piz
  6
CONTINUOUS
 62
8
 10
1.4874484990807
 20
5.0976955349987
 11
2.8600819440778
 21
6.1189329571568
  0
LINE
  8
q_t_piz
  6
CONTINUOUS
 62
8
 10
1.5006397054197
 20
5.0976955349987
 11
2.8600819440778
 21
6.1091187175243
  0
LINE
  8
q_t_piz
  6
CONTINUOUS
 62
8
 10
1.5138309117587
 20
5.0976955349987
 11
2.8600819440778
 21
6.0993044778918
  0
LINE
  8
q_t_piz
  6
CONTINUOUS
 62
8
 10
1.5270221180977
 20
5.0976955349987
 11
2.8600819440778
 21
6.0894902382593
  0
LINE
  8
q_t_piz
  6
CONTINUOUS
 62
8
 10
1.6033325872926
 20
5.0976955349987
 11
1.953412037595
 21
5.3581541714107
  0
LINE
  8
q_t_piz
  6
CONTINUOUS
 62
8
 10
1.6165237936316
 20
5.0976955349987
 11
1.958096514139
 21
5.351825175976
  0
LINE
  8
q_t_piz
  6
CONTINUOUS
 62
8
 10
1.6297149999706
 20
5.0976955349987
 11
1.962780990683
 21
5.3454961805413
  0
LINE
  8
q_t_piz
  6
CONTINUOUS
 62
8
 10
1.6429062063096
 20
5.0976955349987
 11
1.967465467227
 21
5.3391671851066
  0
LINE
  8
q_t_piz
  6
CONTINUOUS
 62
8
 10
1.9486460563287
 20
5.3645932843816
 11
1.9206590536043
 21
5.3807515879383
  0
ENDSEC
  0
EOF
