  0
SECTION
  2
HEADER
  9
$EXTMIN
 10
2.9120309441979
 20
3.3018137346431
  9
$EXTMAX
 10
4.4868340938042
 20
4.8766168842494
  9
$LIMMIN
 10
0
 20
0
  9
$LIMMAX
 10
8.2666666666667
 20
11.69
  0
ENDSEC
  0
SECTION
  2
TABLES
  0
TABLE
  2
LTYPE
 70
9
  0
LTYPE
  2
CONTINUOUS
  3
___________________________
 70
64
 72
65
 73
0
 40
0
  0
LTYPE
  2
HIDDEN
  3
_ _ _ _ _ _ _ _ _ _ _ _ _ _ 
 70
64
 72
65
 73
2
 49
0.25
 49
-0.125
 40
0.375
  0
LTYPE
  2
DASHED
  3
__ __ __ __ __ __ __ __ __ 
 70
64
 72
65
 73
2
 49
0.5
 49
-0.25
 40
0.75
  0
LTYPE
  2
CENTER
  3
____ _ ____ _ ____ _ ____ _ 
 70
64
 72
65
 73
4
 49
1.25
 49
-0.25
 49
0.25
 49
-0.25
 40
2
  0
LTYPE
  2
PHANTOM
  3
_____ _ _ _____ _ _ _____ _ _ 
 70
64
 72
65
 73
6
 49
1.25
 49
-0.25
 49
0.25
 49
-0.25
 49
0.25
 49
-0.25
 40
2.5
  0
LTYPE
  2
DOT
  3
...........................
 70
64
 72
65
 73
2
 49
0
 49
-0.25
 40
0.25
  0
LTYPE
  2
DASHDOT
  3
__ . __ . __ . __ . __ . __ . 
 70
64
 72
65
 73
4
 49
0.5
 49
-0.25
 49
0
 49
-0.25
 40
1
  0
LTYPE
  2
DIVIDE
  3
__ . . __ . . __ . . __ . . 
 70
64
 72
65
 73
6
 49
0.5
 49
-0.25
 49
0
 49
-0.25
 49
0
 49
-0.25
 40
1.25
  0
LTYPE
  2
BORDER
  3
__ __ . __ __ . __ __ . __ __ . 
 70
64
 72
65
 73
6
 49
0.5
 49
-0.25
 49
0.5
 49
-0.25
 49
0
 49
-0.25
 40
1.75
  0
ENDTAB
  0
TABLE
  2
LAYER
 70
1
  0
LAYER
  2
panelplus
 62
8
  6
CONTINUOUS
 70
0
  0
ENDTAB
  0
TABLE
  2
STYLE
 70
5
  0
STYLE
  2
ptmarker
 70
1
 40
0
 50
0
 71
0
 41
0
 42
0
  3
ptmarks
  0
STYLE
  2
TXT
 70
0
 40
0
 50
0
 71
0
 41
0
 42
0
  3
TXT
  0
STYLE
  2
ITALIC
 70
0
 40
0
 50
0
 71
0
 41
0
 42
0
  3
ITALIC
  0
STYLE
  2
SIMPLEX
 70
0
 40
0
 50
0
 71
0
 41
0
 42
0
  3
SIMPLEX
  0
STYLE
  2
COMPLEX
 70
0
 40
0
 50
0
 71
0
 41
0
 42
0
  3
COMPLEX
  0
ENDTAB
  0
ENDSEC
  0
SECTION
  2
BLOCKS
  0
ENDSEC
  0
SECTION
  2
ENTITIES
  0
POLYLINE
  8
panelplus
  6
CONTINUOUS
 62
8
 70
1
 66
1
  0
VERTEX
  8
panelplus
  6
CONTINUOUS
 62
8
 10
4.4249254120686
 20
3.3018137346431
  0
VERTEX
  8
panelplus
  6
CONTINUOUS
 62
8
 10
4.1538690892865
 20
3.3018137346431
  0
VERTEX
  8
panelplus
  6
CONTINUOUS
 62
8
 10
4.1538690892865
 20
3.5816156494051
  0
VERTEX
  8
panelplus
  6
CONTINUOUS
 62
8
 10
4.3863413481895
 20
3.718300893178
  0
VERTEX
  8
panelplus
  6
CONTINUOUS
 62
8
 10
4.3863413481895
 20
4.0266999182462
  0
VERTEX
  8
panelplus
  6
CONTINUOUS
 62
8
 10
4.3910643709246
 20
4.0294267566937
  0
VERTEX
  8
panelplus
  6
CONTINUOUS
 62
8
 10
4.3910643709245
 20
3.9930582357998
  0
VERTEX
  8
panelplus
  6
CONTINUOUS
 62
8
 10
4.4099633954336
 20
4.0039695926876
  0
VERTEX
  8
panelplus
  6
CONTINUOUS
 62
8
 10
4.4099633954336
 20
4.0403381135814
  0
VERTEX
  8
panelplus
  6
CONTINUOUS
 62
8
 10
4.4249254120686
 20
4.0489764379132
  0
VERTEX
  8
panelplus
  6
CONTINUOUS
 62
8
 10
4.4249254120686
 20
3.3018137346431
  0
SEQEND
  0
POLYLINE
  8
panelplus
  6
CONTINUOUS
 62
8
 70
1
 66
1
  0
VERTEX
  8
panelplus
  6
CONTINUOUS
 62
8
 10
4.1538690892865
 20
4.2148988384989
  0
VERTEX
  8
panelplus
  6
CONTINUOUS
 62
8
 10
4.4209884041946
 20
4.3691017125311
  0
VERTEX
  8
panelplus
  6
CONTINUOUS
 62
8
 10
4.4209884041946
 20
4.0944370890305
  0
VERTEX
  8
panelplus
  6
CONTINUOUS
 62
8
 10
4.3910643709245
 20
4.0771604403668
  0
VERTEX
  8
panelplus
  6
CONTINUOUS
 62
8
 10
4.3910643709245
 20
4.1466917159205
  0
VERTEX
  8
panelplus
  6
CONTINUOUS
 62
8
 10
4.3896263320277
 20
4.1594653146934
  0
VERTEX
  8
panelplus
  6
CONTINUOUS
 62
8
 10
4.3843981563487
 20
4.1709567292907
  0
VERTEX
  8
panelplus
  6
CONTINUOUS
 62
8
 10
4.3815551472384
 20
4.1745336084413
  0
VERTEX
  8
panelplus
  6
CONTINUOUS
 62
8
 10
4.375827902356
 20
4.1800410162555
  0
VERTEX
  8
panelplus
  6
CONTINUOUS
 62
8
 10
4.3670905162155
 20
4.1846583444759
  0
VERTEX
  8
panelplus
  6
CONTINUOUS
 62
8
 10
4.3587448952473
 20
4.1867088671657
  0
VERTEX
  8
panelplus
  6
CONTINUOUS
 62
8
 10
4.3487093880931
 20
4.1859840208969
  0
VERTEX
  8
panelplus
  6
CONTINUOUS
 62
8
 10
4.3408590541755
 20
4.183364363978
  0
VERTEX
  8
panelplus
  6
CONTINUOUS
 62
8
 10
4.3324650896985
 20
4.1773532489002
  0
VERTEX
  8
panelplus
  6
CONTINUOUS
 62
8
 10
4.3270847703946
 20
4.1711758345976
  0
VERTEX
  8
panelplus
  6
CONTINUOUS
 62
8
 10
4.3240165493358
 20
4.1657084272099
  0
VERTEX
  8
panelplus
  6
CONTINUOUS
 62
8
 10
4.320886488903
 20
4.154842194813
  0
VERTEX
  8
panelplus
  6
CONTINUOUS
 62
8
 10
4.3203163394285
 20
4.1482078323134
  0
VERTEX
  8
panelplus
  6
CONTINUOUS
 62
8
 10
4.3203163394285
 20
4.0390490722569
  0
VERTEX
  8
panelplus
  6
CONTINUOUS
 62
8
 10
4.2753163394285
 20
4.0130683101434
  0
VERTEX
  8
panelplus
  6
CONTINUOUS
 62
8
 10
4.2753163394285
 20
3.7039715024156
  0
VERTEX
  8
panelplus
  6
CONTINUOUS
 62
8
 10
4.1538690892865
 20
3.6338538998538
  0
VERTEX
  8
panelplus
  6
CONTINUOUS
 62
8
 10
4.1538690892865
 20
4.2148988384989
  0
SEQEND
  0
LINE
  8
panelplus
  6
CONTINUOUS
 62
8
 10
3.4300507679656
 20
4.5834630921735
 11
3.4300507679656
 21
3.3018137346431
  0
LINE
  8
panelplus
  6
CONTINUOUS
 62
8
 10
3.5091969465987
 20
4.5377680246343
 11
3.5091969465987
 21
3.3018137346431
  0
LINE
  8
panelplus
  6
CONTINUOUS
 62
8
 10
3.5416693308274
 20
4.55651596441
 11
3.5416693308274
 21
3.3018137346431
  0
LINE
  8
panelplus
  6
CONTINUOUS
 62
8
 10
3.5886731521942
 20
4.4918824159396
 11
3.5886731521942
 21
3.3018137346431
  0
LINE
  8
panelplus
  6
CONTINUOUS
 62
8
 10
3.6678193308274
 20
4.4461873484004
 11
3.6678193308274
 21
3.3018137346431
  0
LINE
  8
panelplus
  6
CONTINUOUS
 62
8
 10
3.7034495654151
 20
4.4557344409843
 11
3.7034495654151
 21
3.3018137346431
  0
LINE
  8
panelplus
  6
CONTINUOUS
 62
8
 10
3.6734456831827
 20
4.6325970769152
 11
3.7529218887782
 21
4.5867114682205
  0
LINE
  8
panelplus
  6
CONTINUOUS
 62
8
 10
3.7732358362459
 20
4.5984397312592
 11
3.6937596306504
 21
4.644325339954
  0
LINE
  8
panelplus
  6
CONTINUOUS
 62
8
 10
3.5091947264385
 20
4.5765037058018
 11
2.9893834533463
 21
4.8766168842494
  0
LINE
  8
panelplus
  6
CONTINUOUS
 62
8
 10
3.5416693308274
 20
4.55651596441
 11
3.6211455364228
 21
4.5106303557153
  0
LINE
  8
panelplus
  6
CONTINUOUS
 62
8
 10
3.6678193308274
 20
4.4461873484004
 11
3.7034495654151
 21
4.4557344409843
  0
LINE
  8
panelplus
  6
CONTINUOUS
 62
8
 10
3.7034495654151
 20
4.4557344409843
 11
3.6855659673961
 21
4.4660595411147
  0
LINE
  8
panelplus
  6
CONTINUOUS
 62
8
 10
3.4300507679656
 20
4.5834630921735
 11
3.4491449531334
 21
4.6025572773414
  0
LINE
  8
panelplus
  6
CONTINUOUS
 62
8
 10
3.4515382299407
 20
4.5868776068068
 11
3.4606027426269
 21
4.595942119493
  0
LINE
  8
panelplus
  6
CONTINUOUS
 62
8
 10
3.9396378155538
 20
4.6549611923343
 11
3.6567704691496
 21
4.4916476537429
  0
LINE
  8
panelplus
  6
CONTINUOUS
 62
8
 10
3.6567704691496
 20
4.4916476537429
 11
4.1459950735385
 21
4.2103435062193
  0
LINE
  8
panelplus
  6
CONTINUOUS
 62
8
 10
4.2831903551765
 20
4.0085222450317
 11
4.2831903551765
 21
3.6994254373039
  0
LINE
  8
panelplus
  6
CONTINUOUS
 62
8
 10
4.2831903551765
 20
3.6994254373039
 11
4.1459950735385
 21
3.6202157045186
  0
LINE
  8
panelplus
  6
CONTINUOUS
 62
8
 10
4.1459950735385
 20
3.6202157045186
 11
3.7034495654151
 21
3.8757194727623
  0
LINE
  8
panelplus
  6
CONTINUOUS
 62
8
 10
4.1459950735385
 20
3.6202157045186
 11
4.1459950735385
 21
4.2103435062193
  0
LINE
  8
panelplus
  6
CONTINUOUS
 62
8
 10
4.2831903551765
 20
4.0085222450317
 11
4.3281903551765
 21
4.0345030071452
  0
LINE
  8
panelplus
  6
CONTINUOUS
 62
8
 10
4.3281903551765
 20
4.0345030071452
 11
4.3281903551765
 21
4.1479895390263
  0
LINE
  8
panelplus
  6
CONTINUOUS
 62
8
 10
4.3831903551765
 20
4.0635222450317
 11
4.3831903551765
 21
4.1466917159205
  0
LINE
  8
panelplus
  6
CONTINUOUS
 62
8
 10
4.3831903551765
 20
4.0635222450317
 11
4.4288624199426
 21
4.0898910239188
  0
LINE
  8
panelplus
  6
CONTINUOUS
 62
8
 10
4.4288624199426
 20
4.0898910239188
 11
4.4288624199426
 21
4.3736570448107
  0
LINE
  8
panelplus
  6
CONTINUOUS
 62
8
 10
4.3831903551765
 20
4.0294267566937
 11
4.3281903551765
 21
4.0611810214991
  0
LINE
  8
panelplus
  6
CONTINUOUS
 62
8
 10
4.1459950735385
 20
3.5861202161807
 11
3.7034495654151
 21
3.8416239844244
  0
LINE
  8
panelplus
  6
CONTINUOUS
 62
8
 10
4.3831903551765
 20
3.7255824257599
 11
4.1459950735385
 21
3.5861202161807
  0
LINE
  8
panelplus
  6
CONTINUOUS
 62
8
 10
4.3831903551765
 20
4.0294267566937
 11
4.3942153639375
 21
4.0357920484697
  0
LINE
  8
panelplus
  6
CONTINUOUS
 62
8
 10
4.3831903551765
 20
3.7255824257599
 11
4.3831903551765
 21
4.0294267566937
  0
LINE
  8
panelplus
  6
CONTINUOUS
 62
8
 10
4.4288624199426
 20
3.3018137346431
 11
4.4288624199426
 21
4.0557955355808
  0
LINE
  8
panelplus
  6
CONTINUOUS
 62
8
 10
4.1459950735385
 20
3.3018137346431
 11
4.1459950735385
 21
3.5861202161807
  0
LINE
  8
panelplus
  6
CONTINUOUS
 62
8
 10
4.3831903551765
 20
4.0635222450317
 11
4.3281903551765
 21
4.0952765098371
  0
LINE
  8
panelplus
  6
CONTINUOUS
 62
8
 10
4.4288624199426
 20
4.0557955355808
 11
4.4261787270133
 21
4.057344966416
  0
LINE
  8
panelplus
  6
CONTINUOUS
 62
8
 10
4.3831903551765
 20
3.7255824257599
 11
4.2831903551765
 21
3.7833174526788
  0
LINE
  8
panelplus
  6
CONTINUOUS
 62
8
 10
4.3805214471057
 20
4.1617232340771
 11
4.378148016323
 21
4.1661675880671
  0
LINE
  8
panelplus
  6
CONTINUOUS
 62
8
 10
4.378148016323
 20
4.1661675880671
 11
4.3751291477485
 21
4.1701074074268
  0
LINE
  8
panelplus
  6
CONTINUOUS
 62
8
 10
4.3751291477485
 20
4.1701074074268
 11
4.3715516887348
 21
4.1734293507266
  0
LINE
  8
panelplus
  6
CONTINUOUS
 62
8
 10
4.3715516887348
 20
4.1734293507266
 11
4.3675185562641
 21
4.176037851706
  0
LINE
  8
panelplus
  6
CONTINUOUS
 62
8
 10
4.3675185562641
 20
4.176037851706
 11
4.3631457762146
 21
4.1778578685409
  0
LINE
  8
panelplus
  6
CONTINUOUS
 62
8
 10
4.3631457762146
 20
4.1778578685409
 11
4.3585591455068
 21
4.1788370426609
  0
LINE
  8
panelplus
  6
CONTINUOUS
 62
8
 10
4.3585591455068
 20
4.1788370426609
 11
4.3538906131552
 21
4.1789472050092
  0
LINE
  8
panelplus
  6
CONTINUOUS
 62
8
 10
4.3538906131552
 20
4.1789472050092
 11
4.3492744843357
 21
4.1781851864156
  0
LINE
  8
panelplus
  6
CONTINUOUS
 62
8
 10
4.3492744843357
 20
4.1781851864156
 11
4.3448435566698
 21
4.1765729087677
  0
LINE
  8
panelplus
  6
CONTINUOUS
 62
8
 10
4.3448435566698
 20
4.1765729087677
 11
4.3407252998791
 21
4.174156754358
  0
LINE
  8
panelplus
  6
CONTINUOUS
 62
8
 10
4.3407252998791
 20
4.174156754358
 11
4.3370381887134
 21
4.1710062315497
  0
LINE
  8
panelplus
  6
CONTINUOUS
 62
8
 10
4.3370381887134
 20
4.1710062315497
 11
4.3338882946478
 21
4.1672119751479
  0
LINE
  8
panelplus
  6
CONTINUOUS
 62
8
 10
4.3338882946478
 20
4.1672119751479
 11
4.3313662343996
 21
4.1628831390011
  0
LINE
  8
panelplus
  6
CONTINUOUS
 62
8
 10
4.3313662343996
 20
4.1628831390011
 11
4.3295445630502
 21
4.1581442558437
  0
LINE
  8
panelplus
  6
CONTINUOUS
 62
8
 10
4.3295445630502
 20
4.1581442558437
 11
4.3284756867677
 21
4.1531316547161
  0
LINE
  8
panelplus
  6
CONTINUOUS
 62
8
 10
4.3284756867677
 20
4.1531316547161
 11
4.3281903551765
 21
4.1479895390263
  0
LINE
  8
panelplus
  6
CONTINUOUS
 62
8
 10
4.3830794105074
 20
4.1518431824555
 11
4.3821811608143
 21
4.1569022014293
  0
LINE
  8
panelplus
  6
CONTINUOUS
 62
8
 10
4.3821811608143
 20
4.1569022014293
 11
4.3805214471057
 21
4.1617232340771
  0
LINE
  8
panelplus
  6
CONTINUOUS
 62
8
 10
4.3831903551765
 20
4.1466917159205
 11
4.3830794105074
 21
4.1518431824555
  0
LINE
  8
panelplus
  6
CONTINUOUS
 62
8
 10
3.5091969465987
 20
4.5377680246343
 11
3.6156193308274
 21
4.5992110168166
  0
LINE
  8
panelplus
  6
CONTINUOUS
 62
8
 10
3.8006512485249
 20
4.7250008240494
 11
3.5064765242483
 21
4.5551589677995
  0
LINE
  8
panelplus
  6
CONTINUOUS
 62
8
 10
3.9139051643319
 20
4.6598798224604
 11
3.6194999238477
 21
4.489904877616
  0
LINE
  8
panelplus
  6
CONTINUOUS
 62
8
 10
3.8796007753402
 20
4.6598495574777
 11
3.7732358362459
 21
4.5984397312592
  0
LINE
  8
panelplus
  6
CONTINUOUS
 62
8
 10
3.4515382299407
 20
4.5868776068068
 11
3.5064765242483
 21
4.5551589677995
  0
LINE
  8
panelplus
  6
CONTINUOUS
 62
8
 10
3.6697549853657
 20
4.4608901043205
 11
3.686669596311
 21
4.4654223606636
  0
LINE
  8
panelplus
  6
CONTINUOUS
 62
8
 10
3.5541496557014
 20
4.8766168842494
 11
3.7920620728427
 21
4.7398172443932
  0
LINE
  8
panelplus
  6
CONTINUOUS
 62
8
 10
3.8006512485249
 20
4.7250008240494
 11
3.9139051643319
 21
4.6598798224604
  0
LINE
  8
panelplus
  6
CONTINUOUS
 62
8
 10
3.6567704691496
 20
4.4916476537429
 11
3.6567704691496
 21
4.4683867182531
  0
LINE
  8
panelplus
  6
CONTINUOUS
 62
8
 10
3.5886731521942
 20
4.4918824159396
 11
3.6678193308274
 21
4.4461873484004
  0
LINE
  8
panelplus
  6
CONTINUOUS
 62
8
 10
3.6194999238477
 20
4.489904877616
 11
3.6697549853657
 21
4.4608901043205
  0
LINE
  8
panelplus
  6
CONTINUOUS
 62
8
 10
3.4300507679656
 20
4.5834630921735
 11
3.5091969465987
 21
4.5377680246343
  0
LINE
  8
panelplus
  6
CONTINUOUS
 62
8
 10
3.5656457087801
 20
4.55651596441
 11
3.6211455364228
 21
4.5244731239805
  0
LINE
  8
panelplus
  6
CONTINUOUS
 62
8
 10
3.7529218887782
 20
4.5867114682205
 11
3.7070837253992
 21
4.5602467922545
  0
LINE
  8
panelplus
  6
CONTINUOUS
 62
8
 10
3.6937596306504
 20
4.644325339954
 11
3.8023345275458
 21
4.7070110859037
  0
LINE
  8
panelplus
  6
CONTINUOUS
 62
8
 10
3.7999624745187
 20
4.70564158045
 11
3.8796007753402
 21
4.6598495574777
  0
LINE
  8
panelplus
  6
CONTINUOUS
 62
8
 10
3.4491449531334
 20
4.6025572773414
 11
3.4606027426269
 21
4.595942119493
  0
LINE
  8
panelplus
  6
CONTINUOUS
 62
8
 10
3.5091947264385
 20
4.5765037058018
 11
3.5091947264385
 21
4.5567283225658
  0
LINE
  8
panelplus
  6
CONTINUOUS
 62
8
 10
3.5656457087801
 20
4.55651596441
 11
3.6395957087801
 21
4.5992110168166
  0
LINE
  8
panelplus
  6
CONTINUOUS
 62
8
 10
3.6950955364228
 20
4.5671681763871
 11
3.6211455364228
 21
4.5244731239805
  0
LINE
  8
panelplus
  6
CONTINUOUS
 62
8
 10
3.6156193308274
 20
4.5992110168166
 11
3.6276075198038
 21
4.5922896326839
  0
LINE
  8
panelplus
  6
CONTINUOUS
 62
8
 10
3.6276075198038
 20
4.6061324009492
 11
3.6406575198038
 21
4.5985979799362
  0
LINE
  8
panelplus
  6
CONTINUOUS
 62
8
 10
3.6276075198038
 20
4.5922896326839
 11
3.6276075198038
 21
4.528203951825
  0
LINE
  8
panelplus
  6
CONTINUOUS
 62
8
 10
3.6406575198038
 20
4.5998240536969
 11
3.6406575198038
 21
4.5357383728379
  0
LINE
  8
panelplus
  6
CONTINUOUS
 62
8
 10
3.6950955364228
 20
4.5533254081218
 11
3.5886731521942
 21
4.4918824159396
  0
LINE
  8
panelplus
  6
CONTINUOUS
 62
8
 10
3.6276075198038
 20
4.6061324009492
 11
3.6734456831827
 21
4.6325970769152
  0
LINE
  8
panelplus
  6
CONTINUOUS
 62
8
 10
3.6831073474465
 20
4.5602467922545
 11
3.6950955364228
 21
4.5533254081218
  0
LINE
  8
panelplus
  6
CONTINUOUS
 62
8
 10
3.6950955364228
 20
4.5671681763871
 11
3.7070837253992
 21
4.5602467922545
  0
LINE
  8
panelplus
  6
CONTINUOUS
 62
8
 10
3.6734456831827
 20
4.6325970769152
 11
3.6734456831827
 21
4.554668627791
  0
LINE
  8
panelplus
  6
CONTINUOUS
 62
8
 10
3.7999624745187
 20
4.70564158045
 11
3.7999624745187
 21
4.6138703630606
  0
LINE
  8
panelplus
  6
CONTINUOUS
 62
8
 10
2.9120309441979
 20
3.3018137346431
 11
2.9120309441979
 21
4.8766168842494
  0
LINE
  8
panelplus
  6
CONTINUOUS
 62
8
 10
2.9120309441979
 20
4.8766168842494
 11
4.4868340938042
 21
4.8766168842494
  0
LINE
  8
panelplus
  6
CONTINUOUS
 62
8
 10
4.4868340938042
 20
4.8766168842494
 11
4.4868340938042
 21
3.3018137346431
  0
LINE
  8
panelplus
  6
CONTINUOUS
 62
8
 10
4.4868340938042
 20
3.3018137346431
 11
2.9120309441979
 21
3.3018137346431
  0
LINE
  8
panelplus
  6
CONTINUOUS
 62
8
 10
3.4300507679656
 20
4.033566342066
 11
2.9120309441979
 21
4.3326452267637
  0
LINE
  8
panelplus
  6
CONTINUOUS
 62
8
 10
3.4300507679656
 20
3.999470853728
 11
2.9120309441979
 21
4.2985497384258
  0
LINE
  8
panelplus
  6
CONTINUOUS
 62
8
 10
4.3942153639375
 20
4.0357920484697
 11
4.3942153639375
 21
3.9994235275758
  0
LINE
  8
panelplus
  6
CONTINUOUS
 62
8
 10
4.3942153639375
 20
3.9994235275758
 11
4.4060263875596
 21
4.0062426252434
  0
LINE
  8
panelplus
  6
CONTINUOUS
 62
8
 10
4.4060263875596
 20
4.0426111461373
 11
4.4060263875596
 21
4.0062426252434
  0
LINE
  8
panelplus
  6
CONTINUOUS
 62
8
 10
4.4060263875596
 20
4.0426111461373
 11
4.4288624199426
 21
4.0557955355808
  0
LINE
  8
panelplus
  6
CONTINUOUS
 62
8
 10
3.7920620728427
 20
4.7398172443932
 11
3.5091947264385
 21
4.5765037058018
  0
LINE
  8
panelplus
  6
CONTINUOUS
 62
8
 10
3.5091947264385
 20
4.5855958360252
 11
3.0051314848423
 21
4.8766168842494
  0
LINE
  8
panelplus
  6
CONTINUOUS
 62
8
 10
3.5383533229454
 20
4.8766168842494
 11
3.7762899399729
 21
4.7398033294586
  0
LINE
  8
panelplus
  6
CONTINUOUS
 62
8
 10
3.7762899399729
 20
4.7398033294586
 11
3.5091947264385
 21
4.5855958360252
  0
LINE
  8
panelplus
  6
CONTINUOUS
 62
8
 10
3.6725426020194
 20
4.4916615686775
 11
4.1538690892865
 21
4.2148988384989
  0
LINE
  8
panelplus
  6
CONTINUOUS
 62
8
 10
4.1538690892865
 20
3.6338538998538
 11
4.1538690892865
 21
4.2148988384989
  0
LINE
  8
panelplus
  6
CONTINUOUS
 62
8
 10
4.4209884041946
 20
4.0944370890305
 11
4.4209884041946
 21
4.3691017125311
  0
LINE
  8
panelplus
  6
CONTINUOUS
 62
8
 10
4.3203163394285
 20
4.0390490722569
 11
4.3203163394285
 21
4.1482078323134
  0
LINE
  8
panelplus
  6
CONTINUOUS
 62
8
 10
4.3910643709245
 20
4.0771604403668
 11
4.3910643709245
 21
4.1466917159205
  0
LINE
  8
panelplus
  6
CONTINUOUS
 62
8
 10
4.3910643709245
 20
4.0771604403668
 11
4.4209884041946
 21
4.0944370890305
  0
LINE
  8
panelplus
  6
CONTINUOUS
 62
8
 10
4.3910643709245
 20
3.9930582357998
 11
4.3910643709246
 21
4.0294267566937
  0
LINE
  8
panelplus
  6
CONTINUOUS
 62
8
 10
4.2753163394285
 20
4.0130683101434
 11
4.3203163394285
 21
4.0390490722569
  0
LINE
  8
panelplus
  6
CONTINUOUS
 62
8
 10
4.2753163394285
 20
4.0130683101434
 11
4.2753163394285
 21
3.7039715024156
  0
LINE
  8
panelplus
  6
CONTINUOUS
 62
8
 10
4.2753163394285
 20
3.7039715024156
 11
4.1538690892865
 21
3.6338538998538
  0
LINE
  8
panelplus
  6
CONTINUOUS
 62
8
 10
4.1538690892865
 20
3.3018137346431
 11
4.1538690892865
 21
3.5816156494051
  0
LINE
  8
panelplus
  6
CONTINUOUS
 62
8
 10
4.3206137653219
 20
4.1535679059969
 11
4.3203284337307
 21
4.1484257903071
  0
LINE
  8
panelplus
  6
CONTINUOUS
 62
8
 10
4.3206137653219
 20
4.1535679059969
 11
4.3203163394285
 21
4.1482078323134
  0
LINE
  8
panelplus
  6
CONTINUOUS
 62
8
 10
4.3240165493358
 20
4.1657084272099
 11
4.3218436820485
 21
4.1597863751442
  0
LINE
  8
panelplus
  6
CONTINUOUS
 62
8
 10
4.3270847703946
 20
4.1711758345976
 11
4.3240165493358
 21
4.1657084272099
  0
LINE
  8
panelplus
  6
CONTINUOUS
 62
8
 10
4.3309798002858
 20
4.1760357497831
 11
4.3270847703946
 21
4.1711758345976
  0
LINE
  8
panelplus
  6
CONTINUOUS
 62
8
 10
4.3356101911633
 20
4.1801430542858
 11
4.3309798002858
 21
4.1760357497831
  0
LINE
  8
panelplus
  6
CONTINUOUS
 62
8
 10
4.3408590541755
 20
4.183364363978
 11
4.3356101911633
 21
4.1801430542858
  0
LINE
  8
panelplus
  6
CONTINUOUS
 62
8
 10
4.3465820731666
 20
4.1855845813974
 11
4.3408590541755
 21
4.183364363978
  0
LINE
  8
panelplus
  6
CONTINUOUS
 62
8
 10
4.3526081475219
 20
4.1867160791811
 11
4.3465820731666
 21
4.1855845813974
  0
LINE
  8
panelplus
  6
CONTINUOUS
 62
8
 10
4.3587448952473
 20
4.1867088671657
 11
4.3526081475219
 21
4.1867160791811
  0
LINE
  8
panelplus
  6
CONTINUOUS
 62
8
 10
4.3647897114843
 20
4.1855583620854
 11
4.3587448952473
 21
4.1867088671657
  0
LINE
  8
panelplus
  6
CONTINUOUS
 62
8
 10
4.3705442262224
 20
4.1833073389853
 11
4.3647897114843
 21
4.1855583620854
  0
LINE
  8
panelplus
  6
CONTINUOUS
 62
8
 10
4.375827902356
 20
4.1800410162555
 11
4.3705442262224
 21
4.1833073389853
  0
LINE
  8
panelplus
  6
CONTINUOUS
 62
8
 10
4.3804870452073
 20
4.1758774211895
 11
4.375827902356
 21
4.1800410162555
  0
LINE
  8
panelplus
  6
CONTINUOUS
 62
8
 10
4.3896263320277
 20
4.1594653146934
 11
4.3874670897805
 21
4.1654324350469
  0
LINE
  8
panelplus
  6
CONTINUOUS
 62
8
 10
4.3910643709245
 20
4.1466917159205
 11
4.3908321698245
 21
4.1532197168612
  0
LINE
  8
panelplus
  6
CONTINUOUS
 62
8
 10
4.3874670897805
 20
4.1654324350469
 11
4.3843981563487
 21
4.1709567292907
  0
LINE
  8
panelplus
  6
CONTINUOUS
 62
8
 10
4.3908321698245
 20
4.1532197168612
 11
4.3896263320277
 21
4.1594653146934
  0
LINE
  8
panelplus
  6
CONTINUOUS
 62
8
 10
4.3218436820485
 20
4.1597863751442
 11
4.3206268927717
 21
4.1535013054713
  0
LINE
  8
panelplus
  6
CONTINUOUS
 62
8
 10
4.3843981563487
 20
4.1709567292907
 11
4.3804870452073
 21
4.1758774211895
  0
LINE
  8
panelplus
  6
CONTINUOUS
 62
8
 10
3.9396458329848
 20
4.6458736909768
 11
3.6725426020194
 21
4.4916615686775
  0
LINE
  8
panelplus
  6
CONTINUOUS
 62
8
 10
3.9396458329848
 20
4.6458736909768
 11
4.4209884041946
 21
4.3691017125311
  0
LINE
  8
panelplus
  6
CONTINUOUS
 62
8
 10
4.1459950735385
 20
4.2103435062193
 11
4.4288624199426
 21
4.3736570448107
  0
LINE
  8
panelplus
  6
CONTINUOUS
 62
8
 10
3.7920620728427
 20
4.7398172443932
 11
3.7920620728427
 21
4.7200418611572
  0
LINE
  8
panelplus
  6
CONTINUOUS
 62
8
 10
4.3863413481895
 20
4.0266999182462
 11
4.3863413481895
 21
3.718300893178
  0
LINE
  8
panelplus
  6
CONTINUOUS
 62
8
 10
4.3910643709245
 20
3.9930582357998
 11
4.4099633954336
 21
4.0039695926876
  0
LINE
  8
panelplus
  6
CONTINUOUS
 62
8
 10
4.4099633954336
 20
4.0403381135814
 11
4.4099633954336
 21
4.0039695926876
  0
LINE
  8
panelplus
  6
CONTINUOUS
 62
8
 10
4.4099633954336
 20
4.0403381135814
 11
4.4249254120686
 21
4.0489764379132
  0
LINE
  8
panelplus
  6
CONTINUOUS
 62
8
 10
4.4249254120686
 20
3.3018137346431
 11
4.4249254120686
 21
4.0489764379132
  0
LINE
  8
panelplus
  6
CONTINUOUS
 62
8
 10
4.3863413481895
 20
4.0266999182462
 11
4.3910643709246
 21
4.0294267566937
  0
LINE
  8
panelplus
  6
CONTINUOUS
 62
8
 10
4.3863413481895
 20
3.718300893178
 11
4.1538690892865
 21
3.5816156494051
  0
LINE
  8
panelplus
  6
CONTINUOUS
 62
8
 10
4.372937390145
 20
4.7312492221265
 11
4.1211532135706
 21
4.8766168842494
  0
LINE
  8
panelplus
  6
CONTINUOUS
 62
8
 10
3.9396378155538
 20
4.6549611923343
 11
4.4288624199426
 21
4.3736570448107
  0
LINE
  8
panelplus
  6
CONTINUOUS
 62
8
 10
3.7920620728427
 20
4.7398172443932
 11
3.9396378155538
 21
4.6549611923343
  0
LINE
  8
panelplus
  6
CONTINUOUS
 62
8
 10
4.3493153429009
 20
4.7312492221265
 11
4.0975311663265
 21
4.8766168842494
  0
LINE
  8
panelplus
  6
CONTINUOUS
 62
8
 10
4.0900700437409
 20
4.5815738788703
 11
3.6652518918997
 21
4.8268427531924
  0
LINE
  8
panelplus
  6
CONTINUOUS
 62
8
 10
3.9244971910597
 20
4.8766168842494
 11
3.9244971910597
 21
4.6771674099362
  0
LINE
  8
panelplus
  6
CONTINUOUS
 62
8
 10
4.372937390145
 20
4.7312492221265
 11
4.372937390145
 21
4.4058139369443
  0
LINE
  8
panelplus
  6
CONTINUOUS
 62
8
 10
3.6411725378751
 20
4.8265787269996
 11
3.7278411685489
 21
4.8766168842494
  0
LINE
  8
panelplus
  6
CONTINUOUS
 62
8
 10
4.0900700437409
 20
4.5815738788703
 11
4.3493153429009
 21
4.7312492221265
  0
LINE
  8
panelplus
  6
CONTINUOUS
 62
8
 10
3.6652518918997
 20
4.8268427531924
 11
3.751463215793
 21
4.8766168842494
  0
LINE
  8
panelplus
  6
CONTINUOUS
 62
8
 10
4.0905273505214
 20
4.5681997097279
 11
4.372937390145
 21
4.7312492221265
  0
ARC
  8
panelplus
  6
CONTINUOUS
 62
8
 10
4.3958217887587
 20
4.0464745008627
 40
0.021217414913073
 50
126.53639576178
 51
233.46360423822
  0
ARC
  8
panelplus
  6
CONTINUOUS
 62
8
 10
4.4097547650888
 20
4.0661713890725
 40
0.018645435425552
 50
293.89179888487
 51
66.10820111513
  0
LINE
  8
panelplus
  6
CONTINUOUS
 62
8
 10
4.3746043738457
 20
4.0464745008627
 11
4.3281903551765
 21
4.0732716470355
  0
LINE
  8
panelplus
  6
CONTINUOUS
 62
8
 10
4.3762328865045
 20
4.0546264088642
 11
4.3281903551765
 21
4.0823637772589
  0
LINE
  8
panelplus
  6
CONTINUOUS
 62
8
 10
4.375171687512
 20
4.0416008970529
 11
4.3281903551765
 21
4.0687255819237
  0
LINE
  8
panelplus
  6
CONTINUOUS
 62
8
 10
4.3775568065471
 20
4.0356777828243
 11
4.3281903551765
 21
4.064179516812
  0
LINE
  8
panelplus
  6
CONTINUOUS
 62
8
 10
4.3807028631196
 20
4.0315883736594
 11
4.3281903551765
 21
4.0619064842562
  0
LINE
  8
panelplus
  6
CONTINUOUS
 62
8
 10
4.3961838678745
 20
4.0392015973035
 11
4.3961838678745
 21
4.0028330764096
  0
LINE
  8
panelplus
  6
CONTINUOUS
 62
8
 10
4.3981523718115
 20
4.0426111461373
 11
4.3981523718115
 21
4.0062426252434
  0
LINE
  8
panelplus
  6
CONTINUOUS
 62
8
 10
4.4020893796856
 20
4.0448841786931
 11
4.4020893796856
 21
4.0085156577993
  0
LINE
  8
panelplus
  6
CONTINUOUS
 62
8
 10
4.4040578836226
 20
4.0437476624152
 11
4.4040578836226
 21
4.0073791415214
  0
LINE
  8
panelplus
  6
CONTINUOUS
 62
8
 10
4.4040578836226
 20
4.0437476624152
 11
4.4196649902647
 21
4.0527584296363
  0
LINE
  8
panelplus
  6
CONTINUOUS
 62
8
 10
4.4020893796856
 20
4.0448841786931
 11
4.4185815161544
 21
4.0544059181229
  0
LINE
  8
panelplus
  6
CONTINUOUS
 62
8
 10
4.3840166595723
 20
4.0367229214266
 11
4.4174911224834
 21
4.0560494115993
  0
LINE
  8
panelplus
  6
CONTINUOUS
 62
8
 10
4.3842743317339
 20
4.061875046633
 11
4.4173931482839
 21
4.0809962042834
  0
LINE
  8
panelplus
  6
CONTINUOUS
 62
8
 10
4.3853635712933
 20
4.06023088683
 11
4.4174081093924
 21
4.0787318095275
  0
LINE
  8
panelplus
  6
CONTINUOUS
 62
8
 10
4.3864590070816
 20
4.0585903044213
 11
4.4173306277762
 21
4.0764140429397
  0
ARC
  8
panelplus
  6
CONTINUOUS
 62
8
 10
4.3958217887587
 20
4.0464745008627
 40
0.019248910976066
 50
126.8628674509
 51
229.67104906544
  0
ARC
  8
panelplus
  6
CONTINUOUS
 62
8
 10
4.3958217887587
 20
4.0464745008627
 40
0.017280407039058
 50
127.24371459618
 51
225.13239036137
  0
ARC
  8
panelplus
  6
CONTINUOUS
 62
8
 10
4.3958217887587
 20
4.0464745008627
 40
0.01531190310205
 50
127.69592770558
 51
219.55827225454
  0
ARC
  8
panelplus
  6
CONTINUOUS
 62
8
 10
4.4097547650888
 20
4.0661713890725
 40
0.016676931488544
 50
306.45900806845
 51
62.740526549673
  0
ARC
  8
panelplus
  6
CONTINUOUS
 62
8
 10
4.4097547650888
 20
4.0661713890725
 40
0.014708427551536
 50
306.87814928685
 51
58.645116606355
  0
ARC
  8
panelplus
  6
CONTINUOUS
 62
8
 10
4.4097547650888
 20
4.0661713890725
 40
0.012739923614528
 50
307.39114409051
 51
53.511939183777
  0
LINE
  8
panelplus
  6
CONTINUOUS
 62
8
 10
4.3833643735477
 20
4.031800258803
 11
4.3961838678745
 21
4.0392015973035
  0
LINE
  8
panelplus
  6
CONTINUOUS
 62
8
 10
4.3836309623732
 20
4.034227206489
 11
4.3981523718115
 21
4.0426111461373
  0
LINE
  8
panelplus
  6
CONTINUOUS
 62
8
 10
4.3961838678745
 20
4.0028330764096
 11
4.4040578836226
 21
4.0073791415214
  0
LINE
  8
panelplus
  6
CONTINUOUS
 62
8
 10
4.3981523718115
 20
4.0062426252434
 11
4.4020893796856
 21
4.0085156577993
  0
ENDSEC
  0
EOF
