  0
SECTION
  2
HEADER
  9
$EXTMIN
 10
2.6061576656745
 20
9.1844057006056
  9
$EXTMAX
 10
4.1835925837203
 20
10.759208850212
  9
$LIMMIN
 10
0
 20
0
  9
$LIMMAX
 10
8.2666666666667
 20
11.69
  0
ENDSEC
  0
SECTION
  2
TABLES
  0
TABLE
  2
LTYPE
 70
9
  0
LTYPE
  2
CONTINUOUS
  3
___________________________
 70
64
 72
65
 73
0
 40
0
  0
LTYPE
  2
HIDDEN
  3
_ _ _ _ _ _ _ _ _ _ _ _ _ _ 
 70
64
 72
65
 73
2
 49
0.25
 49
-0.125
 40
0.375
  0
LTYPE
  2
DASHED
  3
__ __ __ __ __ __ __ __ __ 
 70
64
 72
65
 73
2
 49
0.5
 49
-0.25
 40
0.75
  0
LTYPE
  2
CENTER
  3
____ _ ____ _ ____ _ ____ _ 
 70
64
 72
65
 73
4
 49
1.25
 49
-0.25
 49
0.25
 49
-0.25
 40
2
  0
LTYPE
  2
PHANTOM
  3
_____ _ _ _____ _ _ _____ _ _ 
 70
64
 72
65
 73
6
 49
1.25
 49
-0.25
 49
0.25
 49
-0.25
 49
0.25
 49
-0.25
 40
2.5
  0
LTYPE
  2
DOT
  3
...........................
 70
64
 72
65
 73
2
 49
0
 49
-0.25
 40
0.25
  0
LTYPE
  2
DASHDOT
  3
__ . __ . __ . __ . __ . __ . 
 70
64
 72
65
 73
4
 49
0.5
 49
-0.25
 49
0
 49
-0.25
 40
1
  0
LTYPE
  2
DIVIDE
  3
__ . . __ . . __ . . __ . . 
 70
64
 72
65
 73
6
 49
0.5
 49
-0.25
 49
0
 49
-0.25
 49
0
 49
-0.25
 40
1.25
  0
LTYPE
  2
BORDER
  3
__ __ . __ __ . __ __ . __ __ . 
 70
64
 72
65
 73
6
 49
0.5
 49
-0.25
 49
0.5
 49
-0.25
 49
0
 49
-0.25
 40
1.75
  0
ENDTAB
  0
TABLE
  2
LAYER
 70
1
  0
LAYER
  2
ERSF.4d
 62
7
  6
CONTINUOUS
 70
0
  0
ENDTAB
  0
TABLE
  2
STYLE
 70
5
  0
STYLE
  2
ptmarker
 70
1
 40
0
 50
0
 71
0
 41
0
 42
0
  3
ptmarks
  0
STYLE
  2
TXT
 70
0
 40
0
 50
0
 71
0
 41
0
 42
0
  3
TXT
  0
STYLE
  2
ITALIC
 70
0
 40
0
 50
0
 71
0
 41
0
 42
0
  3
ITALIC
  0
STYLE
  2
SIMPLEX
 70
0
 40
0
 50
0
 71
0
 41
0
 42
0
  3
SIMPLEX
  0
STYLE
  2
COMPLEX
 70
0
 40
0
 50
0
 71
0
 41
0
 42
0
  3
COMPLEX
  0
ENDTAB
  0
ENDSEC
  0
SECTION
  2
BLOCKS
  0
ENDSEC
  0
SECTION
  2
ENTITIES
  0
LINE
  8
ERSF.4d
  6
CONTINUOUS
 62
8
 10
2.6081261696115
 20
9.3830716309555
 11
3.3246616026823
 21
9.7967635561229
  0
LINE
  8
ERSF.4d
  6
CONTINUOUS
 62
8
 10
4.1829293192178
 20
9.1844057006056
 11
2.6081261696115
 21
9.1844057006056
  0
LINE
  8
ERSF.4d
  6
CONTINUOUS
 62
8
 10
2.6081261696115
 20
10.759208850212
 11
4.1829293192178
 21
10.759208850212
  0
LINE
  8
ERSF.4d
  6
CONTINUOUS
 62
8
 10
4.1829293192178
 20
10.759208850212
 11
4.1829293192178
 21
9.1844057006056
  0
LINE
  8
ERSF.4d
  6
CONTINUOUS
 62
8
 10
4.1829293192178
 20
9.2921503287209
 11
4.1671812877217
 21
9.3012424589444
  0
LINE
  8
ERSF.4d
  6
CONTINUOUS
 62
8
 10
2.6081261696115
 20
9.1844057006056
 11
2.6081261696115
 21
10.759208850212
  0
LINE
  8
ERSF.4d
  6
CONTINUOUS
 62
8
 10
4.1829293192178
 20
9.3830716309555
 11
2.6081261696115
 21
10.292284653301
  0
LINE
  8
ERSF.4d
  6
CONTINUOUS
 62
8
 10
3.3364726263044
 20
9.8717736304664
 11
3.730173413706
 21
10.099076886053
  0
LINE
  8
ERSF.4d
  6
CONTINUOUS
 62
8
 10
4.1829293192178
 20
9.8376781421284
 11
3.7892285318162
 21
10.064981397715
  0
LINE
  8
ERSF.4d
  6
CONTINUOUS
 62
8
 10
4.1829293192178
 20
9.9058691188044
 11
3.8482836499264
 21
10.099076886053
  0
LINE
  8
ERSF.4d
  6
CONTINUOUS
 62
8
 10
3.8482836499264
 20
10.099076886053
 11
4.1829293192178
 21
10.292284653301
  0
LINE
  8
ERSF.4d
  6
CONTINUOUS
 62
8
 10
3.7892285318162
 20
10.133172374391
 11
2.7049015483028
 21
10.759208850212
  0
LINE
  8
ERSF.4d
  6
CONTINUOUS
 62
8
 10
3.7892285318162
 20
10.133172374391
 11
4.1829293192178
 21
10.360475629977
  0
LINE
  8
ERSF.4d
  6
CONTINUOUS
 62
8
 10
3.730173413706
 20
10.099076886053
 11
2.6081261696115
 21
10.746891164474
  0
LINE
  8
ERSF.4d
  6
CONTINUOUS
 62
8
 10
3.3364726263044
 20
9.8717736304664
 11
3.3364726263044
 21
9.8263129793491
  0
LINE
  8
ERSF.4d
  6
CONTINUOUS
 62
8
 10
3.3955277444146
 20
9.8376781421284
 11
3.3955277444146
 21
9.7922174910111
  0
LINE
  8
ERSF.4d
  6
CONTINUOUS
 62
8
 10
3.3364726263044
 20
9.8263129793491
 11
3.3955277444146
 21
9.7922174910111
  0
LINE
  8
ERSF.4d
  6
CONTINUOUS
 62
8
 10
3.3660001853595
 20
9.8092652351801
 11
3.3660001853595
 21
9.7638045840628
  0
LINE
  8
ERSF.4d
  6
CONTINUOUS
 62
8
 10
3.3699371932335
 20
9.8069922026243
 11
3.3699371932335
 21
9.761531551507
  0
LINE
  8
ERSF.4d
  6
CONTINUOUS
 62
8
 10
3.3620631774855
 20
9.811538267736
 11
3.3620631774855
 21
9.7660776166187
  0
LINE
  8
ERSF.4d
  6
CONTINUOUS
 62
8
 10
3.3581261696115
 20
9.8138113002919
 11
3.3581261696115
 21
9.7683506491746
  0
LINE
  8
ERSF.4d
  6
CONTINUOUS
 62
8
 10
3.3738742011075
 20
9.8047191700684
 11
3.3738742011075
 21
9.7592585189511
  0
LINE
  8
ERSF.4d
  6
CONTINUOUS
 62
8
 10
3.3541891617375
 20
9.8160843328477
 11
3.3541891617375
 21
9.7706236817304
  0
LINE
  8
ERSF.4d
  6
CONTINUOUS
 62
8
 10
3.3778112089815
 20
9.8024461375125
 11
3.3778112089815
 21
9.7569854863952
  0
LINE
  8
ERSF.4d
  6
CONTINUOUS
 62
8
 10
3.3837167207926
 20
9.844497239796
 11
3.3837167207926
 21
9.7990365886787
  0
LINE
  8
ERSF.4d
  6
CONTINUOUS
 62
8
 10
3.3876537286666
 20
9.8422242072402
 11
3.3876537286666
 21
9.7967635561229
  0
LINE
  8
ERSF.4d
  6
CONTINUOUS
 62
8
 10
3.3797797129186
 20
9.8467702723519
 11
3.3797797129186
 21
9.8013096212346
  0
LINE
  8
ERSF.4d
  6
CONTINUOUS
 62
8
 10
3.3758427050445
 20
9.8490433049078
 11
3.3758427050445
 21
9.8035826537905
  0
LINE
  8
ERSF.4d
  6
CONTINUOUS
 62
8
 10
3.3915907365406
 20
9.8399511746843
 11
3.3915907365406
 21
9.794490523567
  0
LINE
  8
ERSF.4d
  6
CONTINUOUS
 62
8
 10
3.3719056971705
 20
9.8513163374636
 11
3.3719056971705
 21
9.8058556863463
  0
LINE
  8
ERSF.4d
  6
CONTINUOUS
 62
8
 10
3.3600946735485
 20
9.8581354351312
 11
3.3600946735485
 21
9.8126747840139
  0
LINE
  8
ERSF.4d
  6
CONTINUOUS
 62
8
 10
3.3640316814225
 20
9.8558624025754
 11
3.3640316814225
 21
9.8104017514581
  0
LINE
  8
ERSF.4d
  6
CONTINUOUS
 62
8
 10
3.3561576656745
 20
9.8604084676871
 11
3.3561576656745
 21
9.8149478165698
  0
LINE
  8
ERSF.4d
  6
CONTINUOUS
 62
8
 10
3.3522206578004
 20
9.8626815002429
 11
3.3522206578004
 21
9.8172208491257
  0
LINE
  8
ERSF.4d
  6
CONTINUOUS
 62
8
 10
3.3679686892965
 20
9.8535893700195
 11
3.3679686892965
 21
9.8081287189022
  0
LINE
  8
ERSF.4d
  6
CONTINUOUS
 62
8
 10
3.3482836499264
 20
9.8649545327988
 11
3.3482836499264
 21
9.8194938816815
  0
LINE
  8
ERSF.4d
  6
CONTINUOUS
 62
8
 10
3.3404096341784
 20
9.8695005979105
 11
3.3404096341784
 21
9.8240399467933
  0
LINE
  8
ERSF.4d
  6
CONTINUOUS
 62
8
 10
3.3443466420524
 20
9.8672275653547
 11
3.3443466420524
 21
9.8217669142374
  0
LINE
  8
ERSF.4d
  6
CONTINUOUS
 62
8
 10
2.6081261696115
 20
9.2466896776036
 11
3.4427718389028
 21
9.7285725794469
  0
LINE
  8
ERSF.4d
  6
CONTINUOUS
 62
8
 10
2.7364676293944
 20
9.1844057006056
 11
3.5608820751233
 21
9.660381602771
  0
LINE
  8
ERSF.4d
  6
CONTINUOUS
 62
8
 10
2.9726881018354
 20
9.1844057006056
 11
3.6789923113437
 21
9.5921906260951
  0
LINE
  8
ERSF.4d
  6
CONTINUOUS
 62
8
 10
3.2089085742763
 20
9.1844057006056
 11
3.7971025475642
 21
9.5239996494191
  0
LINE
  8
ERSF.4d
  6
CONTINUOUS
 62
8
 10
3.4451290467172
 20
9.1844057006056
 11
3.9152127837847
 21
9.4558086727432
  0
LINE
  8
ERSF.4d
  6
CONTINUOUS
 62
8
 10
3.6813495191582
 20
9.1844057006056
 11
4.0333230200052
 21
9.3876176960672
  0
LINE
  8
ERSF.4d
  6
CONTINUOUS
 62
8
 10
3.9175699915991
 20
9.1844057006056
 11
4.1514332562256
 21
9.3194267193913
  0
LINE
  8
ERSF.4d
  6
CONTINUOUS
 62
8
 10
4.1537904640401
 20
9.1844057006056
 11
4.1829293192178
 21
9.2012290264863
  0
LINE
  8
ERSF.4d
  6
CONTINUOUS
 62
8
 10
2.6081261696115
 20
9.5194535843074
 11
3.2065513664619
 21
9.8649545327988
  0
LINE
  8
ERSF.4d
  6
CONTINUOUS
 62
8
 10
2.6081261696115
 20
9.6558355376593
 11
3.0884411302414
 21
9.9331455094748
  0
LINE
  8
ERSF.4d
  6
CONTINUOUS
 62
8
 10
2.6081261696115
 20
9.7922174910111
 11
2.9703308940209
 21
10.001336486151
  0
LINE
  8
ERSF.4d
  6
CONTINUOUS
 62
8
 10
2.6081261696115
 20
9.928599444363
 11
2.8522206578005
 21
10.069527462827
  0
LINE
  8
ERSF.4d
  6
CONTINUOUS
 62
8
 10
2.6081261696115
 20
10.064981397715
 11
2.73411042158
 21
10.137718439503
  0
LINE
  8
ERSF.4d
  6
CONTINUOUS
 62
8
 10
3.3955277444146
 20
9.8376781421284
 11
3.7892285318162
 21
10.064981397715
  0
LINE
  8
ERSF.4d
  6
CONTINUOUS
 62
8
 10
2.6081261696115
 20
10.201363351067
 11
2.665767965483
 21
10.259005146938
  0
LINE
  8
ERSF.4d
  6
CONTINUOUS
 62
8
 10
2.6434244165472
 20
10.180983898697
 11
2.7010662124188
 21
10.238625694568
  0
LINE
  8
ERSF.4d
  6
CONTINUOUS
 62
8
 10
2.678722663483
 20
10.160604446326
 11
2.7363644593545
 21
10.218246242198
  0
LINE
  8
ERSF.4d
  6
CONTINUOUS
 62
8
 10
2.7140209104187
 20
10.140224993956
 11
2.7716627062903
 21
10.197866789828
  0
LINE
  8
ERSF.4d
  6
CONTINUOUS
 62
8
 10
2.7493191573545
 20
10.119845541586
 11
2.806960953226
 21
10.177487337457
  0
LINE
  8
ERSF.4d
  6
CONTINUOUS
 62
8
 10
2.7846174042902
 20
10.099466089215
 11
2.8422592001618
 21
10.157107885087
  0
LINE
  8
ERSF.4d
  6
CONTINUOUS
 62
8
 10
2.819915651226
 20
10.079086636845
 11
2.8775574470975
 21
10.136728432717
  0
LINE
  8
ERSF.4d
  6
CONTINUOUS
 62
8
 10
2.8609780777489
 20
10.064471364062
 11
2.9128556940333
 21
10.116348980346
  0
LINE
  8
ERSF.4d
  6
CONTINUOUS
 62
8
 10
2.6081261696115
 20
10.257041050373
 11
2.6304697185473
 21
10.279384599309
  0
LINE
  8
ERSF.4d
  6
CONTINUOUS
 62
8
 10
2.9466635470887
 20
10.00590870505
 11
2.9178426491529
 21
10.113469760466
  0
LINE
  8
ERSF.4d
  6
CONTINUOUS
 62
8
 10
2.8905121450975
 20
10.038327732105
 11
2.948153940969
 21
10.095969527976
  0
LINE
  8
ERSF.4d
  6
CONTINUOUS
 62
8
 10
2.9258103920332
 20
10.017948279734
 11
2.9834521879048
 21
10.075590075606
  0
LINE
  8
ERSF.4d
  6
CONTINUOUS
 62
8
 10
2.961108638969
 20
9.997568827364
 11
3.0187504348405
 21
10.055210623236
  0
LINE
  8
ERSF.4d
  6
CONTINUOUS
 62
8
 10
2.9964068859047
 20
9.9771893749937
 11
3.0540486817763
 21
10.034831170865
  0
LINE
  8
ERSF.4d
  6
CONTINUOUS
 62
8
 10
3.0317051328405
 20
9.9568099226235
 11
3.089346928712
 21
10.014451718495
  0
LINE
  8
ERSF.4d
  6
CONTINUOUS
 62
8
 10
3.0670033797762
 20
9.9364304702532
 11
3.1246451756478
 21
9.9940722661247
  0
LINE
  8
ERSF.4d
  6
CONTINUOUS
 62
8
 10
3.1079008906629
 20
9.9216502818338
 11
3.1599434225835
 21
9.9736928137545
  0
LINE
  8
ERSF.4d
  6
CONTINUOUS
 62
8
 10
3.1375998736477
 20
9.8956715655126
 11
3.1952416695193
 21
9.9533133613842
  0
LINE
  8
ERSF.4d
  6
CONTINUOUS
 62
8
 10
3.1728981205835
 20
9.8752921131424
 11
3.230539916455
 21
9.9329339090139
  0
LINE
  8
ERSF.4d
  6
CONTINUOUS
 62
8
 10
3.2139605471064
 20
9.8606768403592
 11
3.2658381633908
 21
9.9125544566436
  0
LINE
  8
ERSF.4d
  6
CONTINUOUS
 62
8
 10
3.243494614455
 20
9.8345332084018
 11
3.3011364103265
 21
9.8921750042734
  0
LINE
  8
ERSF.4d
  6
CONTINUOUS
 62
8
 10
3.2787928613907
 20
9.8141537560315
 11
3.3364346572623
 21
9.8717955519031
  0
LINE
  8
ERSF.4d
  6
CONTINUOUS
 62
8
 10
3.3140911083265
 20
9.7937743036612
 11
3.3429120062623
 21
9.822595201597
  0
LINE
  8
ERSF.4d
  6
CONTINUOUS
 62
8
 10
3.3493893552622
 20
9.773394851291
 11
3.3541891617375
 21
9.7781946577662
  0
LINE
  8
ERSF.4d
  6
CONTINUOUS
 62
8
 10
3.384687602198
 20
9.7530153989207
 11
3.4423293980695
 21
9.8106571947923
  0
LINE
  8
ERSF.4d
  6
CONTINUOUS
 62
8
 10
3.4199858491337
 20
9.7326359465504
 11
3.4776276450053
 21
9.790277742422
  0
LINE
  8
ERSF.4d
  6
CONTINUOUS
 62
8
 10
3.4571999017413
 20
9.714172299852
 11
3.512925891941
 21
9.7698982900517
  0
LINE
  8
ERSF.4d
  6
CONTINUOUS
 62
8
 10
3.4905823430052
 20
9.6918770418099
 11
3.5482241388768
 21
9.7495188376814
  0
LINE
  8
ERSF.4d
  6
CONTINUOUS
 62
8
 10
3.525880589941
 20
9.6714975894396
 11
3.5835223858125
 21
9.7291393853111
  0
LINE
  8
ERSF.4d
  6
CONTINUOUS
 62
8
 10
3.5669430164639
 20
9.6568823166565
 11
3.6188206327483
 21
9.7087599329409
  0
LINE
  8
ERSF.4d
  6
CONTINUOUS
 62
8
 10
3.5964770838125
 20
9.630738684699
 11
3.654118879684
 21
9.6883804805706
  0
LINE
  8
ERSF.4d
  6
CONTINUOUS
 62
8
 10
3.6317753307482
 20
9.6103592323287
 11
3.6894171266198
 21
9.6680010282003
  0
LINE
  8
ERSF.4d
  6
CONTINUOUS
 62
8
 10
3.667073577684
 20
9.5899797799585
 11
3.7247153735555
 21
9.64762157583
  0
LINE
  8
ERSF.4d
  6
CONTINUOUS
 62
8
 10
3.7023718246197
 20
9.5696003275882
 11
3.7600136204913
 21
9.6272421234598
  0
LINE
  8
ERSF.4d
  6
CONTINUOUS
 62
8
 10
3.7376700715555
 20
9.5492208752179
 11
3.795311867427
 21
9.6068626710895
  0
LINE
  8
ERSF.4d
  6
CONTINUOUS
 62
8
 10
3.7729683184912
 20
9.5288414228476
 11
3.8306101143628
 21
9.5864832187192
  0
LINE
  8
ERSF.4d
  6
CONTINUOUS
 62
8
 10
3.8124841774809
 20
9.5126795825313
 11
3.8659083612985
 21
9.5661037663489
  0
LINE
  8
ERSF.4d
  6
CONTINUOUS
 62
8
 10
3.8435648123627
 20
9.4880825181071
 11
3.9012066082343
 21
9.5457243139786
  0
LINE
  8
ERSF.4d
  6
CONTINUOUS
 62
8
 10
3.8788630592985
 20
9.4677030657368
 11
3.93650485517
 21
9.5253448616084
  0
LINE
  8
ERSF.4d
  6
CONTINUOUS
 62
8
 10
3.9199254858214
 20
9.4530877929537
 11
3.9718031021058
 21
9.5049654092381
  0
LINE
  8
ERSF.4d
  6
CONTINUOUS
 62
8
 10
3.94945955317
 20
9.4269441609962
 11
4.0071013490415
 21
9.4845859568678
  0
LINE
  8
ERSF.4d
  6
CONTINUOUS
 62
8
 10
3.9847578001057
 20
9.406564708626
 11
4.0423995959773
 21
9.4642065044975
  0
LINE
  8
ERSF.4d
  6
CONTINUOUS
 62
8
 10
4.0200560470415
 20
9.3861852562557
 11
4.077697842913
 21
9.4438270521273
  0
LINE
  8
ERSF.4d
  6
CONTINUOUS
 62
8
 10
4.0553542939772
 20
9.3658058038854
 11
4.1129960898488
 21
9.423447599757
  0
LINE
  8
ERSF.4d
  6
CONTINUOUS
 62
8
 10
4.090652540913
 20
9.3454263515151
 11
4.1482943367845
 21
9.4030681473867
  0
LINE
  8
ERSF.4d
  6
CONTINUOUS
 62
8
 10
4.1259507878487
 20
9.3250468991449
 11
4.1835925837203
 21
9.3826886950164
  0
LINE
  8
ERSF.4d
  6
CONTINUOUS
 62
8
 10
4.1670132143716
 20
9.3104316263617
 11
4.1829293192178
 21
9.3263477312079
  0
LINE
  8
ERSF.4d
  6
CONTINUOUS
 62
8
 10
3.3955277444146
 20
9.8195332404434
 11
3.4070311511338
 21
9.8310366471625
  0
LINE
  8
ERSF.4d
  6
CONTINUOUS
 62
8
 10
2.8984452450654
 20
10.033747554703
 11
2.8696243471296
 21
10.141308610119
  0
LINE
  8
ERSF.4d
  6
CONTINUOUS
 62
8
 10
2.8486513211407
 20
10.067466705345
 11
2.8214060451063
 21
10.169147459772
  0
LINE
  8
ERSF.4d
  6
CONTINUOUS
 62
8
 10
2.994881849112
 20
9.9780698553966
 11
2.9660609511762
 21
10.085630910813
  0
LINE
  8
ERSF.4d
  6
CONTINUOUS
 62
8
 10
2.7055720369722
 20
10.145102953315
 11
2.6767511390364
 21
10.252664008731
  0
LINE
  8
ERSF.4d
  6
CONTINUOUS
 62
8
 10
2.7537903389955
 20
10.117264103662
 11
2.7249694410597
 21
10.224825159078
  0
LINE
  8
ERSF.4d
  6
CONTINUOUS
 62
8
 10
2.8020086410188
 20
10.089425254009
 11
2.773187743083
 21
10.196986309425
  0
LINE
  8
ERSF.4d
  6
CONTINUOUS
 62
8
 10
2.6573537349489
 20
10.172941802968
 11
2.6285328370132
 21
10.280502858384
  0
LINE
  8
ERSF.4d
  6
CONTINUOUS
 62
8
 10
3.0431001511353
 20
9.9502310057435
 11
3.0142792531995
 21
10.05779206116
  0
LINE
  8
ERSF.4d
  6
CONTINUOUS
 62
8
 10
3.0884376406457
 20
9.9331434947557
 11
3.0624975552228
 21
10.029953211507
  0
LINE
  8
ERSF.4d
  6
CONTINUOUS
 62
8
 10
3.1395367551818
 20
9.8945533064375
 11
3.1107158572461
 21
10.002114361854
  0
LINE
  8
ERSF.4d
  6
CONTINUOUS
 62
8
 10
3.1877550572051
 20
9.8667144567845
 11
3.1589341592693
 21
9.9742755122006
  0
LINE
  8
ERSF.4d
  6
CONTINUOUS
 62
8
 10
3.2359733592284
 20
9.8388756071315
 11
3.2071524612926
 21
9.9464366625476
  0
LINE
  8
ERSF.4d
  6
CONTINUOUS
 62
8
 10
3.2841916612517
 20
9.8110367574785
 11
3.2553707633159
 21
9.9185978128946
  0
LINE
  8
ERSF.4d
  6
CONTINUOUS
 62
8
 10
3.3295278734814
 20
9.7939540133671
 11
3.3035890653392
 21
9.8907589632416
  0
LINE
  8
ERSF.4d
  6
CONTINUOUS
 62
8
 10
3.3806282652983
 20
9.7553590581724
 11
3.3778112089815
 21
9.7658724554743
  0
LINE
  8
ERSF.4d
  6
CONTINUOUS
 62
8
 10
3.4288465673216
 20
9.7275202085194
 11
3.4000256693858
 21
9.8350812639355
  0
LINE
  8
ERSF.4d
  6
CONTINUOUS
 62
8
 10
3.4770648693449
 20
9.6996813588664
 11
3.4482439714091
 21
9.8072424142825
  0
LINE
  8
ERSF.4d
  6
CONTINUOUS
 62
8
 10
3.5252831713682
 20
9.6718425092134
 11
3.4964622734324
 21
9.7794035646295
  0
LINE
  8
ERSF.4d
  6
CONTINUOUS
 62
8
 10
3.5706193835979
 20
9.654759765102
 11
3.5446805754557
 21
9.7515647149765
  0
LINE
  8
ERSF.4d
  6
CONTINUOUS
 62
8
 10
3.6217197754147
 20
9.6161648099074
 11
3.592898877479
 21
9.7237258653235
  0
LINE
  8
ERSF.4d
  6
CONTINUOUS
 62
8
 10
3.669938077438
 20
9.5883259602544
 11
3.6411171795022
 21
9.6958870156705
  0
LINE
  8
ERSF.4d
  6
CONTINUOUS
 62
8
 10
3.7181563794613
 20
9.5604871106014
 11
3.6893354815255
 21
9.6680481660175
  0
LINE
  8
ERSF.4d
  6
CONTINUOUS
 62
8
 10
3.7663746814846
 20
9.5326482609483
 11
3.7375537835488
 21
9.6402093163644
  0
LINE
  8
ERSF.4d
  6
CONTINUOUS
 62
8
 10
3.8117108937143
 20
9.5155655168369
 11
3.7857720855721
 21
9.6123704667114
  0
LINE
  8
ERSF.4d
  6
CONTINUOUS
 62
8
 10
3.8628112855312
 20
9.4769705616423
 11
3.8339903875954
 21
9.5845316170584
  0
LINE
  8
ERSF.4d
  6
CONTINUOUS
 62
8
 10
3.9100406354453
 20
9.4528225315071
 11
3.8822086896187
 21
9.5566927674054
  0
LINE
  8
ERSF.4d
  6
CONTINUOUS
 62
8
 10
3.9592478895778
 20
9.4212928623363
 11
3.930426991642
 21
9.5288539177524
  0
LINE
  8
ERSF.4d
  6
CONTINUOUS
 62
8
 10
4.0074661916011
 20
9.3934540126833
 11
3.9786452936653
 21
9.5010150680994
  0
LINE
  8
ERSF.4d
  6
CONTINUOUS
 62
8
 10
4.0556844936243
 20
9.3656151630303
 11
4.0268635956886
 21
9.4731762184464
  0
LINE
  8
ERSF.4d
  6
CONTINUOUS
 62
8
 10
4.1039027956476
 20
9.3377763133772
 11
4.0750818977119
 21
9.4453373687933
  0
LINE
  8
ERSF.4d
  6
CONTINUOUS
 62
8
 10
4.1498269549503
 20
9.3184993209176
 11
4.1233001997351
 21
9.4174985191403
  0
LINE
  8
ERSF.4d
  6
CONTINUOUS
 62
8
 10
4.1829293192178
 20
9.3470739189732
 11
4.1715185017584
 21
9.3896596694873
  0
LINE
  8
ERSF.4d
  6
CONTINUOUS
 62
8
 10
2.6081261696115
 20
9.2285054171567
 11
3.4585198703989
 21
9.7194804492235
  0
LINE
  8
ERSF.4d
  6
CONTINUOUS
 62
8
 10
2.6081261696115
 20
9.3648873705086
 11
3.3404096341784
 21
9.7876714258994
  0
LINE
  8
ERSF.4d
  6
CONTINUOUS
 62
8
 10
2.6081261696115
 20
9.5012693238605
 11
3.2222993979579
 21
9.8558624025754
  0
LINE
  8
ERSF.4d
  6
CONTINUOUS
 62
8
 10
2.6081261696115
 20
9.6376512772123
 11
3.1041891617375
 21
9.9240533792513
  0
LINE
  8
ERSF.4d
  6
CONTINUOUS
 62
8
 10
2.6081261696115
 20
9.7740332305642
 11
2.986078925517
 21
9.9922443559272
  0
LINE
  8
ERSF.4d
  6
CONTINUOUS
 62
8
 10
2.7679636923865
 20
9.1844057006056
 11
3.5766301066193
 21
9.6512894725475
  0
LINE
  8
ERSF.4d
  6
CONTINUOUS
 62
8
 10
3.0041841648275
 20
9.1844057006056
 11
3.6947403428398
 21
9.5830984958716
  0
LINE
  8
ERSF.4d
  6
CONTINUOUS
 62
8
 10
3.4766251097094
 20
9.1844057006056
 11
3.9309608152808
 21
9.4467165425197
  0
LINE
  8
ERSF.4d
  6
CONTINUOUS
 62
8
 10
2.6081261696115
 20
9.9104151839161
 11
2.8679686892965
 21
10.060435332603
  0
LINE
  8
ERSF.4d
  6
CONTINUOUS
 62
8
 10
2.6081261696115
 20
10.046797137268
 11
2.749858453076
 21
10.128626309279
  0
LINE
  8
ERSF.4d
  6
CONTINUOUS
 62
8
 10
4.1671812877217
 20
9.3103345891678
 11
4.1514332562256
 21
9.3194267193913
  0
LINE
  8
ERSF.4d
  6
CONTINUOUS
 62
8
 10
3.0278062120716
 20
9.1844057006056
 11
3.6986773507138
 21
9.5717333330923
  0
LINE
  8
ERSF.4d
  6
CONTINUOUS
 62
8
 10
3.6711182955957
 20
9.5876445609833
 11
3.5766301066193
 21
9.6421973423241
  0
LINE
  8
ERSF.4d
  6
CONTINUOUS
 62
8
 10
3.6947403428398
 20
9.5830984958716
 11
3.6789923113438
 21
9.5921906260951
  0
LINE
  8
ERSF.4d
  6
CONTINUOUS
 62
8
 10
3.2404046372685
 20
9.1844057006056
 11
3.8128505790603
 21
9.5149075191957
  0
LINE
  8
ERSF.4d
  6
CONTINUOUS
 62
8
 10
3.2640266845125
 20
9.1844057006056
 11
3.8167875869343
 21
9.5035423564163
  0
LINE
  8
ERSF.4d
  6
CONTINUOUS
 62
8
 10
3.5002471569535
 20
9.1844057006056
 11
3.9348978231548
 21
9.4353513797404
  0
LINE
  8
ERSF.4d
  6
CONTINUOUS
 62
8
 10
2.7915857396306
 20
9.1844057006056
 11
3.5805671144934
 21
9.6399243097682
  0
LINE
  8
ERSF.4d
  6
CONTINUOUS
 62
8
 10
2.6081261696115
 20
9.2148672218215
 11
3.4624568782729
 21
9.7081152864442
  0
LINE
  8
ERSF.4d
  6
CONTINUOUS
 62
8
 10
2.6081261696115
 20
9.3512491751734
 11
3.3443466420524
 21
9.7763062631201
  0
LINE
  8
ERSF.4d
  6
CONTINUOUS
 62
8
 10
2.6081261696115
 20
9.4876311285253
 11
3.2262364058319
 21
9.844497239796
  0
LINE
  8
ERSF.4d
  6
CONTINUOUS
 62
8
 10
2.6081261696115
 20
9.6240130818771
 11
3.1081261696115
 21
9.912688216472
  0
LINE
  8
ERSF.4d
  6
CONTINUOUS
 62
8
 10
2.6081261696115
 20
9.760395035229
 11
2.990015933391
 21
9.9808791931479
  0
LINE
  8
ERSF.4d
  6
CONTINUOUS
 62
8
 10
2.6081261696115
 20
9.8967769885809
 11
2.8719056971705
 21
10.049070169824
  0
LINE
  8
ERSF.4d
  6
CONTINUOUS
 62
8
 10
2.6081261696115
 20
10.033158941933
 11
2.7537954609501
 21
10.1172611465
  0
LINE
  8
ERSF.4d
  6
CONTINUOUS
 62
8
 10
2.7262364058319
 20
10.133172374391
 11
2.6081261696115
 21
10.201363351067
  0
LINE
  8
ERSF.4d
  6
CONTINUOUS
 62
8
 10
2.749858453076
 20
10.128626309279
 11
2.73411042158
 21
10.137718439503
  0
LINE
  8
ERSF.4d
  6
CONTINUOUS
 62
8
 10
2.8443466420524
 20
10.064981397715
 11
2.749858453076
 21
10.119534179056
  0
LINE
  8
ERSF.4d
  6
CONTINUOUS
 62
8
 10
2.8679686892965
 20
10.060435332603
 11
2.8522206578005
 21
10.069527462827
  0
LINE
  8
ERSF.4d
  6
CONTINUOUS
 62
8
 10
2.9624568782729
 20
9.996790421039
 11
2.8679686892965
 21
10.05134320238
  0
LINE
  8
ERSF.4d
  6
CONTINUOUS
 62
8
 10
2.986078925517
 20
9.9922443559272
 11
2.9703308940209
 21
10.001336486151
  0
LINE
  8
ERSF.4d
  6
CONTINUOUS
 62
8
 10
3.0805671144934
 20
9.928599444363
 11
2.986078925517
 21
9.9831522257038
  0
LINE
  8
ERSF.4d
  6
CONTINUOUS
 62
8
 10
3.1041891617375
 20
9.9240533792513
 11
3.0884411302414
 21
9.9331455094748
  0
LINE
  8
ERSF.4d
  6
CONTINUOUS
 62
8
 10
3.1986773507138
 20
9.8604084676871
 11
3.1041891617375
 21
9.9149612490278
  0
LINE
  8
ERSF.4d
  6
CONTINUOUS
 62
8
 10
3.2222993979579
 20
9.8558624025754
 11
3.2065513664619
 21
9.8649545327988
  0
LINE
  8
ERSF.4d
  6
CONTINUOUS
 62
8
 10
3.3167875869343
 20
9.7922174910111
 11
3.2222993979579
 21
9.8467702723519
  0
LINE
  8
ERSF.4d
  6
CONTINUOUS
 62
8
 10
3.3404096341784
 20
9.7876714258994
 11
3.3246616026823
 21
9.7967635561229
  0
LINE
  8
ERSF.4d
  6
CONTINUOUS
 62
8
 10
3.4348978231548
 20
9.7240265143352
 11
3.3404096341784
 21
9.778579295676
  0
LINE
  8
ERSF.4d
  6
CONTINUOUS
 62
8
 10
3.4585198703989
 20
9.7194804492235
 11
3.4427718389028
 21
9.7285725794469
  0
LINE
  8
ERSF.4d
  6
CONTINUOUS
 62
8
 10
3.5766301066193
 20
9.6512894725475
 11
3.5608820751233
 21
9.660381602771
  0
LINE
  8
ERSF.4d
  6
CONTINUOUS
 62
8
 10
3.5530080593752
 20
9.6558355376593
 11
3.4585198703989
 21
9.710388319
  0
LINE
  8
ERSF.4d
  6
CONTINUOUS
 62
8
 10
3.7892285318162
 20
9.5194535843074
 11
3.6947403428398
 21
9.5740063656481
  0
LINE
  8
ERSF.4d
  6
CONTINUOUS
 62
8
 10
3.8128505790603
 20
9.5149075191957
 11
3.7971025475642
 21
9.5239996494191
  0
LINE
  8
ERSF.4d
  6
CONTINUOUS
 62
8
 10
3.9073387680367
 20
9.4512626076314
 11
3.8128505790603
 21
9.5058153889722
  0
LINE
  8
ERSF.4d
  6
CONTINUOUS
 62
8
 10
3.9309608152808
 20
9.4467165425197
 11
3.9152127837847
 21
9.4558086727432
  0
LINE
  8
ERSF.4d
  6
CONTINUOUS
 62
8
 10
3.7128455821503
 20
9.1844057006056
 11
4.0490710515012
 21
9.3785255658438
  0
LINE
  8
ERSF.4d
  6
CONTINUOUS
 62
8
 10
3.7364676293944
 20
9.1844057006056
 11
4.0530080593752
 21
9.3671604030645
  0
LINE
  8
ERSF.4d
  6
CONTINUOUS
 62
8
 10
3.9490660545912
 20
9.1844057006056
 11
4.1671812877217
 21
9.3103345891678
  0
LINE
  8
ERSF.4d
  6
CONTINUOUS
 62
8
 10
3.9726881018353
 20
9.1844057006056
 11
4.1711182955957
 21
9.2989694263885
  0
LINE
  8
ERSF.4d
  6
CONTINUOUS
 62
8
 10
4.0254490042571
 20
9.3830716309555
 11
3.9309608152808
 21
9.4376244122963
  0
LINE
  8
ERSF.4d
  6
CONTINUOUS
 62
8
 10
4.0490710515012
 20
9.3785255658438
 11
4.0333230200052
 21
9.3876176960672
  0
LINE
  8
ERSF.4d
  6
CONTINUOUS
 62
8
 10
4.1435592404776
 20
9.3148806542796
 11
4.0490710515012
 21
9.3694334356203
  0
LINE
  8
ERSF.4d
  6
CONTINUOUS
 62
8
 10
4.1809608152808
 20
9.3796620821217
 11
2.6061576656745
 21
10.288875104468
  0
ENDSEC
  0
EOF
